  0
SECTION
  2
HEADER
  9
$ACADVER
  1
AC1015
  9
$ACADMAINTVER
 70
    18
  9
$DWGCODEPAGE
  3
ANSI_1252
  9
$INSBASE
 10
0.0
 20
0.0
 30
0.0
  9
$EXTMIN
 10
-191.023863990586
 20
-329.0674435392341
 30
-0.0015258207003583
  9
$EXTMAX
 10
207.1481330543154
 20
403.5077827979202
 30
0.0000000349246037
  9
$LIMMIN
 10
0.0
 20
0.0
  9
$LIMMAX
 10
420.0
 20
297.0
  9
$ORTHOMODE
 70
     0
  9
$REGENMODE
 70
     1
  9
$FILLMODE
 70
     1
  9
$QTEXTMODE
 70
     0
  9
$MIRRTEXT
 70
     0
  9
$LTSCALE
 40
1.0
  9
$ATTMODE
 70
     1
  9
$TEXTSIZE
 40
2.5
  9
$TRACEWID
 40
1.0
  9
$TEXTSTYLE
  7
Standard
  9
$CLAYER
  8
0
  9
$CELTYPE
  6
ByLayer
  9
$CECOLOR
 62
   256
  9
$CELTSCALE
 40
1.0
  9
$DISPSILH
 70
     0
  9
$DIMSCALE
 40
1.0
  9
$DIMASZ
 40
2.5
  9
$DIMEXO
 40
0.625
  9
$DIMDLI
 40
3.75
  9
$DIMRND
 40
0.0
  9
$DIMDLE
 40
0.0
  9
$DIMEXE
 40
1.25
  9
$DIMTP
 40
0.0
  9
$DIMTM
 40
0.0
  9
$DIMTXT
 40
2.5
  9
$DIMCEN
 40
2.5
  9
$DIMTSZ
 40
0.0
  9
$DIMTOL
 70
     0
  9
$DIMLIM
 70
     0
  9
$DIMTIH
 70
     0
  9
$DIMTOH
 70
     0
  9
$DIMSE1
 70
     0
  9
$DIMSE2
 70
     0
  9
$DIMTAD
 70
     1
  9
$DIMZIN
 70
     8
  9
$DIMBLK
  1

  9
$DIMASO
 70
     1
  9
$DIMSHO
 70
     1
  9
$DIMPOST
  1

  9
$DIMAPOST
  1

  9
$DIMALT
 70
     0
  9
$DIMALTD
 70
     3
  9
$DIMALTF
 40
0.03937007874016
  9
$DIMLFAC
 40
1.0
  9
$DIMTOFL
 70
     1
  9
$DIMTVP
 40
0.0
  9
$DIMTIX
 70
     0
  9
$DIMSOXD
 70
     0
  9
$DIMSAH
 70
     0
  9
$DIMBLK1
  1

  9
$DIMBLK2
  1

  9
$DIMSTYLE
  2
ISO-25
  9
$DIMCLRD
 70
     0
  9
$DIMCLRE
 70
     0
  9
$DIMCLRT
 70
     0
  9
$DIMTFAC
 40
1.0
  9
$DIMGAP
 40
0.625
  9
$DIMJUST
 70
     0
  9
$DIMSD1
 70
     0
  9
$DIMSD2
 70
     0
  9
$DIMTOLJ
 70
     0
  9
$DIMTZIN
 70
     8
  9
$DIMALTZ
 70
     0
  9
$DIMALTTZ
 70
     0
  9
$DIMUPT
 70
     0
  9
$DIMDEC
 70
     2
  9
$DIMTDEC
 70
     2
  9
$DIMALTU
 70
     2
  9
$DIMALTTD
 70
     3
  9
$DIMTXSTY
  7
Standard
  9
$DIMAUNIT
 70
     0
  9
$DIMADEC
 70
     0
  9
$DIMALTRND
 40
0.0
  9
$DIMAZIN
 70
     0
  9
$DIMDSEP
 70
    44
  9
$DIMATFIT
 70
     3
  9
$DIMFRAC
 70
     0
  9
$DIMLDRBLK
  1

  9
$DIMLUNIT
 70
     2
  9
$DIMLWD
 70
    -2
  9
$DIMLWE
 70
    -2
  9
$DIMTMOVE
 70
     0
  9
$LUNITS
 70
     2
  9
$LUPREC
 70
     4
  9
$SKETCHINC
 40
1.0
  9
$FILLETRAD
 40
0.0
  9
$AUNITS
 70
     0
  9
$AUPREC
 70
     0
  9
$MENU
  1
.
  9
$ELEVATION
 40
0.0
  9
$PELEVATION
 40
0.0
  9
$THICKNESS
 40
0.0
  9
$LIMCHECK
 70
     0
  9
$CHAMFERA
 40
0.0
  9
$CHAMFERB
 40
0.0
  9
$CHAMFERC
 40
0.0
  9
$CHAMFERD
 40
0.0
  9
$SKPOLY
 70
     0
  9
$TDCREATE
 40
2460572.688854167
  9
$TDUCREATE
 40
2460572.397187500
  9
$TDUPDATE
 40
2460573.369861111
  9
$TDUUPDATE
 40
2460573.078194445
  9
$TDINDWG
 40
0.6789120370
  9
$TDUSRTIMER
 40
0.6789120370
  9
$USRTIMER
 70
     1
  9
$ANGBASE
 50
0.0
  9
$ANGDIR
 70
     0
  9
$PDMODE
 70
     0
  9
$PDSIZE
 40
0.0
  9
$PLINEWID
 40
0.0
  9
$SPLFRAME
 70
     0
  9
$SPLINETYPE
 70
     6
  9
$SPLINESEGS
 70
     8
  9
$HANDSEED
  5
3491
  9
$SURFTAB1
 70
     6
  9
$SURFTAB2
 70
     6
  9
$SURFTYPE
 70
     6
  9
$SURFU
 70
     6
  9
$SURFV
 70
     6
  9
$UCSBASE
  2

  9
$UCSNAME
  2

  9
$UCSORG
 10
0.0
 20
0.0
 30
0.0
  9
$UCSXDIR
 10
1.0
 20
0.0
 30
0.0
  9
$UCSYDIR
 10
0.0
 20
1.0
 30
0.0
  9
$UCSORTHOREF
  2

  9
$UCSORTHOVIEW
 70
     0
  9
$UCSORGTOP
 10
0.0
 20
0.0
 30
0.0
  9
$UCSORGBOTTOM
 10
0.0
 20
0.0
 30
0.0
  9
$UCSORGLEFT
 10
0.0
 20
0.0
 30
0.0
  9
$UCSORGRIGHT
 10
0.0
 20
0.0
 30
0.0
  9
$UCSORGFRONT
 10
0.0
 20
0.0
 30
0.0
  9
$UCSORGBACK
 10
0.0
 20
0.0
 30
0.0
  9
$PUCSBASE
  2

  9
$PUCSNAME
  2

  9
$PUCSORG
 10
0.0
 20
0.0
 30
0.0
  9
$PUCSXDIR
 10
1.0
 20
0.0
 30
0.0
  9
$PUCSYDIR
 10
0.0
 20
1.0
 30
0.0
  9
$PUCSORTHOREF
  2

  9
$PUCSORTHOVIEW
 70
     0
  9
$PUCSORGTOP
 10
0.0
 20
0.0
 30
0.0
  9
$PUCSORGBOTTOM
 10
0.0
 20
0.0
 30
0.0
  9
$PUCSORGLEFT
 10
0.0
 20
0.0
 30
0.0
  9
$PUCSORGRIGHT
 10
0.0
 20
0.0
 30
0.0
  9
$PUCSORGFRONT
 10
0.0
 20
0.0
 30
0.0
  9
$PUCSORGBACK
 10
0.0
 20
0.0
 30
0.0
  9
$USERI1
 70
     0
  9
$USERI2
 70
     0
  9
$USERI3
 70
     0
  9
$USERI4
 70
     0
  9
$USERI5
 70
     0
  9
$USERR1
 40
0.0
  9
$USERR2
 40
0.0
  9
$USERR3
 40
0.0
  9
$USERR4
 40
0.0
  9
$USERR5
 40
0.0
  9
$WORLDVIEW
 70
     1
  9
$SHADEDGE
 70
     3
  9
$SHADEDIF
 70
    70
  9
$TILEMODE
 70
     1
  9
$MAXACTVP
 70
    48
  9
$PINSBASE
 10
0.0
 20
0.0
 30
0.0
  9
$PLIMCHECK
 70
     0
  9
$PEXTMIN
 10
0.0
 20
0.0
 30
0.0
  9
$PEXTMAX
 10
0.0
 20
0.0
 30
0.0
  9
$PLIMMIN
 10
0.0
 20
0.0
  9
$PLIMMAX
 10
12.0
 20
9.0
  9
$UNITMODE
 70
     0
  9
$VISRETAIN
 70
     1
  9
$PLINEGEN
 70
     0
  9
$PSLTSCALE
 70
     1
  9
$TREEDEPTH
 70
  3020
  9
$CMLSTYLE
  2
Standard
  9
$CMLJUST
 70
     0
  9
$CMLSCALE
 40
20.0
  9
$PROXYGRAPHICS
 70
     1
  9
$MEASUREMENT
 70
     1
  9
$CELWEIGHT
370
    -1
  9
$ENDCAPS
280
     0
  9
$JOINSTYLE
280
     0
  9
$LWDISPLAY
290
     0
  9
$INSUNITS
 70
     4
  9
$HYPERLINKBASE
  1

  9
$STYLESHEET
  1

  9
$XEDIT
290
     1
  9
$CEPSNTYPE
380
     0
  9
$PSTYLEMODE
290
     1
  9
$FINGERPRINTGUID
  2
{0174FB10-CBEE-A049-BD77-4D56BD155670}
  9
$VERSIONGUID
  2
{F4CA492A-5E55-A54E-B002-DFFFF8515CC9}
  9
$EXTNAMES
290
     1
  9
$PSVPSCALE
 40
0.0
  9
$OLESTARTUP
290
     0
  0
ENDSEC
  0
SECTION
  2
CLASSES
  0
CLASS
  1
ACDBDICTIONARYWDFLT
  2
AcDbDictionaryWithDefault
  3
ObjectDBX Classes
 90
        0
280
     0
281
     0
  0
CLASS
  1
ACDBPLACEHOLDER
  2
AcDbPlaceHolder
  3
ObjectDBX Classes
 90
        0
280
     0
281
     0
  0
CLASS
  1
LAYOUT
  2
AcDbLayout
  3
ObjectDBX Classes
 90
        0
280
     0
281
     0
  0
CLASS
  1
DICTIONARYVAR
  2
AcDbDictionaryVar
  3
ObjectDBX Classes
 90
        0
280
     0
281
     0
  0
CLASS
  1
TABLESTYLE
  2
AcDbTableStyle
  3
ObjectDBX Classes
 90
     4095
280
     0
281
     0
  0
CLASS
  1
MATERIAL
  2
AcDbMaterial
  3
ObjectDBX Classes
 90
     1153
280
     0
281
     0
  0
CLASS
  1
VISUALSTYLE
  2
AcDbVisualStyle
  3
ObjectDBX Classes
 90
     4095
280
     0
281
     0
  0
CLASS
  1
SCALE
  2
AcDbScale
  3
ObjectDBX Classes
 90
     1153
280
     0
281
     0
  0
CLASS
  1
MLEADERSTYLE
  2
AcDbMLeaderStyle
  3
ACDB_MLEADERSTYLE_CLASS
 90
     4095
280
     0
281
     0
  0
CLASS
  1
CELLSTYLEMAP
  2
AcDbCellStyleMap
  3
ObjectDBX Classes
 90
     1152
280
     0
281
     0
  0
CLASS
  1
EXACXREFPANELOBJECT
  2
ExAcXREFPanelObject
  3
EXAC_ESW
 90
    33793
280
     0
281
     0
  0
CLASS
  1
NPOCOLLECTION
  2
AcDbImpNonPersistentObjectsCollection
  3
ObjectDBX Classes
 90
    33921
280
     0
281
     0
  0
CLASS
  1
LAYER_INDEX
  2
AcDbLayerIndex
  3
ObjectDBX Classes
 90
    32768
280
     0
281
     0
  0
CLASS
  1
SPATIAL_INDEX
  2
AcDbSpatialIndex
  3
ObjectDBX Classes
 90
    32768
280
     0
281
     0
  0
CLASS
  1
IDBUFFER
  2
AcDbIdBuffer
  3
ObjectDBX Classes
 90
    32768
280
     0
281
     0
  0
CLASS
  1
ACDBSECTIONVIEWSTYLE
  2
AcDbSectionViewStyle
  3
ObjectDBX Classes
 90
     1025
280
     0
281
     0
  0
CLASS
  1
ACDBDETAILVIEWSTYLE
  2
AcDbDetailViewStyle
  3
ObjectDBX Classes
 90
     1025
280
     0
281
     0
  0
CLASS
  1
XRECORD
  2
AcDbXrecord
  3
ObjectDBX Classes
 90
        0
280
     0
281
     0
  0
ENDSEC
  0
SECTION
  2
TABLES
  0
TABLE
  2
VPORT
  5
8
102
{ACAD_XDICTIONARY
360
339F
102
}
330
0
100
AcDbSymbolTable
 70
     1
  0
VPORT
  5
EA
330
8
100
AcDbSymbolTableRecord
100
AcDbViewportTableRecord
  2
*Active
 70
     0
 10
0.0
 20
0.0
 11
1.0
 21
1.0
 12
8.062134531864671
 22
37.22016962934305
 13
0.0
 23
0.0
 14
10.0
 24
10.0
 15
10.0
 25
10.0
 16
0.0
 26
0.0
 36
1.0
 17
0.0
 27
0.0
 37
0.0
 40
779.0273648133562
 41
0.9846153846153844
 42
50.0
 43
0.0
 44
0.0
 50
0.0
 51
0.0
 71
     0
 72
  1000
 73
     1
 74
     3
 75
     0
 76
     1
 77
     0
 78
     0
281
     0
 65
     1
110
0.0
120
0.0
130
0.0
111
1.0
121
0.0
131
0.0
112
0.0
122
1.0
132
0.0
 79
     0
146
0.0
1001
ACAD_NAV_VCDISPLAY
1070
     3
  0
ENDTAB
  0
TABLE
  2
LTYPE
  5
5
330
0
100
AcDbSymbolTable
 70
     1
  0
LTYPE
  5
14
330
5
100
AcDbSymbolTableRecord
100
AcDbLinetypeTableRecord
  2
ByBlock
 70
     0
  3

 72
    65
 73
     0
 40
0.0
  0
LTYPE
  5
15
330
5
100
AcDbSymbolTableRecord
100
AcDbLinetypeTableRecord
  2
ByLayer
 70
     0
  3

 72
    65
 73
     0
 40
0.0
  0
LTYPE
  5
16
330
5
100
AcDbSymbolTableRecord
100
AcDbLinetypeTableRecord
  2
Continuous
 70
     0
  3
Solid line
 72
    65
 73
     0
 40
0.0
  0
ENDTAB
  0
TABLE
  2
LAYER
  5
2
102
{ACAD_XDICTIONARY
360
1FF
102
}
330
0
100
AcDbSymbolTable
 70
     1
  0
LAYER
  5
10
102
{ACAD_XDICTIONARY
360
13C
102
}
330
2
100
AcDbSymbolTableRecord
100
AcDbLayerTableRecord
  2
0
 70
     0
 62
     7
  6
Continuous
370
    -3
390
F
  0
ENDTAB
  0
TABLE
  2
STYLE
  5
3
330
0
100
AcDbSymbolTable
 70
     1
  0
STYLE
  5
11
330
3
100
AcDbSymbolTableRecord
100
AcDbTextStyleTableRecord
  2
Standard
 70
     0
 40
0.0
 41
1.0
 50
0.0
 71
     0
 42
2.5
  3
arial.ttf
  4

1001
ACAD
1000
Arial
1071
       34
  0
ENDTAB
  0
TABLE
  2
VIEW
  5
6
330
0
100
AcDbSymbolTable
 70
     0
  0
ENDTAB
  0
TABLE
  2
UCS
  5
7
330
0
100
AcDbSymbolTable
 70
     0
  0
ENDTAB
  0
TABLE
  2
APPID
  5
9
330
0
100
AcDbSymbolTable
 70
     8
  0
APPID
  5
12
330
9
100
AcDbSymbolTableRecord
100
AcDbRegAppTableRecord
  2
ACAD
 70
     0
  0
APPID
  5
9E
330
9
100
AcDbSymbolTableRecord
100
AcDbRegAppTableRecord
  2
ACAD_PSEXT
 70
     0
  0
APPID
  5
133
330
9
100
AcDbSymbolTableRecord
100
AcDbRegAppTableRecord
  2
AcadAnnoPO
 70
     0
  0
APPID
  5
134
330
9
100
AcDbSymbolTableRecord
100
AcDbRegAppTableRecord
  2
AcadAnnotative
 70
     0
  0
APPID
  5
135
330
9
100
AcDbSymbolTableRecord
100
AcDbRegAppTableRecord
  2
ACAD_DSTYLE_DIMJAG
 70
     0
  0
APPID
  5
136
330
9
100
AcDbSymbolTableRecord
100
AcDbRegAppTableRecord
  2
ACAD_DSTYLE_DIMTALN
 70
     0
  0
APPID
  5
165
330
9
100
AcDbSymbolTableRecord
100
AcDbRegAppTableRecord
  2
ACAD_MLEADERVER
 70
     0
  0
APPID
  5
217
330
9
100
AcDbSymbolTableRecord
100
AcDbRegAppTableRecord
  2
ACAD_NAV_VCDISPLAY
 70
     0
  0
ENDTAB
  0
TABLE
  2
DIMSTYLE
  5
A
330
0
100
AcDbSymbolTable
 70
     1
100
AcDbDimStyleTable
 71
     0
  0
DIMSTYLE
105
27
330
A
100
AcDbSymbolTableRecord
100
AcDbDimStyleTableRecord
  2
ISO-25
 70
     0
 41
2.5
 42
0.625
 43
3.75
 44
1.25
 73
     0
 74
     0
 77
     1
 78
     8
140
2.5
141
2.5
143
0.03937007874016
147
0.625
171
     3
172
     1
271
     2
272
     2
274
     3
278
    44
283
     0
284
     8
340
11
  0
ENDTAB
  0
TABLE
  2
BLOCK_RECORD
  5
1
330
0
100
AcDbSymbolTable
 70
     7
  0
BLOCK_RECORD
  5
1F
102
{ACAD_XDICTIONARY
360
1CE
102
}
330
1
100
AcDbSymbolTableRecord
100
AcDbBlockTableRecord
  2
*Model_Space
340
22
  0
BLOCK_RECORD
  5
D2
102
{ACAD_XDICTIONARY
360
3352
102
}
330
1
100
AcDbSymbolTableRecord
100
AcDbBlockTableRecord
  2
*Paper_Space
340
D3
  0
BLOCK_RECORD
  5
D6
102
{ACAD_XDICTIONARY
360
3354
102
}
330
1
100
AcDbSymbolTableRecord
100
AcDbBlockTableRecord
  2
*Paper_Space0
340
D7
  0
BLOCK_RECORD
  5
3193
330
1
100
AcDbSymbolTableRecord
100
AcDbBlockTableRecord
  2
AKR245X3-Front
340
0
102
{BLKREFS
331
3348
102
}
  0
BLOCK_RECORD
  5
31EB
330
1
100
AcDbSymbolTableRecord
100
AcDbBlockTableRecord
  2
AKR245X3-Left
340
0
102
{BLKREFS
331
3349
102
}
  0
BLOCK_RECORD
  5
320F
330
1
100
AcDbSymbolTableRecord
100
AcDbBlockTableRecord
  2
AKR245X3-Right
340
0
102
{BLKREFS
331
334A
102
}
  0
BLOCK_RECORD
  5
3236
330
1
100
AcDbSymbolTableRecord
100
AcDbBlockTableRecord
  2
AKR245X3-Top
340
0
102
{BLKREFS
331
334B
102
}
  0
BLOCK_RECORD
  5
327A
330
1
100
AcDbSymbolTableRecord
100
AcDbBlockTableRecord
  2
AKR245X3-Bottom
340
0
102
{BLKREFS
331
334C
102
}
  0
BLOCK_RECORD
  5
32A9
330
1
100
AcDbSymbolTableRecord
100
AcDbBlockTableRecord
  2
AKR245X3-ISO
340
0
102
{BLKREFS
331
334D
102
}
  0
ENDTAB
  0
ENDSEC
  0
SECTION
  2
BLOCKS
  0
BLOCK
  5
20
330
1F
100
AcDbEntity
  8
0
100
AcDbBlockBegin
  2
*Model_Space
 70
     0
 10
0.0
 20
0.0
 30
0.0
  3
*Model_Space
  1

  0
ENDBLK
  5
21
330
1F
100
AcDbEntity
  8
0
100
AcDbBlockEnd
  0
BLOCK
  5
D4
330
D2
100
AcDbEntity
 67
     1
  8
0
100
AcDbBlockBegin
  2
*Paper_Space
 70
     0
 10
0.0
 20
0.0
 30
0.0
  3
*Paper_Space
  1

  0
ENDBLK
  5
D5
330
D2
100
AcDbEntity
 67
     1
  8
0
100
AcDbBlockEnd
  0
BLOCK
  5
D8
330
D6
100
AcDbEntity
 67
     1
  8
0
100
AcDbBlockBegin
  2
*Paper_Space0
 70
     0
 10
0.0
 20
0.0
 30
0.0
  3
*Paper_Space0
  1

  0
ENDBLK
  5
D9
330
D6
100
AcDbEntity
 67
     1
  8
0
100
AcDbBlockEnd
  0
BLOCK
  5
3194
330
3193
100
AcDbEntity
  8
0
100
AcDbBlockBegin
  2
AKR245X3-Front
 70
     0
 10
0.0
 20
0.0
 30
0.0
  3
AKR245X3-Front
  1

  0
CIRCLE
  5
3196
330
3193
100
AcDbEntity
  8
0
100
AcDbCircle
 10
0.0000000000000096
 20
156.0
 30
0.0
 40
2.600000000000002
  0
CIRCLE
  5
3197
330
3193
100
AcDbEntity
  8
0
100
AcDbCircle
 10
11.20000000000001
 20
176.0
 30
0.0
 40
2.599999999999998
  0
CIRCLE
  5
3198
330
3193
100
AcDbEntity
  8
0
100
AcDbCircle
 10
22.50000000000002
 20
196.0
 30
0.0
 40
2.600000000000001
  0
CIRCLE
  5
3199
330
3193
100
AcDbEntity
  8
0
100
AcDbCircle
 10
-22.49999999999998
 20
196.0
 30
0.0
 40
2.6
  0
CIRCLE
  5
319A
330
3193
100
AcDbEntity
  8
0
100
AcDbCircle
 10
-11.19999999999998
 20
216.0
 30
0.0
 40
2.599999999999999
  0
CIRCLE
  5
319B
330
3193
100
AcDbEntity
  8
0
100
AcDbCircle
 10
0.0000000000000185
 20
236.0
 30
0.0
 40
2.6
  0
CIRCLE
  5
319C
330
3193
100
AcDbEntity
  8
0
100
AcDbCircle
 10
-22.49999999999998
 20
236.0
 30
0.0
 40
2.6
  0
CIRCLE
  5
319D
330
3193
100
AcDbEntity
  8
0
100
AcDbCircle
 10
22.50000000000002
 20
236.0
 30
0.0
 40
2.6
  0
CIRCLE
  5
319E
330
3193
100
AcDbEntity
  8
0
100
AcDbCircle
 10
11.20000000000001
 20
216.0
 30
0.0
 40
2.599999999999998
  0
CIRCLE
  5
319F
330
3193
100
AcDbEntity
  8
0
100
AcDbCircle
 10
0.000000000000014
 20
196.0
 30
0.0
 40
2.6
  0
CIRCLE
  5
31A0
330
3193
100
AcDbEntity
  8
0
100
AcDbCircle
 10
-11.19999999999998
 20
176.0
 30
0.0
 40
2.6
  0
CIRCLE
  5
31A1
330
3193
100
AcDbEntity
  8
0
100
AcDbCircle
 10
-22.49999999999999
 20
156.0
 30
0.0
 40
2.6
  0
CIRCLE
  5
31A2
330
3193
100
AcDbEntity
  8
0
100
AcDbCircle
 10
22.50000000000001
 20
156.0
 30
0.0
 40
2.600000000000004
  0
CIRCLE
  5
31A3
330
3193
100
AcDbEntity
  8
0
100
AcDbCircle
 10
0.0000000000000126
 20
183.0
 30
0.0
 40
6.749999999999999
  0
CIRCLE
  5
31A4
330
3193
100
AcDbEntity
  8
0
100
AcDbCircle
 10
0.0000000000000034
 20
100.0
 30
0.0
 40
6.750000000000003
  0
CIRCLE
  5
31A5
330
3193
100
AcDbEntity
  8
0
100
AcDbCircle
 10
-22.5
 20
87.00000000000001
 30
0.0
 40
2.600000000000006
  0
CIRCLE
  5
31A6
330
3193
100
AcDbEntity
  8
0
100
AcDbCircle
 10
22.5
 20
87.00000000000001
 30
0.0
 40
2.600000000000001
  0
CIRCLE
  5
31A7
330
3193
100
AcDbEntity
  8
0
100
AcDbCircle
 10
-0.0000000000000033
 20
40.0
 30
0.0
 40
2.6
  0
CIRCLE
  5
31A8
330
3193
100
AcDbEntity
  8
0
100
AcDbCircle
 10
14.0
 20
50.0
 30
0.0
 40
2.6
  0
CIRCLE
  5
31A9
330
3193
100
AcDbEntity
  8
0
100
AcDbCircle
 10
-14.0
 20
50.0
 30
0.0
 40
2.6
  0
CIRCLE
  5
31AA
330
3193
100
AcDbEntity
  8
0
100
AcDbCircle
 10
-0.0000000000000011
 20
60.0
 30
0.0
 40
2.6
  0
CIRCLE
  5
31AB
330
3193
100
AcDbEntity
  8
0
100
AcDbCircle
 10
20.0
 20
69.0
 30
0.0
 40
2.6
  0
CIRCLE
  5
31AC
330
3193
100
AcDbEntity
  8
0
100
AcDbCircle
 10
-20.0
 20
69.0
 30
0.0
 40
2.6
  0
CIRCLE
  5
31AD
330
3193
100
AcDbEntity
  8
0
100
AcDbCircle
 10
0.0000000000000009
 20
78.0
 30
0.0
 40
2.6
  0
LINE
  5
31AE
330
3193
100
AcDbEntity
  8
0
100
AcDbLine
 10
32.50000000000002
 20
71.49999999999998
 30
0.0
 11
32.50000000000002
 21
238.0
 31
0.0
  0
LINE
  5
31AF
330
3193
100
AcDbEntity
  8
0
100
AcDbLine
 10
-32.5
 20
71.49999999999998
 30
0.0
 11
-32.49999999999998
 21
238.0
 31
0.0
  0
LINE
  5
31B0
330
3193
100
AcDbEntity
  8
0
100
AcDbLine
 10
19.40049474616514
 20
14.78494715841456
 30
0.0
 11
22.88089344101221
 21
9.483549287033989
 31
0.0
  0
ELLIPSE
  5
31B1
330
3193
100
AcDbEntity
  8
0
100
AcDbEllipse
 10
21.84265019811888
 20
29.55706345359769
 30
0.0
 11
-2.149316260459678
 21
-14.99707715516456
 31
0.0
210
0.0
220
0.0
230
1.0
 40
0.13776599274178
 41
4.906663367072864
 42
6.128393843468901
  0
LINE
  5
31B2
330
3193
100
AcDbEntity
  8
0
100
AcDbLine
 10
22.88089344101219
 20
57.01806215511449
 30
0.0
 11
19.40049474616514
 21
26.95234078859373
 31
0.0
  0
LINE
  5
31B3
330
3193
100
AcDbEntity
  8
0
100
AcDbLine
 10
-19.40049474616516
 20
26.95234078859374
 30
0.0
 11
-22.88089344101219
 21
57.01806215511449
 31
0.0
  0
ELLIPSE
  5
31B4
330
3193
100
AcDbEntity
  8
0
100
AcDbEllipse
 10
-21.8426501981189
 20
29.5570634535977
 30
0.0
 11
-2.149316260459889
 21
14.99707715516453
 31
0.0
210
0.0
220
0.0
230
1.0
 40
0.1377659927417809
 41
3.296384117292435
 42
4.518114593693583
  0
LINE
  5
31B5
330
3193
100
AcDbEntity
  8
0
100
AcDbLine
 10
-22.88089344101226
 20
9.483549287033998
 30
0.0
 11
-19.40049474616518
 21
14.78494715841457
 31
0.0
  0
LINE
  5
31B6
330
3193
100
AcDbEntity
  8
0
100
AcDbLine
 10
-25.50000000000004
 20
2.999999999999996
 30
0.0
 11
25.49999999999997
 21
2.99999999999999
 31
0.0
  0
SPLINE
  5
31B7
330
3193
100
AcDbEntity
  8
0
100
AcDbSpline
210
0.0
220
0.0
230
1.0
 70
     8
 71
     3
 72
    20
 73
    16
 74
     0
 42
0.000000001
 43
0.0000000001
 40
-1.0
 40
-1.0
 40
-1.0
 40
-1.0
 40
-0.8557507846681595
 40
-0.8557507846681595
 40
-0.8557507846681595
 40
-0.4725410755532022
 40
-0.4725410755532022
 40
-0.4725410755532022
 40
-0.2262668722295299
 40
-0.2262668722295299
 40
-0.2262668722295299
 40
-0.0545088760473691
 40
-0.0545088760473691
 40
-0.0545088760473691
 40
0.0
 40
0.0
 40
0.0
 40
0.0
 10
-32.50000000000007
 20
71.4999999999999
 30
0.0
 10
-32.49596368058215
 20
70.51422263202017
 30
0.0
 10
-32.37910965910366
 20
69.60755482003307
 30
0.0
 10
-32.16692343470101
 20
68.79579103748337
 30
0.0
 10
-31.60323356543909
 20
66.63927488406574
 30
0.0
 10
-30.41855420420938
 20
65.09164757618187
 30
0.0
 10
-29.21981211982938
 20
63.52662748019486
 30
0.0
 10
-28.44942649337157
 20
62.52084900392689
 30
0.0
 10
-27.6722133332786
 20
61.512955051855
 30
0.0
 10
-27.05454655900349
 20
60.34589916496405
 30
0.0
 10
-26.62376978244293
 20
59.53196421822692
 30
0.0
 10
-26.26601864945622
 20
58.62483513659693
 30
0.0
 10
-26.05086466152748
 20
57.60015142182878
 30
0.0
 10
-25.98258369458684
 20
57.27495923958641
 30
0.0
 10
-25.93039957561626
 20
56.93850065070975
 30
0.0
 10
-25.89060973843285
 20
56.59507411448341
 30
0.0
  0
LINE
  5
31B8
330
3193
100
AcDbEntity
  8
0
100
AcDbLine
 10
-25.17482914752046
 20
56.69567051616822
 30
0.0
 11
-25.89060973854643
 21
56.59507411444166
 31
0.0
  0
LINE
  5
31B9
330
3193
100
AcDbEntity
  8
0
100
AcDbLine
 10
-22.88089344101223
 20
57.0180621551145
 30
0.0
 11
-25.17482914752046
 21
56.69567051616822
 31
0.0
  0
SPLINE
  5
31BA
330
3193
100
AcDbEntity
  8
0
100
AcDbSpline
210
0.0
220
0.0
230
1.0
 70
     8
 71
     3
 72
    20
 73
    16
 74
     0
 42
0.000000001
 43
0.0000000001
 40
-1.0
 40
-1.0
 40
-1.0
 40
-1.0
 40
-0.9088428636535578
 40
-0.9088428636535578
 40
-0.9088428636535578
 40
-0.5823465850615564
 40
-0.5823465850615564
 40
-0.5823465850615564
 40
-0.2911732925307782
 40
-0.2911732925307782
 40
-0.2911732925307782
 40
-0.092995535001048
 40
-0.092995535001048
 40
-0.092995535001048
 40
0.0
 40
0.0
 40
0.0
 40
0.0
 10
-22.88089344101216
 20
57.01806215511452
 30
0.0
 10
-22.95109681622265
 20
57.57958582195822
 30
0.0
 10
-23.07530148929847
 20
58.14397189547904
 30
0.0
 10
-23.26467997346872
 20
58.6503018143476
 30
0.0
 10
-23.94297432106635
 20
60.46381681576338
 30
0.0
 10
-25.33823159551609
 20
61.82580460133724
 30
0.0
 10
-26.83240929908162
 20
63.1191173376649
 30
0.0
 10
-28.1649348747159
 20
64.27250912924211
 30
0.0
 10
-29.57348340535068
 20
65.36243544939871
 30
0.0
 10
-30.66063198914493
 20
66.67310797568449
 30
0.0
 10
-31.40056478505956
 20
67.5651751699574
 30
0.0
 10
-31.98635644605364
 20
68.56090624180494
 30
0.0
 10
-32.28444102987531
 20
69.72364958298047
 30
0.0
 10
-32.42431815682233
 20
70.26927054685329
 30
0.0
 10
-32.49448780844157
 20
70.86254621833683
 30
0.0
 10
-32.50000000000145
 20
71.5000000000629
 30
0.0
  0
LINE
  5
31BB
330
3193
100
AcDbEntity
  8
0
100
AcDbLine
 10
-22.34380262810205
 20
57.09354534627188
 30
0.0
 11
-22.88089344101219
 21
57.0180621551145
 31
0.0
  0
LINE
  5
31BC
330
3193
100
AcDbEntity
  8
0
100
AcDbLine
 10
-19.40135808271014
 20
57.50707895874676
 30
0.0
 11
-22.34380262810206
 21
57.09354534627188
 31
0.0
  0
SPLINE
  5
31BD
330
3193
100
AcDbEntity
  8
0
100
AcDbSpline
210
0.0
220
0.0
230
1.0
 70
     8
 71
     2
 72
     6
 73
     3
 74
     0
 42
0.000000001
 43
0.0000000001
 40
0.0
 40
0.0
 40
0.0
 40
1.0
 40
1.0
 40
1.0
 10
-19.40135808271013
 20
57.50707895874676
 30
0.0
 10
-20.85646379032763
 20
67.86069405359665
 30
0.0
 10
-32.5
 20
71.49999999999993
 30
0.0
  0
SPLINE
  5
31BE
330
3193
100
AcDbEntity
  8
0
100
AcDbSpline
210
0.0
220
0.0
230
1.0
 70
     8
 71
     3
 72
    20
 73
    16
 74
     0
 42
0.000000001
 43
0.0000000001
 40
-1.0
 40
-1.0
 40
-1.0
 40
-1.0
 40
-0.85651408435884
 40
-0.85651408435884
 40
-0.85651408435884
 40
-0.5402558541856224
 40
-0.5402558541856224
 40
-0.5402558541856224
 40
-0.2701279270928112
 40
-0.2701279270928112
 40
-0.2701279270928112
 40
-0.0852549168085124
 40
-0.0852549168085124
 40
-0.0852549168085124
 40
0.0
 40
0.0
 40
0.0
 40
0.0
 10
22.88089344101223
 20
57.01806215511453
 30
0.0
 10
22.98563906630121
 20
57.922305087272
 30
0.0
 10
23.25108945202371
 20
58.75125606593787
 30
0.0
 10
23.64500443041449
 20
59.49063806022504
 30
0.0
 10
24.51323496961351
 20
61.1203146726669
 30
0.0
 10
25.94709485151895
 20
62.37298809432395
 30
0.0
 10
27.41482735372252
 20
63.61722483983172
 30
0.0
 10
28.66847232014709
 20
64.67997376084048
 30
0.0
 10
29.92402793115498
 20
65.70892477044241
 30
0.0
 10
30.88879741844149
 20
66.95682341166426
 30
0.0
 10
31.54907657308001
 20
67.81087349384292
 30
0.0
 10
32.05964361544177
 20
68.76547766487916
 30
0.0
 10
32.31762450953308
 20
69.85892594188951
 30
0.0
 10
32.43659341489204
 20
70.36317392134077
 30
0.0
 10
32.49484871723272
 20
70.90289999941804
 30
0.0
 10
32.50000000000146
 20
71.5000000000629
 30
0.0
  0
SPLINE
  5
31BF
330
3193
100
AcDbEntity
  8
0
100
AcDbSpline
210
0.0
220
0.0
230
1.0
 70
     8
 71
     2
 72
     6
 73
     3
 74
     0
 42
0.000000001
 43
0.0000000001
 40
0.0
 40
0.0
 40
0.0
 40
1.0
 40
1.0
 40
1.0
 10
19.40135808271013
 20
57.50707895874676
 30
0.0
 10
20.85646379032763
 20
67.86069405359665
 30
0.0
 10
32.50000000000001
 20
71.49999999999993
 30
0.0
  0
LINE
  5
31C0
330
3193
100
AcDbEntity
  8
0
100
AcDbLine
 10
22.34380262810205
 20
57.09354534627189
 30
0.0
 11
19.40135808271013
 21
57.50707895874676
 31
0.0
  0
LINE
  5
31C1
330
3193
100
AcDbEntity
  8
0
100
AcDbLine
 10
22.88089344101219
 20
57.0180621551145
 30
0.0
 11
22.34380262810205
 21
57.09354534627188
 31
0.0
  0
SPLINE
  5
31C2
330
3193
100
AcDbEntity
  8
0
100
AcDbSpline
210
0.0
220
0.0
230
1.0
 70
     8
 71
     3
 72
    20
 73
    16
 74
     0
 42
0.000000001
 43
0.0000000001
 40
-1.0
 40
-1.0
 40
-1.0
 40
-1.0
 40
-0.8557507846681595
 40
-0.8557507846681595
 40
-0.8557507846681595
 40
-0.4725410755532022
 40
-0.4725410755532022
 40
-0.4725410755532022
 40
-0.2262668722295299
 40
-0.2262668722295299
 40
-0.2262668722295299
 40
-0.0545088760473691
 40
-0.0545088760473691
 40
-0.0545088760473691
 40
0.0
 40
0.0
 40
0.0
 40
0.0
 10
32.50000000000008
 20
71.4999999999999
 30
0.0
 10
32.49596368058216
 20
70.51422263202017
 30
0.0
 10
32.37910965910367
 20
69.60755482003307
 30
0.0
 10
32.16692343470102
 20
68.79579103748337
 30
0.0
 10
31.60323356543909
 20
66.63927488406574
 30
0.0
 10
30.41855420420939
 20
65.09164757618187
 30
0.0
 10
29.21981211982939
 20
63.52662748019486
 30
0.0
 10
28.44942649337158
 20
62.52084900392689
 30
0.0
 10
27.67221333327861
 20
61.512955051855
 30
0.0
 10
27.05454655900349
 20
60.34589916496405
 30
0.0
 10
26.62376978244293
 20
59.53196421822692
 30
0.0
 10
26.26601864945622
 20
58.62483513659693
 30
0.0
 10
26.05086466152748
 20
57.60015142182878
 30
0.0
 10
25.98258369458684
 20
57.27495923958641
 30
0.0
 10
25.93039957561626
 20
56.93850065070975
 30
0.0
 10
25.89060973843285
 20
56.59507411448341
 30
0.0
  0
LINE
  5
31C3
330
3193
100
AcDbEntity
  8
0
100
AcDbLine
 10
25.89060973854643
 20
56.59507411444166
 30
0.0
 11
25.17482914752046
 21
56.6956705161682
 31
0.0
  0
LINE
  5
31C4
330
3193
100
AcDbEntity
  8
0
100
AcDbLine
 10
24.95106001335365
 20
56.72711921706465
 30
0.0
 11
22.88089344101223
 21
57.01806215511449
 31
0.0
  0
LINE
  5
31C5
330
3193
100
AcDbEntity
  8
0
100
AcDbLine
 10
25.17482914752046
 20
56.6956705161682
 30
0.0
 11
24.95106001335365
 21
56.72711921706465
 31
0.0
  0
SPLINE
  5
31C6
330
3193
100
AcDbEntity
  8
0
100
AcDbSpline
210
0.0
220
0.0
230
1.0
 70
     8
 71
     3
 72
    14
 73
    10
 74
     0
 42
0.000000001
 43
0.0000000001
 40
-0.4328644303148897
 40
-0.4328644303148897
 40
-0.4328644303148897
 40
-0.4328644303148897
 40
-0.2262668722295299
 40
-0.2262668722295299
 40
-0.2262668722295299
 40
-0.0545088760473691
 40
-0.0545088760473691
 40
-0.0545088760473691
 40
0.0
 40
0.0
 40
0.0
 40
0.0
 10
28.84763126614314
 20
5.258517418713508
 30
0.0
 10
28.20313773476745
 20
6.188103701621132
 30
0.0
 10
27.57270252318289
 20
7.097106866406539
 30
0.0
 10
27.05454655900346
 20
7.846564790693147
 30
0.0
 10
26.62376978244289
 20
8.469637940691967
 30
0.0
 10
26.26601864945619
 20
8.989941880003156
 30
0.0
 10
26.05086466152745
 20
9.312718229926307
 30
0.0
 10
25.9825836945868
 20
9.415154078271459
 30
0.0
 10
25.93039957561622
 20
9.494468906983714
 30
0.0
 10
25.89060973843281
 20
9.558133491115079
 30
0.0
  0
SPLINE
  5
31C7
330
3193
100
AcDbEntity
  8
0
100
AcDbSpline
210
0.0
220
0.0
230
1.0
 70
     8
 71
     3
 72
    20
 73
    16
 74
     0
 42
0.000000001
 43
0.0000000001
 40
-1.0
 40
-1.0
 40
-1.0
 40
-1.0
 40
-0.85651408435884
 40
-0.85651408435884
 40
-0.85651408435884
 40
-0.5402558541856224
 40
-0.5402558541856224
 40
-0.5402558541856224
 40
-0.2701279270928112
 40
-0.2701279270928112
 40
-0.2701279270928112
 40
-0.0852549168085124
 40
-0.0852549168085124
 40
-0.0852549168085124
 40
0.0
 40
0.0
 40
0.0
 40
0.0
 10
22.8808934410122
 20
9.483549287034009
 30
0.0
 10
22.98563906630118
 20
9.320092462343538
 30
0.0
 10
23.25108945202368
 20
9.072461725054051
 30
0.0
 10
23.64500443041446
 20
8.763930907755584
 30
0.0
 10
24.51323496961347
 20
8.083896147572339
 30
0.0
 10
25.94709485151891
 20
7.123035516969407
 30
0.0
 10
27.41482735372248
 20
6.173960274847953
 30
0.0
 10
28.66847232014706
 20
5.363319781258399
 30
0.0
 10
29.92402793115495
 20
4.579673909826079
 30
0.0
 10
30.88879741844146
 20
3.984753324039834
 30
0.0
 10
31.54907657307998
 20
3.577595275784377
 30
0.0
 10
32.05964361544173
 20
3.265340377929391
 30
0.0
 10
32.31762450953304
 20
3.108560584063271
 30
0.0
 10
32.436593414892
 20
3.036260964650155
 30
0.0
 10
32.49484871723267
 20
2.999954352938684
 30
0.0
 10
32.50000000000142
 20
2.999999999892052
 30
0.0
  0
LINE
  5
31C8
330
3193
100
AcDbEntity
  8
0
100
AcDbLine
 10
22.34380262810206
 20
5.586466387525109
 30
0.0
 11
22.8808934410122
 21
9.483549287033998
 31
0.0
  0
ELLIPSE
  5
31C9
330
3193
100
AcDbEntity
  8
0
100
AcDbEllipse
 10
19.4013580827101
 20
5.999999999999992
 30
0.0
 11
0.0000000000000019
 21
-3.0
 31
0.0
210
0.0
220
0.0
230
1.0
 40
0.9902680687415703
 41
0.0000000000000001
 42
1.432511480600928
  0
LINE
  5
31CA
330
3193
100
AcDbEntity
  8
0
100
AcDbLine
 10
25.17482914753103
 20
9.540395631335305
 30
0.0
 11
25.89060973854639
 21
9.558133491121623
 31
0.0
  0
LINE
  5
31CB
330
3193
100
AcDbEntity
  8
0
100
AcDbLine
 10
24.95106001333697
 20
9.53485037685836
 30
0.0
 11
25.17482914753103
 21
9.540395631335305
 31
0.0
  0
LINE
  5
31CC
330
3193
100
AcDbEntity
  8
0
100
AcDbLine
 10
22.8808934410122
 20
9.483549287033991
 30
0.0
 11
24.95106001333697
 21
9.53485037685836
 31
0.0
  0
SPLINE
  5
31CD
330
3193
100
AcDbEntity
  8
0
100
AcDbSpline
210
0.0
220
0.0
230
1.0
 70
     8
 71
     3
 72
    14
 73
    10
 74
     0
 42
0.000000001
 43
0.0000000001
 40
-0.4328644303148892
 40
-0.4328644303148892
 40
-0.4328644303148892
 40
-0.4328644303148892
 40
-0.2262668722295299
 40
-0.2262668722295299
 40
-0.2262668722295299
 40
-0.0545088760473691
 40
-0.0545088760473691
 40
-0.0545088760473691
 40
0.0
 40
0.0
 40
0.0
 40
0.0
 10
-28.84763126614319
 20
5.258517418713521
 30
0.0
 10
-28.20313773476751
 20
6.18810370162114
 30
0.0
 10
-27.57270252318296
 20
7.097106866406546
 30
0.0
 10
-27.05454655900352
 20
7.846564790693152
 30
0.0
 10
-26.62376978244296
 20
8.469637940691972
 30
0.0
 10
-26.26601864945625
 20
8.989941880003161
 30
0.0
 10
-26.05086466152751
 20
9.312718229926312
 30
0.0
 10
-25.98258369458687
 20
9.415154078271466
 30
0.0
 10
-25.93039957561629
 20
9.494468906983721
 30
0.0
 10
-25.89060973843287
 20
9.558133491115086
 30
0.0
  0
SPLINE
  5
31CE
330
3193
100
AcDbEntity
  8
0
100
AcDbSpline
210
0.0
220
0.0
230
1.0
 70
     8
 71
     3
 72
    20
 73
    16
 74
     0
 42
0.000000001
 43
0.0000000001
 40
-1.0
 40
-1.0
 40
-1.0
 40
-1.0
 40
-0.85651408435884
 40
-0.85651408435884
 40
-0.85651408435884
 40
-0.5402558541856224
 40
-0.5402558541856224
 40
-0.5402558541856224
 40
-0.2701279270928112
 40
-0.2701279270928112
 40
-0.2701279270928112
 40
-0.0852549168085124
 40
-0.0852549168085124
 40
-0.0852549168085124
 40
0.0
 40
0.0
 40
0.0
 40
0.0
 10
-22.88089344101226
 20
9.483549287034012
 30
0.0
 10
-22.98563906630125
 20
9.320092462343541
 30
0.0
 10
-23.25108945202374
 20
9.072461725054058
 30
0.0
 10
-23.64500443041452
 20
8.76393090775559
 30
0.0
 10
-24.51323496961354
 20
8.083896147572344
 30
0.0
 10
-25.94709485151897
 20
7.123035516969412
 30
0.0
 10
-27.41482735372255
 20
6.173960274847959
 30
0.0
 10
-28.66847232014711
 20
5.363319781258406
 30
0.0
 10
-29.924027931155
 20
4.579673909826086
 30
0.0
 10
-30.88879741844152
 20
3.984753324039841
 30
0.0
 10
-31.54907657308004
 20
3.577595275784384
 30
0.0
 10
-32.05964361544179
 20
3.265340377929398
 30
0.0
 10
-32.3176245095331
 20
3.108560584063278
 30
0.0
 10
-32.43659341489208
 20
3.036260964650163
 30
0.0
 10
-32.49484871723275
 20
2.999954352938691
 30
0.0
 10
-32.5000000000015
 20
2.99999999989206
 30
0.0
  0
ELLIPSE
  5
31CF
330
3193
100
AcDbEntity
  8
0
100
AcDbEllipse
 10
-19.40135808271016
 20
5.999999999999997
 30
0.0
 11
-0.0000000000000033
 21
-3.0
 31
0.0
210
0.0
220
0.0
230
1.0
 40
0.9902680687415703
 41
4.850673826578658
 42
6.283185307179586
  0
LINE
  5
31D0
330
3193
100
AcDbEntity
  8
0
100
AcDbLine
 10
-22.88089344101227
 20
9.483549287034001
 30
0.0
 11
-22.34380262810213
 21
5.586466387525113
 31
0.0
  0
LINE
  5
31D1
330
3193
100
AcDbEntity
  8
0
100
AcDbLine
 10
-25.89060973854647
 20
9.558133491121626
 30
0.0
 11
-25.1748291475311
 21
9.540395631335309
 31
0.0
  0
LINE
  5
31D2
330
3193
100
AcDbEntity
  8
0
100
AcDbLine
 10
-24.95106001333703
 20
9.534850376858361
 30
0.0
 11
-22.88089344101226
 21
9.483549287033994
 31
0.0
  0
LINE
  5
31D3
330
3193
100
AcDbEntity
  8
0
100
AcDbLine
 10
-25.1748291475311
 20
9.540395631335309
 30
0.0
 11
-24.95106001333703
 21
9.534850376858361
 31
0.0
  0
LINE
  5
31D4
330
3193
100
AcDbEntity
  8
0
100
AcDbLine
 10
25.49999999999997
 20
0.0
 30
0.0
 11
32.49999999999996
 21
0.0
 31
0.0
  0
LINE
  5
31D5
330
3193
100
AcDbEntity
  8
0
100
AcDbLine
 10
-32.50000000000004
 20
0.0
 30
0.0
 11
-25.50000000000004
 21
0.0
 31
0.0
  0
LINE
  5
31D6
330
3193
100
AcDbEntity
  8
0
100
AcDbLine
 10
25.50000000000002
 20
245.0
 30
0.0
 11
32.50000000000002
 21
238.0
 31
0.0
  0
LINE
  5
31D7
330
3193
100
AcDbEntity
  8
0
100
AcDbLine
 10
-32.49999999999998
 20
238.0
 30
0.0
 11
-25.49999999999998
 21
245.0
 31
0.0
  0
LINE
  5
31D8
330
3193
100
AcDbEntity
  8
0
100
AcDbLine
 10
-25.50000000000004
 20
2.999999999999996
 30
0.0
 11
-32.50000000000004
 21
2.999999999999997
 31
0.0
  0
LINE
  5
31D9
330
3193
100
AcDbEntity
  8
0
100
AcDbLine
 10
32.49999999999996
 20
2.999999999999989
 30
0.0
 11
25.49999999999997
 21
2.99999999999999
 31
0.0
  0
LINE
  5
31DA
330
3193
100
AcDbEntity
  8
0
100
AcDbLine
 10
25.49999999999997
 20
2.99999999999999
 30
0.0
 11
25.49999999999997
 21
0.0
 31
0.0
  0
LINE
  5
31DB
330
3193
100
AcDbEntity
  8
0
100
AcDbLine
 10
-25.50000000000004
 20
0.0
 30
0.0
 11
-25.50000000000004
 21
2.999999999999996
 31
0.0
  0
LINE
  5
31DC
330
3193
100
AcDbEntity
  8
0
100
AcDbLine
 10
-25.50000000000004
 20
0.0
 30
0.0
 11
25.49999999999997
 21
0.0
 31
0.0
  0
LINE
  5
31DD
330
3193
100
AcDbEntity
  8
0
100
AcDbLine
 10
-25.89060973854647
 20
9.558133491121633
 30
0.0
 11
-22.45917600970657
 21
14.78494715841457
 31
0.0
  0
ELLIPSE
  5
31DE
330
3193
100
AcDbEntity
  8
0
100
AcDbEllipse
 10
-24.9013314616603
 20
29.5570634535977
 30
0.0
 11
-2.149316260459889
 21
14.99707715516453
 31
0.0
210
0.0
220
0.0
230
1.0
 40
0.1377659927417809
 41
3.296384117292435
 42
4.518114593693582
  0
LINE
  5
31DF
330
3193
100
AcDbEntity
  8
0
100
AcDbLine
 10
-22.45917600970656
 20
26.95234078859374
 30
0.0
 11
-25.89060973854639
 21
56.59507411444166
 31
0.0
  0
LINE
  5
31E0
330
3193
100
AcDbEntity
  8
0
100
AcDbLine
 10
25.50000000000002
 20
245.0
 30
0.0
 11
-25.49999999999998
 21
245.0
 31
0.0
  0
LINE
  5
31E1
330
3193
100
AcDbEntity
  8
0
100
AcDbLine
 10
-13.14629605568258
 20
13.00000000000001
 30
0.0
 11
-19.40135808271008
 21
57.50707895874676
 31
0.0
  0
LINE
  5
31E2
330
3193
100
AcDbEntity
  8
0
100
AcDbLine
 10
19.40135808271008
 20
57.50707895874676
 30
0.0
 11
13.14629605568257
 21
13.0
 31
0.0
  0
ELLIPSE
  5
31E3
330
3193
100
AcDbEntity
  8
0
100
AcDbEllipse
 10
14.13008189859931
 20
13.0
 30
0.0
 11
-0.9932598611245555
 21
-9.999531768717298
 31
0.0
210
0.0
220
0.0
230
1.0
 40
0.0974265314997314
 41
4.722066117737838
 42
6.292862444532738
  0
ELLIPSE
  5
31E4
330
3193
100
AcDbEntity
  8
0
100
AcDbEllipse
 10
-14.13008189859932
 20
13.00000000000001
 30
0.0
 11
-0.9932598611246545
 21
9.999531768717286
 31
0.0
210
0.0
220
0.0
230
0.9999999999999998
 40
0.0974265314997323
 41
3.131915516220271
 42
4.702711843026079
  0
LINE
  5
31E5
330
3193
100
AcDbEntity
  8
0
100
AcDbLine
 10
10.40816572245876
 20
7.956249513399298
 30
0.0
 11
-10.47410269149623
 21
7.956249513399303
 31
0.0
  0
LINE
  5
31E6
330
3193
100
AcDbEntity
  8
0
100
AcDbLine
 10
22.45917600970654
 20
14.78494715841456
 30
0.0
 11
25.8906097385464
 21
9.558133491121624
 31
0.0
  0
LINE
  5
31E7
330
3193
100
AcDbEntity
  8
0
100
AcDbLine
 10
25.89060973854639
 20
56.59507411444167
 30
0.0
 11
22.45917600970653
 21
26.95234078859373
 31
0.0
  0
ELLIPSE
  5
31E8
330
3193
100
AcDbEntity
  8
0
100
AcDbEllipse
 10
24.90133146166027
 20
29.55706345359769
 30
0.0
 11
-2.149316260459678
 21
-14.99707715516456
 31
0.0
210
0.0
220
0.0
230
1.0
 40
0.13776599274178
 41
4.906663367072864
 42
6.1283938434689
  0
LINE
  5
31E9
330
3193
100
AcDbEntity
  8
0
100
AcDbLine
 10
32.49999999999996
 20
0.0
 30
0.0
 11
32.49999999999996
 21
2.999999999999989
 31
0.0
  0
LINE
  5
31EA
330
3193
100
AcDbEntity
  8
0
100
AcDbLine
 10
-32.50000000000004
 20
2.999999999999997
 30
0.0
 11
-32.50000000000004
 21
0.0
 31
0.0
  0
ENDBLK
  5
3195
330
3193
100
AcDbEntity
  8
0
100
AcDbBlockEnd
  0
BLOCK
  5
31EC
330
31EB
100
AcDbEntity
  8
0
100
AcDbBlockBegin
  2
AKR245X3-Left
 70
     0
 10
0.0
 20
0.0
 30
0.0
  3
AKR245X3-Left
  1

  0
ELLIPSE
  5
31EE
330
31EB
100
AcDbEntity
  8
0
100
AcDbEllipse
 10
6.000000000000003
 20
57.50707895874676
 30
0.0
 11
-6.0
 21
-0.000000000000001
 31
0.0
210
0.0
220
0.0
230
1.0
 40
0.139173100960066
 41
0.0
 42
1.432511480600927
  0
LINE
  5
31EF
330
31EB
100
AcDbEntity
  8
0
100
AcDbLine
 10
9.558133491121637
 20
56.59507411444164
 30
0.0
 11
5.172932775050226
 21
56.68001173379699
 31
0.0
  0
SPLINE
  5
31F0
330
31EB
100
AcDbEntity
  8
0
100
AcDbSpline
210
0.0
220
0.0
230
1.0
 70
     8
 71
     3
 72
    20
 73
    16
 74
     0
 42
0.000000001
 43
0.0000000001
 40
-1.0
 40
-1.0
 40
-1.0
 40
-1.0
 40
-0.8557507846681595
 40
-0.8557507846681595
 40
-0.8557507846681595
 40
-0.4725410755532022
 40
-0.4725410755532022
 40
-0.4725410755532022
 40
-0.2262668722295299
 40
-0.2262668722295299
 40
-0.2262668722295299
 40
-0.0545088760473691
 40
-0.0545088760473691
 40
-0.0545088760473691
 40
0.0
 40
0.0
 40
0.0
 40
0.0
 10
-0.0000000000001409
 20
71.4999999999999
 30
0.0
 10
-0.0000078262251951
 20
70.51422263202017
 30
0.0
 10
0.1669297411126677
 20
69.60755482003307
 30
0.0
 10
0.4742787332319909
 20
68.79579103748337
 30
0.0
 10
1.290776192825613
 20
66.63927488406574
 30
0.0
 10
2.99223789466076
 20
65.09164757618187
 30
0.0
 10
4.721648724178498
 20
63.52662748019486
 30
0.0
 10
5.833074828810532
 20
62.52084900392689
 30
0.0
 10
6.953174980383586
 20
61.512955051855
 30
0.0
 10
7.846564790693145
 20
60.34589916496405
 30
0.0
 10
8.469637940691965
 20
59.53196421822692
 30
0.0
 10
8.989941880003156
 20
58.62483513659693
 30
0.0
 10
9.312718229926307
 20
57.60015142182878
 30
0.0
 10
9.415154078271459
 20
57.27495923958641
 30
0.0
 10
9.494468906983714
 20
56.93850065070975
 30
0.0
 10
9.55813349111508
 20
56.59507411448341
 30
0.0
  0
LINE
  5
31F1
330
31EB
100
AcDbEntity
  8
0
100
AcDbLine
 10
0.0
 20
57.50707895874676
 30
0.0
 11
0.0
 21
71.49999999999993
 31
0.0
  0
LINE
  5
31F2
330
31EB
100
AcDbEntity
  8
0
100
AcDbLine
 10
9.540395631335027
 20
56.69567051616822
 30
0.0
 11
9.558133491121607
 21
56.59507411444166
 31
0.0
  0
LINE
  5
31F3
330
31EB
100
AcDbEntity
  8
0
100
AcDbLine
 10
9.483549287033973
 20
57.0180621551145
 30
0.0
 11
9.540395631335027
 21
56.69567051616822
 31
0.0
  0
SPLINE
  5
31F4
330
31EB
100
AcDbEntity
  8
0
100
AcDbSpline
210
0.0
220
0.0
230
1.0
 70
     8
 71
     3
 72
    20
 73
    16
 74
     0
 42
0.000000001
 43
0.0000000001
 40
-1.0
 40
-1.0
 40
-1.0
 40
-1.0
 40
-0.9088428636535578
 40
-0.9088428636535578
 40
-0.9088428636535578
 40
-0.5823465850615564
 40
-0.5823465850615564
 40
-0.5823465850615564
 40
-0.2911732925307782
 40
-0.2911732925307782
 40
-0.2911732925307782
 40
-0.092995535001048
 40
-0.092995535001048
 40
-0.092995535001048
 40
0.0
 40
0.0
 40
0.0
 40
0.0
 10
9.483549287034016
 20
57.01806215511452
 30
0.0
 10
9.381169312041567
 20
57.57958582195822
 30
0.0
 10
9.242772184902456
 20
58.14397189547904
 30
0.0
 10
9.075440545868408
 20
58.6503018143476
 30
0.0
 10
8.476111084402177
 20
60.46381681576338
 30
0.0
 10
7.529918640451418
 20
61.82580460133724
 30
0.0
 10
6.55292404274999
 20
63.1191173376649
 30
0.0
 10
5.681628556552441
 20
64.27250912924211
 30
0.0
 10
4.79710656398004
 20
65.36243544939871
 30
0.0
 10
4.125004767753718
 20
66.67310797568449
 30
0.0
 10
3.667560248546117
 20
67.5651751699574
 30
0.0
 10
3.313097342214037
 20
68.56090624180494
 30
0.0
 10
3.127698446625095
 20
69.72364958298047
 30
0.0
 10
3.040699432715521
 20
70.26927054685329
 30
0.0
 10
3.002604909099753
 20
70.86254621833683
 30
0.0
 10
2.999999999891968
 20
71.5000000000629
 30
0.0
  0
ELLIPSE
  5
31F5
330
31EB
100
AcDbEntity
  8
0
100
AcDbEllipse
 10
57.50707895874676
 20
5.999999999999996
 30
0.0
 11
0.0000000000000006
 21
-6.000000000000001
 31
0.0
210
0.0
220
0.0
230
1.0
 40
0.1391731009600662
 41
4.850673826578719
 42
6.283185307179711
  0
LINE
  5
31F6
330
31EB
100
AcDbEntity
  8
0
100
AcDbLine
 10
57.50707895874676
 20
0.0
 30
0.0
 11
71.49999999999991
 21
0.0
 31
0.0
  0
SPLINE
  5
31F7
330
31EB
100
AcDbEntity
  8
0
100
AcDbSpline
210
0.0
220
0.0
230
1.0
 70
     8
 71
     3
 72
    20
 73
    16
 74
     0
 42
0.000000001
 43
0.0000000001
 40
-1.0
 40
-1.0
 40
-1.0
 40
-1.0
 40
-0.8557507846681595
 40
-0.8557507846681595
 40
-0.8557507846681595
 40
-0.4725410755532022
 40
-0.4725410755532022
 40
-0.4725410755532022
 40
-0.2262668722295299
 40
-0.2262668722295299
 40
-0.2262668722295299
 40
-0.0545088760473691
 40
-0.0545088760473691
 40
-0.0545088760473691
 40
0.0
 40
0.0
 40
0.0
 40
0.0
 10
71.49999999999988
 20
-0.0000000000001313
 30
0.0
 10
70.51422263202015
 20
-0.0000078262251854
 30
0.0
 10
69.60755482003306
 20
0.1669297411126773
 30
0.0
 10
68.79579103748335
 20
0.4742787332320004
 30
0.0
 10
66.63927488406574
 20
1.290776192825622
 30
0.0
 10
65.09164757618186
 20
2.992237894660769
 30
0.0
 10
63.52662748019486
 20
4.721648724178505
 30
0.0
 10
62.52084900392688
 20
5.83307482881054
 30
0.0
 10
61.51295505185498
 20
6.953174980383593
 30
0.0
 10
60.34589916496404
 20
7.846564790693152
 30
0.0
 10
59.5319642182269
 20
8.469637940691972
 30
0.0
 10
58.62483513659693
 20
8.989941880003161
 30
0.0
 10
57.60015142182877
 20
9.312718229926312
 30
0.0
 10
57.27495923958639
 20
9.415154078271466
 30
0.0
 10
56.93850065070975
 20
9.494468906983721
 30
0.0
 10
56.59507411448339
 20
9.558133491115086
 30
0.0
  0
LINE
  5
31F8
330
31EB
100
AcDbEntity
  8
0
100
AcDbLine
 10
56.68001173379697
 20
5.172932775050227
 30
0.0
 11
56.59507411444163
 21
9.558133491121637
 31
0.0
  0
SPLINE
  5
31F9
330
31EB
100
AcDbEntity
  8
0
100
AcDbSpline
210
0.0
220
0.0
230
1.0
 70
     8
 71
     3
 72
    20
 73
    16
 74
     0
 42
0.000000001
 43
0.0000000001
 40
-1.0
 40
-1.0
 40
-1.0
 40
-1.0
 40
-0.85651408435884
 40
-0.85651408435884
 40
-0.85651408435884
 40
-0.5402558541856224
 40
-0.5402558541856224
 40
-0.5402558541856224
 40
-0.2701279270928112
 40
-0.2701279270928112
 40
-0.2701279270928112
 40
-0.0852549168085124
 40
-0.0852549168085124
 40
-0.0852549168085124
 40
0.0
 40
0.0
 40
0.0
 40
0.0
 10
57.01806215511453
 20
9.483549287034014
 30
0.0
 10
57.92230508727199
 20
9.320092462343543
 30
0.0
 10
58.75125606593785
 20
9.072461725054058
 30
0.0
 10
59.49063806022502
 20
8.76393090775559
 30
0.0
 10
61.12031467266689
 20
8.083896147572344
 30
0.0
 10
62.37298809432394
 20
7.123035516969412
 30
0.0
 10
63.61722483983172
 20
6.17396027484796
 30
0.0
 10
64.67997376084047
 20
5.363319781258406
 30
0.0
 10
65.70892477044239
 20
4.579673909826086
 30
0.0
 10
66.95682341166424
 20
3.984753324039841
 30
0.0
 10
67.81087349384292
 20
3.577595275784384
 30
0.0
 10
68.76547766487914
 20
3.265340377929398
 30
0.0
 10
69.85892594188951
 20
3.108560584063278
 30
0.0
 10
70.36317392134076
 20
3.036260964650163
 30
0.0
 10
70.90289999941802
 20
2.999954352938692
 30
0.0
 10
71.50000000006288
 20
2.99999999989206
 30
0.0
  0
LINE
  5
31FA
330
31EB
100
AcDbEntity
  8
0
100
AcDbLine
 10
56.59507411444164
 20
9.558133491121626
 30
0.0
 11
56.69567051616671
 21
9.540395631335309
 31
0.0
  0
LINE
  5
31FB
330
31EB
100
AcDbEntity
  8
0
100
AcDbLine
 10
56.72711921706699
 20
9.534850376858361
 30
0.0
 11
57.01806215511449
 21
9.483549287033994
 31
0.0
  0
LINE
  5
31FC
330
31EB
100
AcDbEntity
  8
0
100
AcDbLine
 10
56.69567051616671
 20
9.540395631335309
 30
0.0
 11
56.72711921706699
 21
9.534850376858361
 31
0.0
  0
LINE
  5
31FD
330
31EB
100
AcDbEntity
  8
0
100
AcDbLine
 10
0.0
 20
57.50707895874677
 30
0.0
 11
0.0
 21
10.0
 31
0.0
  0
ARC
  5
31FE
330
31EB
100
AcDbEntity
  8
0
100
AcDbCircle
 10
10.0
 20
10.0
 30
0.0
 40
9.999999999999998
100
AcDbArc
 50
180.0
 51
270.0
  0
LINE
  5
31FF
330
31EB
100
AcDbEntity
  8
0
100
AcDbLine
 10
10.0
 20
0.0
 30
0.0
 11
57.50707895874676
 21
0.0
 31
0.0
  0
LINE
  5
3200
330
31EB
100
AcDbEntity
  8
0
100
AcDbLine
 10
0.0
 20
238.0
 30
0.0
 11
0.0
 21
71.49999999999998
 31
0.0
  0
LINE
  5
3201
330
31EB
100
AcDbEntity
  8
0
100
AcDbLine
 10
0.0
 20
245.0
 30
0.0
 11
0.0
 21
238.0
 31
0.0
  0
LINE
  5
3202
330
31EB
100
AcDbEntity
  8
0
100
AcDbLine
 10
77.99999999999998
 20
0.0
 30
0.0
 11
85.0
 21
0.0
 31
0.0
  0
LINE
  5
3203
330
31EB
100
AcDbEntity
  8
0
100
AcDbLine
 10
3.000000000000003
 20
238.0
 30
0.0
 11
3.000000000000007
 21
245.0
 31
0.0
  0
LINE
  5
3204
330
31EB
100
AcDbEntity
  8
0
100
AcDbLine
 10
85.0
 20
2.999999999999996
 30
0.0
 11
77.99999999999998
 21
2.999999999999997
 31
0.0
  0
LINE
  5
3205
330
31EB
100
AcDbEntity
  8
0
100
AcDbLine
 10
85.0
 20
0.0
 30
0.0
 11
85.0
 21
2.999999999999996
 31
0.0
  0
LINE
  5
3206
330
31EB
100
AcDbEntity
  8
0
100
AcDbLine
 10
0.0
 20
238.0
 30
0.0
 11
3.000000000000003
 21
238.0
 31
0.0
  0
LINE
  5
3207
330
31EB
100
AcDbEntity
  8
0
100
AcDbLine
 10
71.49999999999991
 20
0.0
 30
0.0
 11
77.99999999999998
 21
0.0
 31
0.0
  0
LINE
  5
3208
330
31EB
100
AcDbEntity
  8
0
100
AcDbLine
 10
71.49999999999991
 20
2.999999999999998
 30
0.0
 11
77.99999999999998
 21
2.999999999999997
 31
0.0
  0
LINE
  5
3209
330
31EB
100
AcDbEntity
  8
0
100
AcDbLine
 10
77.99999999999998
 20
2.999999999999997
 30
0.0
 11
77.99999999999998
 21
0.0
 31
0.0
  0
LINE
  5
320A
330
31EB
100
AcDbEntity
  8
0
100
AcDbLine
 10
56.59507411444166
 20
9.558133491121633
 30
0.0
 11
26.95234078859373
 21
14.78494715841457
 31
0.0
  0
ARC
  5
320B
330
31EB
100
AcDbEntity
  8
0
100
AcDbCircle
 10
29.55706345359767
 20
29.5570634535977
 30
0.0
 40
15.0
100
AcDbArc
 50
189.9999999999999
 51
260.0
  0
LINE
  5
320C
330
31EB
100
AcDbEntity
  8
0
100
AcDbLine
 10
14.78494715841456
 20
26.95234078859374
 30
0.0
 11
9.558133491121612
 21
56.59507411444166
 31
0.0
  0
LINE
  5
320D
330
31EB
100
AcDbEntity
  8
0
100
AcDbLine
 10
2.999999999999994
 20
71.49999999999998
 30
0.0
 11
3.000000000000003
 21
238.0
 31
0.0
  0
LINE
  5
320E
330
31EB
100
AcDbEntity
  8
0
100
AcDbLine
 10
3.000000000000007
 20
245.0
 30
0.0
 11
0.0
 21
245.0
 31
0.0
  0
ENDBLK
  5
31ED
330
31EB
100
AcDbEntity
  8
0
100
AcDbBlockEnd
  0
BLOCK
  5
3210
330
320F
100
AcDbEntity
  8
0
100
AcDbBlockBegin
  2
AKR245X3-Right
 70
     0
 10
0.0
 20
0.0
 30
0.0
  3
AKR245X3-Right
  1

  0
SPLINE
  5
3212
330
320F
100
AcDbEntity
  8
0
100
AcDbSpline
210
0.0
220
0.0
230
1.0
 70
     8
 71
     3
 72
    14
 73
    10
 74
     0
 42
0.000000001
 43
0.0000000001
 40
-0.9977898714090807
 40
-0.9977898714090807
 40
-0.9977898714090807
 40
-0.9977898714090807
 40
-0.9088428636535578
 40
-0.9088428636535578
 40
-0.9088428636535578
 40
-0.5823465850615564
 40
-0.5823465850615564
 40
-0.5823465850615564
 40
-0.3934690555973208
 40
-0.3934690555973208
 40
-0.3934690555973208
 40
-0.3934690555973208
 10
-9.476039184058409
 20
57.0589091988441
 30
0.0
 10
-9.37444135436557
 20
57.60691907031591
 30
0.0
 10
-9.238715185588777
 20
58.15624799667067
 30
0.0
 10
-9.075440545868408
 20
58.6503018143476
 30
0.0
 10
-8.476111084402177
 20
60.46381681576338
 30
0.0
 10
-7.529918640451418
 20
61.82580460133724
 30
0.0
 10
-6.55292404274999
 20
63.1191173376649
 30
0.0
 10
-5.987734366746524
 20
63.86729650685984
 30
0.0
 10
-5.416979210341303
 20
64.58877052600463
 30
0.0
 10
-4.902249290550563
 20
65.36111553866176
 30
0.0
  0
SPLINE
  5
3213
330
320F
100
AcDbEntity
  8
0
100
AcDbSpline
210
0.0
220
0.0
230
1.0
 70
     8
 71
     3
 72
    11
 73
     7
 74
     0
 42
0.000000001
 43
0.0000000001
 40
-0.2225949764991738
 40
-0.2225949764991738
 40
-0.2225949764991738
 40
-0.2225949764991738
 40
-0.092995535001048
 40
-0.092995535001048
 40
-0.092995535001048
 40
0.0
 40
0.0
 40
0.0
 40
0.0
 10
-3.689849786432358
 20
67.63905797613671
 30
0.0
 10
-3.442485264627246
 20
68.27430880162913
 30
0.0
 10
-3.248941080622969
 20
68.96326713895463
 30
0.0
 10
-3.127698446625095
 20
69.72364958298047
 30
0.0
 10
-3.040699432715521
 20
70.26927054685329
 30
0.0
 10
-3.002604909099753
 20
70.86254621833683
 30
0.0
 10
-2.999999999891968
 20
71.5000000000629
 30
0.0
  0
SPLINE
  5
3214
330
320F
100
AcDbEntity
  8
0
100
AcDbSpline
210
0.0
220
0.0
230
1.0
 70
     8
 71
     3
 72
    20
 73
    16
 74
     0
 42
0.000000001
 43
0.0000000001
 40
-1.0
 40
-1.0
 40
-1.0
 40
-1.0
 40
-0.85651408435884
 40
-0.85651408435884
 40
-0.85651408435884
 40
-0.5402558541856224
 40
-0.5402558541856224
 40
-0.5402558541856224
 40
-0.2701279270928112
 40
-0.2701279270928112
 40
-0.2701279270928112
 40
-0.0852549168085124
 40
-0.0852549168085124
 40
-0.0852549168085124
 40
0.0
 40
0.0
 40
0.0
 40
0.0
 10
-9.48354928703403
 20
57.01806215511453
 30
0.0
 10
-9.320092462343559
 20
57.922305087272
 30
0.0
 10
-9.072461725054074
 20
58.75125606593787
 30
0.0
 10
-8.763930907755607
 20
59.49063806022504
 30
0.0
 10
-8.08389614757236
 20
61.1203146726669
 30
0.0
 10
-7.123035516969428
 20
62.37298809432395
 30
0.0
 10
-6.173960274847978
 20
63.61722483983172
 30
0.0
 10
-5.363319781258425
 20
64.67997376084048
 30
0.0
 10
-4.579673909826103
 20
65.70892477044241
 30
0.0
 10
-3.98475332403986
 20
66.95682341166426
 30
0.0
 10
-3.577595275784404
 20
67.81087349384292
 30
0.0
 10
-3.265340377929418
 20
68.76547766487916
 30
0.0
 10
-3.108560584063297
 20
69.85892594188951
 30
0.0
 10
-3.036260964650182
 20
70.36317392134077
 30
0.0
 10
-2.999954352938711
 20
70.90289999941804
 30
0.0
 10
-2.99999999989208
 20
71.5000000000629
 30
0.0
  0
ELLIPSE
  5
3215
330
320F
100
AcDbEntity
  8
0
100
AcDbEllipse
 10
-6.000000000000021
 20
57.50707895874676
 30
0.0
 11
6.0
 21
-0.0000000000000095
 31
0.0
210
0.0
220
0.0
230
1.0
 40
0.1391731009600659
 41
4.850673826579095
 42
6.28318530718044
  0
LINE
  5
3216
330
320F
100
AcDbEntity
  8
0
100
AcDbLine
 10
0.0
 20
57.50707895874676
 30
0.0
 11
0.0
 21
71.49999999999993
 31
0.0
  0
SPLINE
  5
3217
330
320F
100
AcDbEntity
  8
0
100
AcDbSpline
210
0.0
220
0.0
230
1.0
 70
     8
 71
     3
 72
    20
 73
    16
 74
     0
 42
0.000000001
 43
0.0000000001
 40
-1.0
 40
-1.0
 40
-1.0
 40
-1.0
 40
-0.8557507846681595
 40
-0.8557507846681595
 40
-0.8557507846681595
 40
-0.4725410755532022
 40
-0.4725410755532022
 40
-0.4725410755532022
 40
-0.2262668722295299
 40
-0.2262668722295299
 40
-0.2262668722295299
 40
-0.0545088760473691
 40
-0.0545088760473691
 40
-0.0545088760473691
 40
0.0
 40
0.0
 40
0.0
 40
0.0
 10
0.0000000000001115
 20
71.4999999999999
 30
0.0
 10
0.0000078262251657
 20
70.51422263202017
 30
0.0
 10
-0.166929741112697
 20
69.60755482003307
 30
0.0
 10
-0.4742787332320201
 20
68.79579103748337
 30
0.0
 10
-1.290776192825642
 20
66.63927488406574
 30
0.0
 10
-2.992237894660788
 20
65.09164757618187
 30
0.0
 10
-4.721648724178525
 20
63.52662748019486
 30
0.0
 10
-5.833074828810559
 20
62.52084900392689
 30
0.0
 10
-6.953174980383613
 20
61.512955051855
 30
0.0
 10
-7.84656479069317
 20
60.34589916496405
 30
0.0
 10
-8.46963794069199
 20
59.53196421822692
 30
0.0
 10
-8.989941880003179
 20
58.62483513659693
 30
0.0
 10
-9.31271822992633
 20
57.60015142182878
 30
0.0
 10
-9.415154078271482
 20
57.27495923958641
 30
0.0
 10
-9.494468906983735
 20
56.93850065070975
 30
0.0
 10
-9.558133491115102
 20
56.59507411448341
 30
0.0
  0
LINE
  5
3218
330
320F
100
AcDbEntity
  8
0
100
AcDbLine
 10
-5.172932775050247
 20
56.68001173379699
 30
0.0
 11
-9.558133491121656
 21
56.59507411444164
 31
0.0
  0
LINE
  5
3219
330
320F
100
AcDbEntity
  8
0
100
AcDbLine
 10
-9.558133491121632
 20
56.59507411444166
 30
0.0
 11
-9.540395631335051
 21
56.6956705161682
 31
0.0
  0
LINE
  5
321A
330
320F
100
AcDbEntity
  8
0
100
AcDbLine
 10
-9.534850376858779
 20
56.72711921706465
 30
0.0
 11
-9.483549287033998
 21
57.01806215511449
 31
0.0
  0
LINE
  5
321B
330
320F
100
AcDbEntity
  8
0
100
AcDbLine
 10
-9.540395631335051
 20
56.6956705161682
 30
0.0
 11
-9.534850376858779
 21
56.72711921706465
 31
0.0
  0
ELLIPSE
  5
321C
330
320F
100
AcDbEntity
  8
0
100
AcDbEllipse
 10
-57.50707895874677
 20
5.999999999999992
 30
0.0
 11
0.0000000000000009
 21
-6.000000000000003
 31
0.0
210
0.0
220
0.0
230
1.0
 40
0.1391731009600658
 41
0.0
 42
1.432511480600928
  0
LINE
  5
321D
330
320F
100
AcDbEntity
  8
0
100
AcDbLine
 10
-56.59507411444167
 20
9.55813349112163
 30
0.0
 11
-56.68001173379701
 21
5.172932775050221
 31
0.0
  0
SPLINE
  5
321E
330
320F
100
AcDbEntity
  8
0
100
AcDbSpline
210
0.0
220
0.0
230
1.0
 70
     8
 71
     3
 72
    20
 73
    16
 74
     0
 42
0.000000001
 43
0.0000000001
 40
-1.0
 40
-1.0
 40
-1.0
 40
-1.0
 40
-0.8557507846681595
 40
-0.8557507846681595
 40
-0.8557507846681595
 40
-0.4725410755532022
 40
-0.4725410755532022
 40
-0.4725410755532022
 40
-0.2262668722295299
 40
-0.2262668722295299
 40
-0.2262668722295299
 40
-0.0545088760473691
 40
-0.0545088760473691
 40
-0.0545088760473691
 40
0.0
 40
0.0
 40
0.0
 40
0.0
 10
-71.49999999999993
 20
-0.0000000000001377
 30
0.0
 10
-70.51422263202019
 20
-0.0000078262251918
 30
0.0
 10
-69.6075548200331
 20
0.1669297411126709
 30
0.0
 10
-68.7957910374834
 20
0.4742787332319942
 30
0.0
 10
-66.63927488406577
 20
1.290776192825616
 30
0.0
 10
-65.0916475761819
 20
2.992237894660763
 30
0.0
 10
-63.5266274801949
 20
4.7216487241785
 30
0.0
 10
-62.52084900392691
 20
5.833074828810534
 30
0.0
 10
-61.51295505185502
 20
6.95317498038359
 30
0.0
 10
-60.34589916496408
 20
7.846564790693147
 30
0.0
 10
-59.53196421822695
 20
8.469637940691967
 30
0.0
 10
-58.62483513659697
 20
8.989941880003156
 30
0.0
 10
-57.6001514218288
 20
9.312718229926307
 30
0.0
 10
-57.27495923958643
 20
9.415154078271461
 30
0.0
 10
-56.93850065070979
 20
9.494468906983716
 30
0.0
 10
-56.59507411448344
 20
9.55813349111508
 30
0.0
  0
LINE
  5
321F
330
320F
100
AcDbEntity
  8
0
100
AcDbLine
 10
-57.50707895874677
 20
0.0
 30
0.0
 11
-71.49999999999995
 21
0.0
 31
0.0
  0
SPLINE
  5
3220
330
320F
100
AcDbEntity
  8
0
100
AcDbSpline
210
0.0
220
0.0
230
1.0
 70
     8
 71
     3
 72
    20
 73
    16
 74
     0
 42
0.000000001
 43
0.0000000001
 40
-1.0
 40
-1.0
 40
-1.0
 40
-1.0
 40
-0.85651408435884
 40
-0.85651408435884
 40
-0.85651408435884
 40
-0.5402558541856224
 40
-0.5402558541856224
 40
-0.5402558541856224
 40
-0.2701279270928112
 40
-0.2701279270928112
 40
-0.2701279270928112
 40
-0.0852549168085124
 40
-0.0852549168085124
 40
-0.0852549168085124
 40
0.0
 40
0.0
 40
0.0
 40
0.0
 10
-57.01806215511457
 20
9.483549287034009
 30
0.0
 10
-57.92230508727202
 20
9.320092462343538
 30
0.0
 10
-58.7512560659379
 20
9.072461725054052
 30
0.0
 10
-59.49063806022507
 20
8.763930907755586
 30
0.0
 10
-61.12031467266692
 20
8.083896147572339
 30
0.0
 10
-62.37298809432397
 20
7.123035516969408
 30
0.0
 10
-63.61722483983175
 20
6.173960274847955
 30
0.0
 10
-64.67997376084051
 20
5.3633197812584
 30
0.0
 10
-65.70892477044242
 20
4.579673909826079
 30
0.0
 10
-66.95682341166429
 20
3.984753324039835
 30
0.0
 10
-67.81087349384295
 20
3.577595275784378
 30
0.0
 10
-68.76547766487918
 20
3.265340377929391
 30
0.0
 10
-69.85892594188953
 20
3.108560584063272
 30
0.0
 10
-70.36317392134079
 20
3.036260964650157
 30
0.0
 10
-70.90289999941806
 20
2.999954352938685
 30
0.0
 10
-71.50000000006293
 20
2.999999999892053
 30
0.0
  0
LINE
  5
3221
330
320F
100
AcDbEntity
  8
0
100
AcDbLine
 10
-56.69567051616675
 20
9.540395631335305
 30
0.0
 11
-56.59507411444168
 21
9.558133491121624
 31
0.0
  0
LINE
  5
3222
330
320F
100
AcDbEntity
  8
0
100
AcDbLine
 10
-56.72711921706701
 20
9.53485037685836
 30
0.0
 11
-56.69567051616675
 21
9.540395631335305
 31
0.0
  0
LINE
  5
3223
330
320F
100
AcDbEntity
  8
0
100
AcDbLine
 10
-57.01806215511453
 20
9.483549287033991
 30
0.0
 11
-56.72711921706701
 21
9.53485037685836
 31
0.0
  0
LINE
  5
3224
330
320F
100
AcDbEntity
  8
0
100
AcDbLine
 10
0.0
 20
9.999999999999998
 30
0.0
 11
0.0
 21
57.50707895874677
 31
0.0
  0
ARC
  5
3225
330
320F
100
AcDbEntity
  8
0
100
AcDbCircle
 10
-10.00000000000001
 20
9.999999999999998
 30
0.0
 40
10.0
100
AcDbArc
 50
270.0
 51
0.0
  0
LINE
  5
3226
330
320F
100
AcDbEntity
  8
0
100
AcDbLine
 10
-57.50707895874677
 20
0.0
 30
0.0
 11
-10.00000000000001
 21
0.0
 31
0.0
  0
LINE
  5
3227
330
320F
100
AcDbEntity
  8
0
100
AcDbLine
 10
0.0
 20
238.0
 30
0.0
 11
0.0
 21
245.0
 31
0.0
  0
LINE
  5
3228
330
320F
100
AcDbEntity
  8
0
100
AcDbLine
 10
-85.0
 20
0.0
 30
0.0
 11
-78.00000000000003
 21
0.0
 31
0.0
  0
LINE
  5
3229
330
320F
100
AcDbEntity
  8
0
100
AcDbLine
 10
-3.00000000000003
 20
245.0
 30
0.0
 11
-3.000000000000032
 21
238.0
 31
0.0
  0
LINE
  5
322A
330
320F
100
AcDbEntity
  8
0
100
AcDbLine
 10
-78.00000000000003
 20
2.999999999999991
 30
0.0
 11
-85.0
 21
2.999999999999991
 31
0.0
  0
LINE
  5
322B
330
320F
100
AcDbEntity
  8
0
100
AcDbLine
 10
-85.0
 20
2.999999999999991
 30
0.0
 11
-85.0
 21
0.0
 31
0.0
  0
LINE
  5
322C
330
320F
100
AcDbEntity
  8
0
100
AcDbLine
 10
-3.000000000000032
 20
238.0
 30
0.0
 11
0.0
 21
238.0
 31
0.0
  0
LINE
  5
322D
330
320F
100
AcDbEntity
  8
0
100
AcDbLine
 10
0.0
 20
71.49999999999998
 30
0.0
 11
0.0
 21
238.0
 31
0.0
  0
LINE
  5
322E
330
320F
100
AcDbEntity
  8
0
100
AcDbLine
 10
-78.00000000000003
 20
0.0
 30
0.0
 11
-71.49999999999995
 21
0.0
 31
0.0
  0
LINE
  5
322F
330
320F
100
AcDbEntity
  8
0
100
AcDbLine
 10
-78.00000000000003
 20
2.999999999999991
 30
0.0
 11
-71.49999999999995
 21
2.999999999999991
 31
0.0
  0
LINE
  5
3230
330
320F
100
AcDbEntity
  8
0
100
AcDbLine
 10
-78.00000000000003
 20
0.0
 30
0.0
 11
-78.00000000000003
 21
2.999999999999991
 31
0.0
  0
LINE
  5
3231
330
320F
100
AcDbEntity
  8
0
100
AcDbLine
 10
-3.000000000000023
 20
71.49999999999998
 30
0.0
 11
-3.000000000000032
 21
238.0
 31
0.0
  0
LINE
  5
3232
330
320F
100
AcDbEntity
  8
0
100
AcDbLine
 10
-26.95234078859375
 20
14.78494715841456
 30
0.0
 11
-56.59507411444167
 21
9.558133491121626
 31
0.0
  0
LINE
  5
3233
330
320F
100
AcDbEntity
  8
0
100
AcDbLine
 10
-9.558133491121633
 20
56.59507411444167
 30
0.0
 11
-14.78494715841457
 21
26.95234078859373
 31
0.0
  0
ARC
  5
3234
330
320F
100
AcDbEntity
  8
0
100
AcDbCircle
 10
-29.55706345359769
 20
29.55706345359769
 30
0.0
 40
15.0
100
AcDbArc
 50
279.9999999999999
 51
350.0
  0
LINE
  5
3235
330
320F
100
AcDbEntity
  8
0
100
AcDbLine
 10
0.0
 20
245.0
 30
0.0
 11
-3.00000000000003
 21
245.0
 31
0.0
  0
ENDBLK
  5
3211
330
320F
100
AcDbEntity
  8
0
100
AcDbBlockEnd
  0
BLOCK
  5
3237
330
3236
100
AcDbEntity
  8
0
100
AcDbBlockBegin
  2
AKR245X3-Top
 70
     0
 10
0.0
 20
0.0
 30
0.0
  3
AKR245X3-Top
  1

  0
CIRCLE
  5
3239
330
3236
100
AcDbEntity
  8
0
100
AcDbCircle
 10
-0.0000000000000172
 20
-25.00000000000002
 30
0.0
 40
6.749999999999996
  0
CIRCLE
  5
323A
330
3236
100
AcDbEntity
  8
0
100
AcDbCircle
 10
-0.0000000000000349
 20
-65.00000000000001
 30
0.0
 40
5.5
  0
CIRCLE
  5
323B
330
3236
100
AcDbEntity
  8
0
100
AcDbCircle
 10
-22.50000000000004
 20
-75.0
 30
0.0
 40
2.6
  0
CIRCLE
  5
323C
330
3236
100
AcDbEntity
  8
0
100
AcDbCircle
 10
22.49999999999996
 20
-75.00000000000003
 30
0.0
 40
2.6
  0
LINE
  5
323D
330
3236
100
AcDbEntity
  8
0
100
AcDbLine
 10
19.40049474616514
 20
-26.95234078859376
 30
0.0
 11
22.88089344101221
 21
-57.01806215511453
 31
0.0
  0
ELLIPSE
  5
323E
330
3236
100
AcDbEntity
  8
0
100
AcDbEllipse
 10
21.84265019811888
 20
-29.5570634535977
 30
0.0
 11
2.149316260459897
 21
-14.99707715516453
 31
0.0
210
0.0
220
0.0
230
0.9999999999999998
 40
0.1377659927417797
 41
3.296384117292458
 42
4.518114593693592
  0
LINE
  5
323F
330
3236
100
AcDbEntity
  8
0
100
AcDbLine
 10
22.88089344101219
 20
-9.483549287034007
 30
0.0
 11
19.40049474616514
 21
-14.78494715841458
 31
0.0
  0
LINE
  5
3240
330
3236
100
AcDbEntity
  8
0
100
AcDbLine
 10
-19.40049474616516
 20
-14.78494715841456
 30
0.0
 11
-22.88089344101219
 21
-9.483549287033985
 31
0.0
  0
ELLIPSE
  5
3241
330
3236
100
AcDbEntity
  8
0
100
AcDbEllipse
 10
-21.8426501981189
 20
-29.55706345359768
 30
0.0
 11
2.149316260459697
 21
14.99707715516456
 31
0.0
210
0.0
220
0.0
230
0.9999999999999998
 40
0.1377659927417794
 41
4.906663367072859
 42
6.128393843468889
  0
LINE
  5
3242
330
3236
100
AcDbEntity
  8
0
100
AcDbLine
 10
-22.88089344101226
 20
-57.0180621551145
 30
0.0
 11
-19.40049474616518
 21
-26.95234078859375
 31
0.0
  0
LINE
  5
3243
330
3236
100
AcDbEntity
  8
0
100
AcDbLine
 10
-25.50000000000004
 20
-85.00000000000001
 30
0.0
 11
25.49999999999997
 21
-85.00000000000001
 31
0.0
  0
SPLINE
  5
3244
330
3236
100
AcDbEntity
  8
0
100
AcDbSpline
210
0.0
220
0.0
230
1.0
 70
     8
 71
     3
 72
    14
 73
    10
 74
     0
 42
0.000000001
 43
0.0000000001
 40
-0.4328644303148882
 40
-0.4328644303148882
 40
-0.4328644303148882
 40
-0.4328644303148882
 40
-0.2262668722295299
 40
-0.2262668722295299
 40
-0.2262668722295299
 40
-0.0545088760473691
 40
-0.0545088760473691
 40
-0.0545088760473691
 40
0.0
 40
0.0
 40
0.0
 40
0.0
 10
-28.84763126614315
 20
-5.258517418713534
 30
0.0
 10
-28.20313773476747
 20
-6.18810370162115
 30
0.0
 10
-27.57270252318292
 20
-7.09710686640655
 30
0.0
 10
-27.05454655900349
 20
-7.846564790693156
 30
0.0
 10
-26.62376978244293
 20
-8.469637940691976
 30
0.0
 10
-26.26601864945622
 20
-8.989941880003165
 30
0.0
 10
-26.05086466152748
 20
-9.312718229926316
 30
0.0
 10
-25.98258369458684
 20
-9.415154078271468
 30
0.0
 10
-25.93039957561626
 20
-9.494468906983723
 30
0.0
 10
-25.89060973843285
 20
-9.558133491115087
 30
0.0
  0
LINE
  5
3245
330
3236
100
AcDbEntity
  8
0
100
AcDbLine
 10
-25.17482914752046
 20
-9.540395631335034
 30
0.0
 11
-25.89060973854643
 21
-9.558133491121616
 31
0.0
  0
LINE
  5
3246
330
3236
100
AcDbEntity
  8
0
100
AcDbLine
 10
-22.88089344101223
 20
-9.483549287033984
 30
0.0
 11
-25.17482914752046
 21
-9.540395631335034
 31
0.0
  0
SPLINE
  5
3247
330
3236
100
AcDbEntity
  8
0
100
AcDbSpline
210
0.0
220
0.0
230
1.0
 70
     8
 71
     3
 72
    20
 73
    16
 74
     0
 42
0.000000001
 43
0.0000000001
 40
-1.0
 40
-1.0
 40
-1.0
 40
-1.0
 40
-0.9088428636535578
 40
-0.9088428636535578
 40
-0.9088428636535578
 40
-0.5823465850615564
 40
-0.5823465850615564
 40
-0.5823465850615564
 40
-0.2911732925307782
 40
-0.2911732925307782
 40
-0.2911732925307782
 40
-0.092995535001048
 40
-0.092995535001048
 40
-0.092995535001048
 40
0.0
 40
0.0
 40
0.0
 40
0.0
 10
-22.88089344101216
 20
-9.483549287034024
 30
0.0
 10
-22.95109681622265
 20
-9.381169312041578
 30
0.0
 10
-23.07530148929847
 20
-9.242772184902465
 30
0.0
 10
-23.26467997346872
 20
-9.075440545868417
 30
0.0
 10
-23.94297432106635
 20
-8.476111084402187
 30
0.0
 10
-25.33823159551609
 20
-7.529918640451427
 30
0.0
 10
-26.83240929908162
 20
-6.552924042749999
 30
0.0
 10
-28.1649348747159
 20
-5.681628556552449
 30
0.0
 10
-29.57348340535068
 20
-4.797106563980049
 30
0.0
 10
-30.66063198914493
 20
-4.125004767753727
 30
0.0
 10
-31.40056478505956
 20
-3.667560248546126
 30
0.0
 10
-31.98635644605364
 20
-3.313097342214046
 30
0.0
 10
-32.28444102987531
 20
-3.127698446625104
 30
0.0
 10
-32.42431815682233
 20
-3.04069943271553
 30
0.0
 10
-32.49448780844157
 20
-3.002604909099761
 30
0.0
 10
-32.50000000000145
 20
-2.999999999891976
 30
0.0
  0
LINE
  5
3248
330
3236
100
AcDbEntity
  8
0
100
AcDbLine
 10
-22.34380262810205
 20
-5.586466387525122
 30
0.0
 11
-22.88089344101219
 21
-9.483549287034012
 31
0.0
  0
ELLIPSE
  5
3249
330
3236
100
AcDbEntity
  8
0
100
AcDbEllipse
 10
-19.40135808271009
 20
-6.000000000000007
 30
0.0
 11
-0.000000000000046
 21
3.000000000000001
 31
0.0
210
0.0
220
0.0
230
1.0
 40
0.9902680687415703
 41
0.0000000000000002
 42
1.432511480600914
  0
SPLINE
  5
324A
330
3236
100
AcDbEntity
  8
0
100
AcDbSpline
210
0.0
220
0.0
230
1.0
 70
     8
 71
     3
 72
    20
 73
    16
 74
     0
 42
0.000000001
 43
0.0000000001
 40
-1.0
 40
-1.0
 40
-1.0
 40
-1.0
 40
-0.85651408435884
 40
-0.85651408435884
 40
-0.85651408435884
 40
-0.5402558541856224
 40
-0.5402558541856224
 40
-0.5402558541856224
 40
-0.2701279270928112
 40
-0.2701279270928112
 40
-0.2701279270928112
 40
-0.0852549168085124
 40
-0.0852549168085124
 40
-0.0852549168085124
 40
0.0
 40
0.0
 40
0.0
 40
0.0
 10
22.88089344101223
 20
-9.483549287034039
 30
0.0
 10
22.98563906630121
 20
-9.320092462343568
 30
0.0
 10
23.25108945202371
 20
-9.072461725054083
 30
0.0
 10
23.64500443041449
 20
-8.763930907755616
 30
0.0
 10
24.51323496961351
 20
-8.083896147572369
 30
0.0
 10
25.94709485151895
 20
-7.123035516969437
 30
0.0
 10
27.41482735372252
 20
-6.173960274847985
 30
0.0
 10
28.66847232014709
 20
-5.363319781258432
 30
0.0
 10
29.92402793115498
 20
-4.579673909826112
 30
0.0
 10
30.88879741844149
 20
-3.984753324039868
 30
0.0
 10
31.54907657308001
 20
-3.577595275784412
 30
0.0
 10
32.05964361544177
 20
-3.265340377929426
 30
0.0
 10
32.31762450953308
 20
-3.108560584063306
 30
0.0
 10
32.43659341489204
 20
-3.03626096465019
 30
0.0
 10
32.49484871723272
 20
-2.999954352938719
 30
0.0
 10
32.50000000000146
 20
-2.999999999892088
 30
0.0
  0
ELLIPSE
  5
324B
330
3236
100
AcDbEntity
  8
0
100
AcDbEllipse
 10
19.40135808271008
 20
-6.000000000000024
 30
0.0
 11
0.0000000000000025
 21
3.000000000000001
 31
0.0
210
0.0
220
0.0
230
1.0
 40
0.9902680687415704
 41
4.850673826578657
 42
6.283185307179572
  0
LINE
  5
324C
330
3236
100
AcDbEntity
  8
0
100
AcDbLine
 10
22.88089344101219
 20
-9.483549287034032
 30
0.0
 11
22.34380262810205
 21
-5.58646638752514
 31
0.0
  0
SPLINE
  5
324D
330
3236
100
AcDbEntity
  8
0
100
AcDbSpline
210
0.0
220
0.0
230
1.0
 70
     8
 71
     3
 72
    14
 73
    10
 74
     0
 42
0.000000001
 43
0.0000000001
 40
-0.432864430314889
 40
-0.432864430314889
 40
-0.432864430314889
 40
-0.432864430314889
 40
-0.2262668722295299
 40
-0.2262668722295299
 40
-0.2262668722295299
 40
-0.0545088760473691
 40
-0.0545088760473691
 40
-0.0545088760473691
 40
0.0
 40
0.0
 40
0.0
 40
0.0
 10
28.84763126614317
 20
-5.25851741871355
 30
0.0
 10
28.20313773476748
 20
-6.188103701621171
 30
0.0
 10
27.57270252318293
 20
-7.097106866406575
 30
0.0
 10
27.05454655900349
 20
-7.846564790693177
 30
0.0
 10
26.62376978244293
 20
-8.469637940691999
 30
0.0
 10
26.26601864945622
 20
-8.989941880003188
 30
0.0
 10
26.05086466152748
 20
-9.312718229926339
 30
0.0
 10
25.98258369458684
 20
-9.415154078271491
 30
0.0
 10
25.93039957561626
 20
-9.494468906983744
 30
0.0
 10
25.89060973843285
 20
-9.558133491115111
 30
0.0
  0
LINE
  5
324E
330
3236
100
AcDbEntity
  8
0
100
AcDbLine
 10
25.89060973854643
 20
-9.558133491121639
 30
0.0
 11
25.17482914752046
 21
-9.540395631335059
 31
0.0
  0
LINE
  5
324F
330
3236
100
AcDbEntity
  8
0
100
AcDbLine
 10
24.95106001335365
 20
-9.534850376858786
 30
0.0
 11
22.88089344101223
 21
-9.483549287034007
 31
0.0
  0
LINE
  5
3250
330
3236
100
AcDbEntity
  8
0
100
AcDbLine
 10
25.17482914752046
 20
-9.540395631335059
 30
0.0
 11
24.95106001335365
 21
-9.534850376858786
 31
0.0
  0
SPLINE
  5
3251
330
3236
100
AcDbEntity
  8
0
100
AcDbSpline
210
0.0
220
0.0
230
1.0
 70
     8
 71
     3
 72
    20
 73
    16
 74
     0
 42
0.000000001
 43
0.0000000001
 40
-1.0
 40
-1.0
 40
-1.0
 40
-1.0
 40
-0.8557507846681595
 40
-0.8557507846681595
 40
-0.8557507846681595
 40
-0.4725410755532022
 40
-0.4725410755532022
 40
-0.4725410755532022
 40
-0.2262668722295299
 40
-0.2262668722295299
 40
-0.2262668722295299
 40
-0.0545088760473691
 40
-0.0545088760473691
 40
-0.0545088760473691
 40
0.0
 40
0.0
 40
0.0
 40
0.0
 10
32.50000000000003
 20
-71.49999999999993
 30
0.0
 10
32.49596368058212
 20
-70.51422263202019
 30
0.0
 10
32.37910965910363
 20
-69.6075548200331
 30
0.0
 10
32.16692343470099
 20
-68.7957910374834
 30
0.0
 10
31.60323356543906
 20
-66.63927488406578
 30
0.0
 10
30.41855420420935
 20
-65.09164757618191
 30
0.0
 10
29.21981211982935
 20
-63.5266274801949
 30
0.0
 10
28.44942649337154
 20
-62.52084900392692
 30
0.0
 10
27.67221333327857
 20
-61.51295505185503
 30
0.0
 10
27.05454655900346
 20
-60.34589916496408
 30
0.0
 10
26.62376978244289
 20
-59.53196421822696
 30
0.0
 10
26.26601864945619
 20
-58.62483513659697
 30
0.0
 10
26.05086466152745
 20
-57.60015142182881
 30
0.0
 10
25.9825836945868
 20
-57.27495923958644
 30
0.0
 10
25.93039957561622
 20
-56.93850065070979
 30
0.0
 10
25.89060973843281
 20
-56.59507411448345
 30
0.0
  0
SPLINE
  5
3252
330
3236
100
AcDbEntity
  8
0
100
AcDbSpline
210
0.0
220
0.0
230
1.0
 70
     8
 71
     3
 72
    20
 73
    16
 74
     0
 42
0.000000001
 43
0.0000000001
 40
-1.0
 40
-1.0
 40
-1.0
 40
-1.0
 40
-0.85651408435884
 40
-0.85651408435884
 40
-0.85651408435884
 40
-0.5402558541856224
 40
-0.5402558541856224
 40
-0.5402558541856224
 40
-0.2701279270928112
 40
-0.2701279270928112
 40
-0.2701279270928112
 40
-0.0852549168085124
 40
-0.0852549168085124
 40
-0.0852549168085124
 40
0.0
 40
0.0
 40
0.0
 40
0.0
 10
22.8808934410122
 20
-57.01806215511457
 30
0.0
 10
22.98563906630118
 20
-57.92230508727204
 30
0.0
 10
23.25108945202368
 20
-58.7512560659379
 30
0.0
 10
23.64500443041446
 20
-59.49063806022508
 30
0.0
 10
24.51323496961347
 20
-61.12031467266693
 30
0.0
 10
25.94709485151891
 20
-62.37298809432399
 30
0.0
 10
27.41482735372248
 20
-63.61722483983176
 30
0.0
 10
28.66847232014706
 20
-64.67997376084051
 30
0.0
 10
29.92402793115495
 20
-65.70892477044243
 30
0.0
 10
30.88879741844146
 20
-66.95682341166429
 30
0.0
 10
31.54907657307998
 20
-67.81087349384296
 30
0.0
 10
32.05964361544173
 20
-68.76547766487918
 30
0.0
 10
32.31762450953304
 20
-69.85892594188955
 30
0.0
 10
32.436593414892
 20
-70.3631739213408
 30
0.0
 10
32.49484871723267
 20
-70.90289999941806
 30
0.0
 10
32.50000000000142
 20
-71.50000000006293
 30
0.0
  0
LINE
  5
3253
330
3236
100
AcDbEntity
  8
0
100
AcDbLine
 10
22.34380262810206
 20
-57.09354534627191
 30
0.0
 11
22.8808934410122
 21
-57.01806215511453
 31
0.0
  0
LINE
  5
3254
330
3236
100
AcDbEntity
  8
0
100
AcDbLine
 10
19.4013580827101
 20
-57.50707895874676
 30
0.0
 11
22.34380262810206
 21
-57.09354534627188
 31
0.0
  0
SPLINE
  5
3255
330
3236
100
AcDbEntity
  8
0
100
AcDbSpline
210
0.0
220
0.0
230
1.0
 70
     8
 71
     2
 72
     6
 73
     3
 74
     0
 42
0.000000001
 43
0.0000000001
 40
0.0
 40
0.0
 40
0.0
 40
1.0
 40
1.0
 40
1.0
 10
19.4013580827101
 20
-57.50707895874677
 30
0.0
 10
20.85646379032759
 20
-67.86069405359667
 30
0.0
 10
32.49999999999996
 20
-71.49999999999995
 30
0.0
  0
LINE
  5
3256
330
3236
100
AcDbEntity
  8
0
100
AcDbLine
 10
25.17482914753103
 20
-56.69567051616676
 30
0.0
 11
25.89060973854639
 21
-56.59507411444169
 31
0.0
  0
LINE
  5
3257
330
3236
100
AcDbEntity
  8
0
100
AcDbLine
 10
24.95106001333697
 20
-56.72711921706703
 30
0.0
 11
25.17482914753103
 21
-56.69567051616676
 31
0.0
  0
LINE
  5
3258
330
3236
100
AcDbEntity
  8
0
100
AcDbLine
 10
22.8808934410122
 20
-57.01806215511453
 30
0.0
 11
24.95106001333697
 21
-56.72711921706703
 31
0.0
  0
SPLINE
  5
3259
330
3236
100
AcDbEntity
  8
0
100
AcDbSpline
210
0.0
220
0.0
230
1.0
 70
     8
 71
     3
 72
    20
 73
    16
 74
     0
 42
0.000000001
 43
0.0000000001
 40
-1.0
 40
-1.0
 40
-1.0
 40
-1.0
 40
-0.8557507846681595
 40
-0.8557507846681595
 40
-0.8557507846681595
 40
-0.4725410755532022
 40
-0.4725410755532022
 40
-0.4725410755532022
 40
-0.2262668722295299
 40
-0.2262668722295299
 40
-0.2262668722295299
 40
-0.0545088760473691
 40
-0.0545088760473691
 40
-0.0545088760473691
 40
0.0
 40
0.0
 40
0.0
 40
0.0
 10
-32.50000000000011
 20
-71.4999999999999
 30
0.0
 10
-32.49596368058219
 20
-70.51422263202017
 30
0.0
 10
-32.37910965910369
 20
-69.60755482003307
 30
0.0
 10
-32.16692343470105
 20
-68.79579103748337
 30
0.0
 10
-31.60323356543913
 20
-66.63927488406574
 30
0.0
 10
-30.41855420420942
 20
-65.09164757618187
 30
0.0
 10
-29.21981211982942
 20
-63.52662748019486
 30
0.0
 10
-28.4494264933716
 20
-62.52084900392689
 30
0.0
 10
-27.67221333327864
 20
-61.512955051855
 30
0.0
 10
-27.05454655900352
 20
-60.34589916496405
 30
0.0
 10
-26.62376978244296
 20
-59.53196421822692
 30
0.0
 10
-26.26601864945625
 20
-58.62483513659693
 30
0.0
 10
-26.05086466152751
 20
-57.60015142182878
 30
0.0
 10
-25.98258369458687
 20
-57.27495923958641
 30
0.0
 10
-25.93039957561629
 20
-56.93850065070975
 30
0.0
 10
-25.89060973843287
 20
-56.59507411448341
 30
0.0
  0
SPLINE
  5
325A
330
3236
100
AcDbEntity
  8
0
100
AcDbSpline
210
0.0
220
0.0
230
1.0
 70
     8
 71
     3
 72
    20
 73
    16
 74
     0
 42
0.000000001
 43
0.0000000001
 40
-1.0
 40
-1.0
 40
-1.0
 40
-1.0
 40
-0.85651408435884
 40
-0.85651408435884
 40
-0.85651408435884
 40
-0.5402558541856224
 40
-0.5402558541856224
 40
-0.5402558541856224
 40
-0.2701279270928112
 40
-0.2701279270928112
 40
-0.2701279270928112
 40
-0.0852549168085124
 40
-0.0852549168085124
 40
-0.0852549168085124
 40
0.0
 40
0.0
 40
0.0
 40
0.0
 10
-22.88089344101226
 20
-57.01806215511453
 30
0.0
 10
-22.98563906630125
 20
-57.922305087272
 30
0.0
 10
-23.25108945202374
 20
-58.75125606593787
 30
0.0
 10
-23.64500443041452
 20
-59.49063806022504
 30
0.0
 10
-24.51323496961354
 20
-61.1203146726669
 30
0.0
 10
-25.94709485151897
 20
-62.37298809432395
 30
0.0
 10
-27.41482735372255
 20
-63.61722483983172
 30
0.0
 10
-28.66847232014711
 20
-64.67997376084048
 30
0.0
 10
-29.924027931155
 20
-65.70892477044241
 30
0.0
 10
-30.88879741844152
 20
-66.95682341166426
 30
0.0
 10
-31.54907657308004
 20
-67.81087349384292
 30
0.0
 10
-32.05964361544179
 20
-68.76547766487916
 30
0.0
 10
-32.3176245095331
 20
-69.85892594188951
 30
0.0
 10
-32.43659341489208
 20
-70.36317392134077
 30
0.0
 10
-32.49484871723275
 20
-70.90289999941804
 30
0.0
 10
-32.5000000000015
 20
-71.5000000000629
 30
0.0
  0
SPLINE
  5
325B
330
3236
100
AcDbEntity
  8
0
100
AcDbSpline
210
0.0
220
0.0
230
1.0
 70
     8
 71
     2
 72
     6
 73
     3
 74
     0
 42
0.000000001
 43
0.0000000001
 40
0.0
 40
0.0
 40
0.0
 40
1.0
 40
1.0
 40
1.0
 10
-19.40135808271017
 20
-57.50707895874677
 30
0.0
 10
-20.85646379032766
 20
-67.86069405359665
 30
0.0
 10
-32.50000000000004
 20
-71.49999999999993
 30
0.0
  0
LINE
  5
325C
330
3236
100
AcDbEntity
  8
0
100
AcDbLine
 10
-22.34380262810213
 20
-57.09354534627188
 30
0.0
 11
-19.40135808271016
 21
-57.50707895874676
 31
0.0
  0
LINE
  5
325D
330
3236
100
AcDbEntity
  8
0
100
AcDbLine
 10
-22.88089344101227
 20
-57.01806215511449
 30
0.0
 11
-22.34380262810213
 21
-57.09354534627188
 31
0.0
  0
LINE
  5
325E
330
3236
100
AcDbEntity
  8
0
100
AcDbLine
 10
-25.89060973854647
 20
-56.59507411444166
 30
0.0
 11
-25.1748291475311
 21
-56.69567051616673
 31
0.0
  0
LINE
  5
325F
330
3236
100
AcDbEntity
  8
0
100
AcDbLine
 10
-24.95106001333703
 20
-56.72711921706699
 30
0.0
 11
-22.88089344101226
 21
-57.01806215511449
 31
0.0
  0
LINE
  5
3260
330
3236
100
AcDbEntity
  8
0
100
AcDbLine
 10
-25.1748291475311
 20
-56.69567051616673
 30
0.0
 11
-24.95106001333703
 21
-56.72711921706699
 31
0.0
  0
LINE
  5
3261
330
3236
100
AcDbEntity
  8
0
100
AcDbLine
 10
-25.49999999999998
 20
0.0
 30
0.0
 11
-32.49999999999998
 21
0.0
 31
0.0
  0
LINE
  5
3262
330
3236
100
AcDbEntity
  8
0
100
AcDbLine
 10
32.50000000000002
 20
0.0
 30
0.0
 11
25.50000000000002
 21
0.0
 31
0.0
  0
LINE
  5
3263
330
3236
100
AcDbEntity
  8
0
100
AcDbLine
 10
25.50000000000002
 20
-3.000000000000036
 30
0.0
 11
32.50000000000002
 21
-3.000000000000039
 31
0.0
  0
LINE
  5
3264
330
3236
100
AcDbEntity
  8
0
100
AcDbLine
 10
-32.49999999999998
 20
-3.000000000000011
 30
0.0
 11
-25.49999999999998
 21
-3.000000000000014
 31
0.0
  0
LINE
  5
3265
330
3236
100
AcDbEntity
  8
0
100
AcDbLine
 10
-25.50000000000004
 20
-85.00000000000001
 30
0.0
 11
-32.50000000000004
 21
-78.0
 31
0.0
  0
LINE
  5
3266
330
3236
100
AcDbEntity
  8
0
100
AcDbLine
 10
32.49999999999996
 20
-78.00000000000003
 30
0.0
 11
25.49999999999997
 21
-85.00000000000001
 31
0.0
  0
LINE
  5
3267
330
3236
100
AcDbEntity
  8
0
100
AcDbLine
 10
32.50000000000002
 20
-3.000000000000039
 30
0.0
 11
32.50000000000002
 21
0.0
 31
0.0
  0
LINE
  5
3268
330
3236
100
AcDbEntity
  8
0
100
AcDbLine
 10
-32.49999999999998
 20
0.0
 30
0.0
 11
-32.49999999999998
 21
-3.000000000000011
 31
0.0
  0
LINE
  5
3269
330
3236
100
AcDbEntity
  8
0
100
AcDbLine
 10
25.50000000000002
 20
0.0
 30
0.0
 11
-25.49999999999998
 21
0.0
 31
0.0
  0
LINE
  5
326A
330
3236
100
AcDbEntity
  8
0
100
AcDbLine
 10
25.50000000000002
 20
-3.000000000000036
 30
0.0
 11
-25.49999999999998
 21
-3.000000000000014
 31
0.0
  0
LINE
  5
326B
330
3236
100
AcDbEntity
  8
0
100
AcDbLine
 10
25.50000000000002
 20
0.0
 30
0.0
 11
25.50000000000002
 21
-3.000000000000036
 31
0.0
  0
LINE
  5
326C
330
3236
100
AcDbEntity
  8
0
100
AcDbLine
 10
-25.49999999999998
 20
-3.000000000000014
 30
0.0
 11
-25.49999999999998
 21
0.0
 31
0.0
  0
LINE
  5
326D
330
3236
100
AcDbEntity
  8
0
100
AcDbLine
 10
-25.89060973854647
 20
-56.59507411444167
 30
0.0
 11
-22.45917600970657
 21
-26.95234078859375
 31
0.0
  0
ELLIPSE
  5
326E
330
3236
100
AcDbEntity
  8
0
100
AcDbEllipse
 10
-24.9013314616603
 20
-29.55706345359768
 30
0.0
 11
2.149316260459697
 21
14.99707715516456
 31
0.0
210
0.0
220
0.0
230
0.9999999999999998
 40
0.1377659927417794
 41
4.906663367072859
 42
6.128393843468892
  0
LINE
  5
326F
330
3236
100
AcDbEntity
  8
0
100
AcDbLine
 10
-22.45917600970656
 20
-14.78494715841456
 30
0.0
 11
-25.89060973854639
 21
-9.558133491121621
 31
0.0
  0
LINE
  5
3270
330
3236
100
AcDbEntity
  8
0
100
AcDbLine
 10
13.14629605568256
 20
-13.00000000000002
 30
0.0
 11
19.4013580827101
 21
-57.50707895874679
 31
0.0
  0
LINE
  5
3271
330
3236
100
AcDbEntity
  8
0
100
AcDbLine
 10
-19.40135808271016
 20
-57.50707895874677
 30
0.0
 11
-13.14629605568259
 21
-13.0
 31
0.0
  0
ELLIPSE
  5
3272
330
3236
100
AcDbEntity
  8
0
100
AcDbEllipse
 10
14.13008189859931
 20
-13.00000000000002
 30
0.0
 11
0.9932598611246566
 21
-9.999531768717286
 31
0.0
210
0.0
220
0.0
230
0.9999999999999998
 40
0.0974265314997314
 41
3.131915516220306
 42
4.702711843026092
  0
ELLIPSE
  5
3273
330
3236
100
AcDbEntity
  8
0
100
AcDbEllipse
 10
-14.13008189859932
 20
-13.00000000000001
 30
0.0
 11
0.9932598611245651
 21
9.999531768717297
 31
0.0
210
0.0
220
0.0
230
0.9999999999999998
 40
0.0974265314997312
 41
4.722066117737838
 42
6.292862444532735
  0
LINE
  5
3274
330
3236
100
AcDbEntity
  8
0
100
AcDbLine
 10
22.45917600970654
 20
-26.95234078859376
 30
0.0
 11
25.8906097385464
 21
-56.59507411444168
 31
0.0
  0
LINE
  5
3275
330
3236
100
AcDbEntity
  8
0
100
AcDbLine
 10
25.89060973854639
 20
-9.55813349112164
 30
0.0
 11
22.45917600970653
 21
-14.78494715841458
 31
0.0
  0
ELLIPSE
  5
3276
330
3236
100
AcDbEntity
  8
0
100
AcDbEllipse
 10
24.90133146166027
 20
-29.5570634535977
 30
0.0
 11
2.149316260459897
 21
-14.99707715516453
 31
0.0
210
0.0
220
0.0
230
0.9999999999999998
 40
0.1377659927417797
 41
3.296384117292456
 42
4.518114593693592
  0
LINE
  5
3277
330
3236
100
AcDbEntity
  8
0
100
AcDbLine
 10
-10.52975122692987
 20
-8.096545476464781
 30
0.0
 11
10.45526602582954
 21
-8.09654547646479
 31
0.0
  0
LINE
  5
3278
330
3236
100
AcDbEntity
  8
0
100
AcDbLine
 10
-32.50000000000004
 20
-71.49999999999993
 30
0.0
 11
-32.50000000000004
 21
-78.0
 31
0.0
  0
LINE
  5
3279
330
3236
100
AcDbEntity
  8
0
100
AcDbLine
 10
32.49999999999996
 20
-78.00000000000003
 30
0.0
 11
32.49999999999997
 21
-71.49999999999995
 31
0.0
  0
ENDBLK
  5
3238
330
3236
100
AcDbEntity
  8
0
100
AcDbBlockEnd
  0
BLOCK
  5
327B
330
327A
100
AcDbEntity
  8
0
100
AcDbBlockBegin
  2
AKR245X3-Bottom
 70
     0
 10
0.0
 20
0.0
 30
0.0
  3
AKR245X3-Bottom
  1

  0
CIRCLE
  5
327D
330
327A
100
AcDbEntity
  8
0
100
AcDbCircle
 10
-0.0000000000000175
 20
25.00000000000002
 30
0.0
 40
6.749999999999996
  0
CIRCLE
  5
327E
330
327A
100
AcDbEntity
  8
0
100
AcDbCircle
 10
-0.0000000000000353
 20
65.00000000000001
 30
0.0
 40
5.5
  0
CIRCLE
  5
327F
330
327A
100
AcDbEntity
  8
0
100
AcDbCircle
 10
-22.50000000000004
 20
75.0
 30
0.0
 40
2.6
  0
CIRCLE
  5
3280
330
327A
100
AcDbEntity
  8
0
100
AcDbCircle
 10
22.49999999999996
 20
75.00000000000003
 30
0.0
 40
2.6
  0
LINE
  5
3281
330
327A
100
AcDbEntity
  8
0
100
AcDbLine
 10
-25.50000000000004
 20
85.00000000000001
 30
0.0
 11
25.49999999999997
 21
85.00000000000001
 31
0.0
  0
ELLIPSE
  5
3282
330
327A
100
AcDbEntity
  8
0
100
AcDbEllipse
 10
-19.40135808271009
 20
6.000000000000012
 30
0.0
 11
0.0000000000000197
 21
-6.000000000000001
 31
0.0
210
0.0
220
0.0
230
1.0
 40
0.9902680687415701
 41
4.850673826578654
 42
6.283185307179574
  0
LINE
  5
3283
330
327A
100
AcDbEntity
  8
0
100
AcDbLine
 10
-25.89060973854639
 20
9.558133491121644
 30
0.0
 11
-25.28624717349402
 21
5.172932775050234
 31
0.0
  0
SPLINE
  5
3284
330
327A
100
AcDbEntity
  8
0
100
AcDbSpline
210
0.0
220
0.0
230
1.0
 70
     8
 71
     3
 72
    20
 73
    16
 74
     0
 42
0.000000001
 43
0.0000000001
 40
-1.0
 40
-1.0
 40
-1.0
 40
-1.0
 40
-0.8557507846681595
 40
-0.8557507846681595
 40
-0.8557507846681595
 40
-0.4725410755532022
 40
-0.4725410755532022
 40
-0.4725410755532022
 40
-0.2262668722295299
 40
-0.2262668722295299
 40
-0.2262668722295299
 40
-0.0545088760473691
 40
-0.0545088760473691
 40
-0.0545088760473691
 40
0.0
 40
0.0
 40
0.0
 40
0.0
 10
-32.50000000000007
 20
-0.0000000000001323
 30
0.0
 10
-32.49596368058215
 20
-0.0000078262251865
 30
0.0
 10
-32.37910965910366
 20
0.1669297411126763
 30
0.0
 10
-32.16692343470101
 20
0.4742787332319996
 30
0.0
 10
-31.60323356543909
 20
1.290776192825622
 30
0.0
 10
-30.41855420420938
 20
2.99223789466077
 30
0.0
 10
-29.21981211982938
 20
4.721648724178506
 30
0.0
 10
-28.44942649337157
 20
5.833074828810541
 30
0.0
 10
-27.6722133332786
 20
6.953174980383595
 30
0.0
 10
-27.05454655900349
 20
7.846564790693156
 30
0.0
 10
-26.62376978244293
 20
8.469637940691976
 30
0.0
 10
-26.26601864945622
 20
8.989941880003165
 30
0.0
 10
-26.05086466152748
 20
9.312718229926316
 30
0.0
 10
-25.98258369458684
 20
9.415154078271468
 30
0.0
 10
-25.93039957561626
 20
9.494468906983723
 30
0.0
 10
-25.89060973843285
 20
9.558133491115087
 30
0.0
  0
LINE
  5
3285
330
327A
100
AcDbEntity
  8
0
100
AcDbLine
 10
-19.40135808271013
 20
0.0
 30
0.0
 11
-32.5
 21
0.0
 31
0.0
  0
SPLINE
  5
3286
330
327A
100
AcDbEntity
  8
0
100
AcDbSpline
210
0.0
220
0.0
230
1.0
 70
     8
 71
     3
 72
    14
 73
    10
 74
     0
 42
0.000000001
 43
0.0000000001
 40
-0.4360717276400371
 40
-0.4360717276400371
 40
-0.4360717276400371
 40
-0.4360717276400371
 40
-0.2911732925307782
 40
-0.2911732925307782
 40
-0.2911732925307782
 40
-0.092995535001048
 40
-0.092995535001048
 40
-0.092995535001048
 40
0.0
 40
0.0
 40
0.0
 40
0.0
 10
-28.84781809750152
 20
5.258396530570371
 30
0.0
 10
-29.49903040108361
 20
4.846533596046159
 30
0.0
 10
-30.11962725909614
 20
4.459467099998784
 30
0.0
 10
-30.66063198914493
 20
4.125004767753727
 30
0.0
 10
-31.40056478505956
 20
3.667560248546126
 30
0.0
 10
-31.98635644605364
 20
3.313097342214046
 30
0.0
 10
-32.28444102987531
 20
3.127698446625104
 30
0.0
 10
-32.42431815682233
 20
3.04069943271553
 30
0.0
 10
-32.49448780844157
 20
3.002604909099761
 30
0.0
 10
-32.50000000000145
 20
2.999999999891976
 30
0.0
  0
LINE
  5
3287
330
327A
100
AcDbEntity
  8
0
100
AcDbLine
 10
-32.50000000000002
 20
3.000000000000003
 30
0.0
 11
-32.50000000000002
 21
0.0
 31
0.0
  0
SPLINE
  5
3288
330
327A
100
AcDbEntity
  8
0
100
AcDbSpline
210
0.0
220
0.0
230
1.0
 70
     8
 71
     3
 72
    22
 73
    18
 74
     0
 42
0.000000001
 43
0.0000000001
 40
0.0709950736112023
 40
0.0709950736112023
 40
0.0709950736112023
 40
0.0709950736112023
 40
0.0748293506984586
 40
0.0748293506984586
 40
0.0826962218976193
 40
0.0826962218976193
 40
0.0894398386169404
 40
0.0894398386169404
 40
0.0938452772493757
 40
0.0938452772493757
 40
0.0967259535007005
 40
0.0967259535007005
 40
0.1011836395498249
 40
0.1011836395498249
 40
0.1048664768314575
 40
0.1048664768314575
 40
0.1069248624392747
 40
0.1069248624392747
 40
0.1069248624392747
 40
0.1069248624392747
 10
-19.8458505892049
 20
0.0168132243556819
 30
0.0
 10
-19.85826005559401
 20
0.0176809998153462
 30
0.0
 10
-19.87077341924299
 20
0.0185923130766775
 30
0.0
 10
-19.90911781832123
 20
0.0215022894424185
 30
0.0
 10
-19.93537583665021
 20
0.0236588758289722
 30
0.0
 10
-19.98387813822993
 20
0.0279657647911703
 30
0.0
 10
-20.00645619589173
 20
0.0301017428389784
 30
0.0
 10
-20.04215993359085
 20
0.0336739242362977
 30
0.0
 10
-20.05601337642944
 20
0.0351123563328232
 30
0.0
 10
-20.07711776839005
 20
0.0373681099318201
 30
0.0
 10
-20.08506965961618
 20
0.0382357759297176
 30
0.0
 10
-20.10339515960227
 20
0.0402649751059775
 30
0.0
 10
-20.11291951304566
 20
0.0413501489952338
 30
0.0
 10
-20.1250902638085
 20
0.0427491906380183
 30
0.0
 10
-20.12881531903088
 20
0.043183069033964
 30
0.0
 10
-20.13174540138213
 20
0.0435240160706338
 30
0.0
 10
-20.1322491934472
 20
0.0435827000780419
 30
0.0
 10
-20.13224919311328
 20
0.043582700039192
 30
0.0
  0
SPLINE
  5
3289
330
327A
100
AcDbEntity
  8
0
100
AcDbSpline
210
0.0
220
0.0
230
1.0
 70
     8
 71
     3
 72
    14
 73
    10
 74
     0
 42
0.000000001
 43
0.0000000001
 40
-0.4363255927072098
 40
-0.4363255927072098
 40
-0.4363255927072098
 40
-0.4363255927072098
 40
-0.2701279270928112
 40
-0.2701279270928112
 40
-0.2701279270928112
 40
-0.0852549168085124
 40
-0.0852549168085124
 40
-0.0852549168085124
 40
0.0
 40
0.0
 40
0.0
 40
0.0
 10
28.84600524196536
 20
5.259490595945431
 30
0.0
 10
29.59156419794333
 20
4.788249448845188
 30
0.0
 10
30.29521778241989
 20
4.350781426530925
 30
0.0
 10
30.88879741844149
 20
3.984753324039868
 30
0.0
 10
31.54907657308001
 20
3.577595275784412
 30
0.0
 10
32.05964361544177
 20
3.265340377929426
 30
0.0
 10
32.31762450953308
 20
3.108560584063306
 30
0.0
 10
32.43659341489204
 20
3.03626096465019
 30
0.0
 10
32.49484871723272
 20
2.999954352938719
 30
0.0
 10
32.50000000000146
 20
2.999999999892088
 30
0.0
  0
ELLIPSE
  5
328A
330
327A
100
AcDbEntity
  8
0
100
AcDbEllipse
 10
19.40135808271008
 20
6.00000000000003
 30
0.0
 11
0.0000000000000502
 21
-6.0
 31
0.0
210
0.0
220
0.0
230
1.0
 40
0.9902680687415703
 41
0.0
 42
1.43251148060092
  0
LINE
  5
328B
330
327A
100
AcDbEntity
  8
0
100
AcDbLine
 10
19.40135808271013
 20
0.0
 30
0.0
 11
32.50000000000001
 21
0.0
 31
0.0
  0
SPLINE
  5
328C
330
327A
100
AcDbEntity
  8
0
100
AcDbSpline
210
0.0
220
0.0
230
1.0
 70
     8
 71
     3
 72
    20
 73
    16
 74
     0
 42
0.000000001
 43
0.0000000001
 40
-1.0
 40
-1.0
 40
-1.0
 40
-1.0
 40
-0.8557507846681595
 40
-0.8557507846681595
 40
-0.8557507846681595
 40
-0.4725410755532022
 40
-0.4725410755532022
 40
-0.4725410755532022
 40
-0.2262668722295299
 40
-0.2262668722295299
 40
-0.2262668722295299
 40
-0.0545088760473691
 40
-0.0545088760473691
 40
-0.0545088760473691
 40
0.0
 40
0.0
 40
0.0
 40
0.0
 10
32.50000000000008
 20
-0.0000000000001034
 30
0.0
 10
32.49596368058216
 20
-0.0000078262251576
 30
0.0
 10
32.37910965910367
 20
0.1669297411127051
 30
0.0
 10
32.16692343470102
 20
0.4742787332320282
 30
0.0
 10
31.60323356543909
 20
1.29077619282565
 30
0.0
 10
30.41855420420939
 20
2.992237894660796
 30
0.0
 10
29.21981211982939
 20
4.721648724178533
 30
0.0
 10
28.44942649337158
 20
5.833074828810568
 30
0.0
 10
27.67221333327861
 20
6.953174980383622
 30
0.0
 10
27.05454655900349
 20
7.846564790693177
 30
0.0
 10
26.62376978244293
 20
8.469637940691999
 30
0.0
 10
26.26601864945622
 20
8.989941880003188
 30
0.0
 10
26.05086466152748
 20
9.312718229926339
 30
0.0
 10
25.98258369458684
 20
9.415154078271491
 30
0.0
 10
25.93039957561626
 20
9.494468906983744
 30
0.0
 10
25.89060973843285
 20
9.558133491115111
 30
0.0
  0
LINE
  5
328D
330
327A
100
AcDbEntity
  8
0
100
AcDbLine
 10
25.28624717349402
 20
5.172932775050255
 30
0.0
 11
25.89060973854639
 21
9.558133491121665
 31
0.0
  0
LINE
  5
328E
330
327A
100
AcDbEntity
  8
0
100
AcDbLine
 10
32.50000000000002
 20
3.000000000000031
 30
0.0
 11
32.50000000000002
 21
0.0
 31
0.0
  0
SPLINE
  5
328F
330
327A
100
AcDbEntity
  8
0
100
AcDbSpline
210
0.0
220
0.0
230
1.0
 70
     8
 71
     3
 72
    22
 73
    18
 74
     0
 42
0.000000001
 43
0.0000000001
 40
0.0238283137253067
 40
0.0238283137253067
 40
0.0238283137253067
 40
0.0238283137253067
 40
0.0252878579089486
 40
0.0252878579089486
 40
0.0298246530174758
 40
0.0298246530174758
 40
0.0335903579515274
 40
0.0335903579515274
 40
0.0372641207905772
 40
0.0372641207905772
 40
0.0416430362289348
 40
0.0416430362289348
 40
0.0475686778282163
 40
0.0475686778282163
 40
0.0563598753450876
 40
0.0563598753450876
 40
0.059754286806648
 40
0.059754286806648
 40
0.059754286806648
 40
0.059754286806648
 10
20.13224919311451
 20
0.0435827000393503
 30
0.0
 10
20.13224919314313
 20
0.043582700042681
 30
0.0
 10
20.13199778724505
 20
0.0435534328494384
 30
0.0
 10
20.12986164264133
 20
0.0433047588581426
 30
0.0
 10
20.1254670314476
 20
0.0427913643193724
 30
0.0
 10
20.11248251195445
 20
0.0413010521205057
 30
0.0
 10
20.10460861738459
 20
0.0404049134322276
 30
0.0
 10
20.08661354069913
 20
0.0384029581368241
 30
0.0
 10
20.07640186941814
 20
0.0372867785140657
 30
0.0
 10
20.0527803250033
 20
0.0347743294182178
 30
0.0
 10
20.0389284572194
 20
0.0333438530701577
 30
0.0
 10
20.0057965270938
 20
0.0300469316365408
 30
0.0
 10
19.98603901498232
 20
0.0281758110689637
 30
0.0
 10
19.93720510577493
 20
0.023799344302207
 30
0.0
 10
19.90779741843062
 20
0.0213836194055393
 30
0.0
 10
19.86792524354703
 20
0.0183853647213974
 30
0.0
 10
19.85685075010943
 20
0.0175824491866466
 30
0.0
 10
19.84585058920511
 20
0.0168132243557138
 30
0.0
  0
LINE
  5
3290
330
327A
100
AcDbEntity
  8
0
100
AcDbLine
 10
19.4013580827101
 20
57.50707895874677
 30
0.0
 11
25.28624717349403
 21
56.680011733797
 31
0.0
  0
LINE
  5
3291
330
327A
100
AcDbEntity
  8
0
100
AcDbLine
 10
25.8906097385464
 20
56.59507411444168
 30
0.0
 11
25.28624717349404
 21
56.68001173379701
 31
0.0
  0
SPLINE
  5
3292
330
327A
100
AcDbEntity
  8
0
100
AcDbSpline
210
0.0
220
0.0
230
1.0
 70
     8
 71
     3
 72
    20
 73
    16
 74
     0
 42
0.000000001
 43
0.0000000001
 40
-1.0
 40
-1.0
 40
-1.0
 40
-1.0
 40
-0.8557507846681595
 40
-0.8557507846681595
 40
-0.8557507846681595
 40
-0.4725410755532022
 40
-0.4725410755532022
 40
-0.4725410755532022
 40
-0.2262668722295299
 40
-0.2262668722295299
 40
-0.2262668722295299
 40
-0.0545088760473691
 40
-0.0545088760473691
 40
-0.0545088760473691
 40
0.0
 40
0.0
 40
0.0
 40
0.0
 10
32.50000000000003
 20
71.49999999999993
 30
0.0
 10
32.49596368058212
 20
70.51422263202019
 30
0.0
 10
32.37910965910363
 20
69.6075548200331
 30
0.0
 10
32.16692343470099
 20
68.7957910374834
 30
0.0
 10
31.60323356543906
 20
66.63927488406578
 30
0.0
 10
30.41855420420935
 20
65.09164757618191
 30
0.0
 10
29.21981211982935
 20
63.5266274801949
 30
0.0
 10
28.44942649337154
 20
62.52084900392692
 30
0.0
 10
27.67221333327857
 20
61.51295505185503
 30
0.0
 10
27.05454655900346
 20
60.34589916496408
 30
0.0
 10
26.62376978244289
 20
59.53196421822696
 30
0.0
 10
26.26601864945619
 20
58.62483513659697
 30
0.0
 10
26.05086466152745
 20
57.60015142182881
 30
0.0
 10
25.9825836945868
 20
57.27495923958644
 30
0.0
 10
25.93039957561622
 20
56.93850065070979
 30
0.0
 10
25.89060973843281
 20
56.59507411448345
 30
0.0
  0
SPLINE
  5
3293
330
327A
100
AcDbEntity
  8
0
100
AcDbSpline
210
0.0
220
0.0
230
1.0
 70
     8
 71
     2
 72
     6
 73
     3
 74
     0
 42
0.000000001
 43
0.0000000001
 40
0.0
 40
0.0
 40
0.0
 40
1.0
 40
1.0
 40
1.0
 10
19.4013580827101
 20
57.50707895874677
 30
0.0
 10
20.85646379032759
 20
67.86069405359667
 30
0.0
 10
32.49999999999996
 20
71.49999999999995
 30
0.0
  0
LINE
  5
3294
330
327A
100
AcDbEntity
  8
0
100
AcDbLine
 10
-25.2862471734941
 20
56.680011733797
 30
0.0
 11
-19.40135808271017
 21
57.50707895874677
 31
0.0
  0
SPLINE
  5
3295
330
327A
100
AcDbEntity
  8
0
100
AcDbSpline
210
0.0
220
0.0
230
1.0
 70
     8
 71
     2
 72
     6
 73
     3
 74
     0
 42
0.000000001
 43
0.0000000001
 40
0.0
 40
0.0
 40
0.0
 40
1.0
 40
1.0
 40
1.0
 10
-19.40135808271017
 20
57.50707895874677
 30
0.0
 10
-20.85646379032766
 20
67.86069405359665
 30
0.0
 10
-32.50000000000004
 20
71.49999999999993
 30
0.0
  0
SPLINE
  5
3296
330
327A
100
AcDbEntity
  8
0
100
AcDbSpline
210
0.0
220
0.0
230
1.0
 70
     8
 71
     3
 72
    20
 73
    16
 74
     0
 42
0.000000001
 43
0.0000000001
 40
-1.0
 40
-1.0
 40
-1.0
 40
-1.0
 40
-0.8557507846681595
 40
-0.8557507846681595
 40
-0.8557507846681595
 40
-0.4725410755532022
 40
-0.4725410755532022
 40
-0.4725410755532022
 40
-0.2262668722295299
 40
-0.2262668722295299
 40
-0.2262668722295299
 40
-0.0545088760473691
 40
-0.0545088760473691
 40
-0.0545088760473691
 40
0.0
 40
0.0
 40
0.0
 40
0.0
 10
-32.50000000000011
 20
71.4999999999999
 30
0.0
 10
-32.49596368058219
 20
70.51422263202017
 30
0.0
 10
-32.37910965910369
 20
69.60755482003307
 30
0.0
 10
-32.16692343470105
 20
68.79579103748337
 30
0.0
 10
-31.60323356543913
 20
66.63927488406574
 30
0.0
 10
-30.41855420420942
 20
65.09164757618187
 30
0.0
 10
-29.21981211982942
 20
63.52662748019486
 30
0.0
 10
-28.4494264933716
 20
62.52084900392689
 30
0.0
 10
-27.67221333327864
 20
61.512955051855
 30
0.0
 10
-27.05454655900352
 20
60.34589916496405
 30
0.0
 10
-26.62376978244296
 20
59.53196421822692
 30
0.0
 10
-26.26601864945625
 20
58.62483513659693
 30
0.0
 10
-26.05086466152751
 20
57.60015142182878
 30
0.0
 10
-25.98258369458687
 20
57.27495923958641
 30
0.0
 10
-25.93039957561629
 20
56.93850065070975
 30
0.0
 10
-25.89060973843287
 20
56.59507411448341
 30
0.0
  0
LINE
  5
3297
330
327A
100
AcDbEntity
  8
0
100
AcDbLine
 10
-25.28624717349409
 20
56.68001173379699
 30
0.0
 11
-25.89060973854647
 21
56.59507411444164
 31
0.0
  0
LINE
  5
3298
330
327A
100
AcDbEntity
  8
0
100
AcDbLine
 10
12.72467355157539
 20
0.0
 30
0.0
 11
19.40135808271009
 21
0.0
 31
0.0
  0
ELLIPSE
  5
3299
330
327A
100
AcDbEntity
  8
0
100
AcDbEllipse
 10
13.28683689038495
 20
10.00000000000002
 30
0.0
 11
-0.5639370964297705
 21
-9.999950064643336
 31
0.0
210
0.0
220
0.0
230
0.9999999999999998
 40
0.0560386765135296
 41
4.715549214497015
 42
6.286345541291903
  0
LINE
  5
329A
330
327A
100
AcDbEntity
  8
0
100
AcDbLine
 10
19.40135808271009
 20
57.50707895874677
 30
0.0
 11
12.72467355157539
 21
10.00000000000001
 31
0.0
  0
LINE
  5
329B
330
327A
100
AcDbEntity
  8
0
100
AcDbLine
 10
-19.40135808271008
 20
0.0
 30
0.0
 11
-12.7246735515754
 21
0.0
 31
0.0
  0
ELLIPSE
  5
329C
330
327A
100
AcDbEntity
  8
0
100
AcDbEllipse
 10
-13.28683689038497
 20
10.00000000000001
 30
0.0
 11
-0.5639370964298366
 21
9.99995006464333
 31
0.0
210
0.0
220
0.0
230
0.9999999999999998
 40
0.0560386765135293
 41
3.138432419428198
 42
4.709228746255937
  0
LINE
  5
329D
330
327A
100
AcDbEntity
  8
0
100
AcDbLine
 10
-12.72467355157541
 20
10.00000000000001
 30
0.0
 11
-19.40135808271016
 21
57.50707895874677
 31
0.0
  0
LINE
  5
329E
330
327A
100
AcDbEntity
  8
0
100
AcDbLine
 10
-12.7246735515754
 20
0.0
 30
0.0
 11
12.72467355157539
 21
0.0
 31
0.0
  0
LINE
  5
329F
330
327A
100
AcDbEntity
  8
0
100
AcDbLine
 10
32.49999999999996
 20
78.00000000000003
 30
0.0
 11
32.49999999999997
 21
71.49999999999995
 31
0.0
  0
LINE
  5
32A0
330
327A
100
AcDbEntity
  8
0
100
AcDbLine
 10
-32.50000000000004
 20
71.49999999999993
 30
0.0
 11
-32.50000000000004
 21
78.0
 31
0.0
  0
LINE
  5
32A1
330
327A
100
AcDbEntity
  8
0
100
AcDbLine
 10
25.49999999999997
 20
85.00000000000001
 30
0.0
 11
32.49999999999996
 21
78.00000000000003
 31
0.0
  0
LINE
  5
32A2
330
327A
100
AcDbEntity
  8
0
100
AcDbLine
 10
-32.50000000000004
 20
78.0
 30
0.0
 11
-25.50000000000004
 21
85.00000000000001
 31
0.0
  0
LINE
  5
32A3
330
327A
100
AcDbEntity
  8
0
100
AcDbLine
 10
-25.89060973854647
 20
56.59507411444167
 30
0.0
 11
-22.45917600970657
 21
26.95234078859375
 31
0.0
  0
ELLIPSE
  5
32A4
330
327A
100
AcDbEntity
  8
0
100
AcDbEllipse
 10
-24.9013314616603
 20
29.55706345359768
 30
0.0
 11
2.149316260459697
 21
-14.99707715516456
 31
0.0
210
0.0
220
0.0
230
0.9999999999999998
 40
0.1377659927417794
 41
0.1547914637106942
 42
1.376521940106727
  0
LINE
  5
32A5
330
327A
100
AcDbEntity
  8
0
100
AcDbLine
 10
-22.45917600970656
 20
14.78494715841456
 30
0.0
 11
-25.89060973854639
 21
9.558133491121621
 31
0.0
  0
LINE
  5
32A6
330
327A
100
AcDbEntity
  8
0
100
AcDbLine
 10
22.45917600970654
 20
26.95234078859376
 30
0.0
 11
25.8906097385464
 21
56.59507411444168
 31
0.0
  0
LINE
  5
32A7
330
327A
100
AcDbEntity
  8
0
100
AcDbLine
 10
25.89060973854639
 20
9.55813349112164
 30
0.0
 11
22.45917600970653
 21
14.78494715841458
 31
0.0
  0
ELLIPSE
  5
32A8
330
327A
100
AcDbEntity
  8
0
100
AcDbEllipse
 10
24.90133146166027
 20
29.5570634535977
 30
0.0
 11
2.149316260459897
 21
14.99707715516453
 31
0.0
210
0.0
220
0.0
230
0.9999999999999998
 40
0.1377659927417797
 41
1.765070713485993
 42
2.986801189887128
  0
ENDBLK
  5
327C
330
327A
100
AcDbEntity
  8
0
100
AcDbBlockEnd
  0
BLOCK
  5
32AA
330
32A9
100
AcDbEntity
  8
0
100
AcDbBlockBegin
  2
AKR245X3-ISO
 70
     0
 10
0.0
 20
0.0
 30
0.0
  3
AKR245X3-ISO
  1

  0
ELLIPSE
  5
32AC
330
32A9
100
AcDbEntity
  8
0
100
AcDbEllipse
 10
29.94901394436745
 20
44.76266888776279
 30
0.0
 11
1.300000000000135
 21
-2.251666049839465
 31
0.0
210
0.0
220
0.0
230
1.0
 40
0.5773502691896255
 41
4.095863641558295
 42
5.328914319210787
  0
ELLIPSE
  5
32AD
330
32A9
100
AcDbEntity
  8
0
100
AcDbEllipse
 10
27.82769360080778
 20
43.53792401637121
 30
0.0
 11
1.299999999999867
 21
-2.25166604983962
 31
0.0
210
0.0
220
0.0
230
0.9999999999999998
 40
0.5773502691896258
 41
0.0
 42
6.283185307179586
  0
ELLIPSE
  5
32AE
330
32A9
100
AcDbEntity
  8
0
100
AcDbEllipse
 10
37.86860989365678
 20
56.52021965312204
 30
0.0
 11
1.300000000000133
 21
-2.251666049839462
 31
0.0
210
0.0
220
0.0
230
0.9999999999999998
 40
0.5773502691896259
 41
4.095863641558294
 42
5.328914319210785
  0
ELLIPSE
  5
32AF
330
32A9
100
AcDbEntity
  8
0
100
AcDbEllipse
 10
35.74728955009712
 20
55.29547478173045
 30
0.0
 11
1.299999999999865
 21
-2.251666049839617
 31
0.0
210
0.0
220
0.0
230
1.0
 40
0.5773502691896257
 41
0.0
 42
6.283185307179586
  0
ELLIPSE
  5
32B0
330
32A9
100
AcDbEntity
  8
0
100
AcDbEllipse
 10
45.85891652106477
 20
68.23694558943492
 30
0.0
 11
1.300000000000134
 21
-2.251666049839464
 31
0.0
210
0.0
220
0.0
230
1.0
 40
0.5773502691896257
 41
4.095863641558294
 42
5.328914319210786
  0
ELLIPSE
  5
32B1
330
32A9
100
AcDbEntity
  8
0
100
AcDbEllipse
 10
43.7375961775051
 20
67.01220071804332
 30
0.0
 11
1.299999999999866
 21
-2.251666049839619
 31
0.0
210
0.0
220
0.0
230
1.0
 40
0.5773502691896257
 41
0.0
 42
6.283185307179586
  0
ELLIPSE
  5
32B2
330
32A9
100
AcDbEntity
  8
0
100
AcDbEllipse
 10
14.03911136767013
 20
86.60811866030876
 30
0.0
 11
1.300000000000135
 21
-2.251666049839464
 31
0.0
210
0.0
220
0.0
230
1.0
 40
0.5773502691896255
 41
4.09586364155829
 42
5.32891431921078
  0
ELLIPSE
  5
32B3
330
32A9
100
AcDbEntity
  8
0
100
AcDbEllipse
 10
11.91779102411047
 20
85.38337378891718
 30
0.0
 11
1.299999999999866
 21
-2.251666049839618
 31
0.0
210
0.0
220
0.0
230
1.0
 40
0.5773502691896255
 41
0.0
 42
6.283185307179586
  0
ELLIPSE
  5
32B4
330
32A9
100
AcDbEntity
  8
0
100
AcDbEllipse
 10
22.02941799507813
 20
98.32484459662166
 30
0.0
 11
1.300000000000134
 21
-2.251666049839463
 31
0.0
210
0.0
220
0.0
230
1.0
 40
0.5773502691896257
 41
4.09586364155829
 42
5.32891431921078
  0
ELLIPSE
  5
32B5
330
32A9
100
AcDbEntity
  8
0
100
AcDbEllipse
 10
19.90809765151846
 20
97.10009972523003
 30
0.0
 11
1.299999999999865
 21
-2.251666049839619
 31
0.0
210
0.0
220
0.0
230
1.0
 40
0.5773502691896257
 41
0.0
 42
6.283185307179586
  0
ELLIPSE
  5
32B6
330
32A9
100
AcDbEntity
  8
0
100
AcDbEllipse
 10
29.94901394436746
 20
110.0823953619809
 30
0.0
 11
1.300000000000134
 21
-2.251666049839464
 31
0.0
210
0.0
220
0.0
230
1.0
 40
0.5773502691896255
 41
4.09586364155829
 42
5.32891431921078
  0
ELLIPSE
  5
32B7
330
32A9
100
AcDbEntity
  8
0
100
AcDbEllipse
 10
27.82769360080779
 20
108.8576504905893
 30
0.0
 11
1.299999999999866
 21
-2.251666049839618
 31
0.0
210
0.0
220
0.0
230
1.0
 40
0.5773502691896255
 41
0.0
 42
6.283185307179586
  0
ELLIPSE
  5
32B8
330
32A9
100
AcDbEntity
  8
0
100
AcDbEllipse
 10
14.03911136767014
 20
119.2679818974178
 30
0.0
 11
1.300000000000134
 21
-2.251666049839464
 31
0.0
210
0.0
220
0.0
230
1.0
 40
0.5773502691896255
 41
4.09586364155829
 42
5.32891431921078
  0
ELLIPSE
  5
32B9
330
32A9
100
AcDbEntity
  8
0
100
AcDbEllipse
 10
11.91779102411047
 20
118.0432370260262
 30
0.0
 11
1.299999999999865
 21
-2.251666049839619
 31
0.0
210
0.0
220
0.0
230
1.0
 40
0.5773502691896255
 41
0.0
 42
6.283185307179586
  0
ELLIPSE
  5
32BA
330
32A9
100
AcDbEntity
  8
0
100
AcDbEllipse
 10
45.85891652106477
 20
100.896808826544
 30
0.0
 11
1.300000000000135
 21
-2.251666049839463
 31
0.0
210
0.0
220
0.0
230
0.9999999999999998
 40
0.5773502691896255
 41
4.095863641558288
 42
5.328914319210777
  0
ELLIPSE
  5
32BB
330
32A9
100
AcDbEntity
  8
0
100
AcDbEllipse
 10
43.7375961775051
 20
99.67206395515237
 30
0.0
 11
1.299999999999866
 21
-2.251666049839618
 31
0.0
210
0.0
220
0.0
230
1.0
 40
0.5773502691896255
 41
0.0
 42
6.283185307179586
  0
ELLIPSE
  5
32BC
330
32A9
100
AcDbEntity
  8
0
100
AcDbEllipse
 10
37.86860989365679
 20
89.18008289023109
 30
0.0
 11
1.300000000000133
 21
-2.251666049839462
 31
0.0
210
0.0
220
0.0
230
0.9999999999999998
 40
0.5773502691896259
 41
4.095863641558297
 42
5.328914319210786
  0
ELLIPSE
  5
32BD
330
32A9
100
AcDbEntity
  8
0
100
AcDbEllipse
 10
35.74728955009712
 20
87.95533801883951
 30
0.0
 11
1.299999999999865
 21
-2.251666049839617
 31
0.0
210
0.0
220
0.0
230
1.0
 40
0.5773502691896257
 41
0.0
 42
6.283185307179586
  0
ELLIPSE
  5
32BE
330
32A9
100
AcDbEntity
  8
0
100
AcDbEllipse
 10
29.94901394436745
 20
77.42253212487185
 30
0.0
 11
1.300000000000134
 21
-2.251666049839464
 31
0.0
210
0.0
220
0.0
230
1.0
 40
0.5773502691896255
 41
4.095863641558294
 42
5.328914319210785
  0
ELLIPSE
  5
32BF
330
32A9
100
AcDbEntity
  8
0
100
AcDbEllipse
 10
27.82769360080779
 20
76.19778725348026
 30
0.0
 11
1.299999999999865
 21
-2.251666049839619
 31
0.0
210
0.0
220
0.0
230
1.0
 40
0.5773502691896255
 41
0.0
 42
6.283185307179586
  0
ELLIPSE
  5
32C0
330
32A9
100
AcDbEntity
  8
0
100
AcDbEllipse
 10
22.02941799507812
 20
65.66498135951261
 30
0.0
 11
1.300000000000134
 21
-2.251666049839464
 31
0.0
210
0.0
220
0.0
230
1.0
 40
0.5773502691896255
 41
4.095863641558294
 42
5.328914319210785
  0
ELLIPSE
  5
32C1
330
32A9
100
AcDbEntity
  8
0
100
AcDbEllipse
 10
19.90809765151845
 20
64.44023648812098
 30
0.0
 11
1.299999999999865
 21
-2.251666049839619
 31
0.0
210
0.0
220
0.0
230
1.0
 40
0.5773502691896255
 41
0.0
 42
6.283185307179586
  0
ELLIPSE
  5
32C2
330
32A9
100
AcDbEntity
  8
0
100
AcDbEllipse
 10
14.03911136767013
 20
53.94825542319972
 30
0.0
 11
1.300000000000135
 21
-2.251666049839464
 31
0.0
210
0.0
220
0.0
230
1.0
 40
0.5773502691896255
 41
4.095863641558294
 42
5.328914319210784
  0
ELLIPSE
  5
32C3
330
32A9
100
AcDbEntity
  8
0
100
AcDbEllipse
 10
11.91779102411046
 20
52.72351055180812
 30
0.0
 11
1.299999999999866
 21
-2.251666049839618
 31
0.0
210
0.0
220
0.0
230
1.0
 40
0.5773502691896255
 41
0.0
 42
6.283185307179586
  0
ELLIPSE
  5
32C4
330
32A9
100
AcDbEntity
  8
0
100
AcDbEllipse
 10
45.85891652106476
 20
35.57708235232587
 30
0.0
 11
1.300000000000136
 21
-2.251666049839465
 31
0.0
210
0.0
220
0.0
230
1.0
 40
0.5773502691896258
 41
4.095863641558292
 42
5.328914319210786
  0
ELLIPSE
  5
32C5
330
32A9
100
AcDbEntity
  8
0
100
AcDbEllipse
 10
43.7375961775051
 20
34.35233748093427
 30
0.0
 11
1.299999999999867
 21
-2.251666049839622
 31
0.0
210
0.0
220
0.0
230
1.0
 40
0.5773502691896255
 41
0.0
 42
6.283185307179586
  0
ELLIPSE
  5
32C6
330
32A9
100
AcDbEntity
  8
0
100
AcDbEllipse
 10
29.94901394436745
 20
66.80807657281139
 30
0.0
 11
-3.374999999999998
 21
5.845671475544964
 31
0.0
210
0.0
220
0.0
230
1.0
 40
0.5773502691896255
 41
0.3196872591302865
 42
2.821905394459509
  0
ELLIPSE
  5
32C7
330
32A9
100
AcDbEntity
  8
0
100
AcDbEllipse
 10
27.82769360080778
 20
65.58333170141979
 30
0.0
 11
3.374999999999649
 21
-5.845671475545165
 31
0.0
210
0.0
220
0.0
230
1.0
 40
0.5773502691896258
 41
0.0
 42
6.283185307179586
  0
ELLIPSE
  5
32C8
330
32A9
100
AcDbEntity
  8
0
100
AcDbEllipse
 10
29.94901394436743
 20
-0.9611396441898811
 30
0.0
 11
-3.375
 21
5.845671475544967
 31
0.0
210
0.0
220
0.0
230
1.0
 40
0.5773502691896255
 41
0.3196872591302839
 42
2.821905394459509
  0
ELLIPSE
  5
32C9
330
32A9
100
AcDbEntity
  8
0
100
AcDbEllipse
 10
27.82769360080776
 20
-2.185884515581477
 30
0.0
 11
3.374999999999653
 21
-5.845671475545167
 31
0.0
210
0.0
220
0.0
230
0.9999999999999998
 40
0.5773502691896258
 41
0.0
 42
6.283185307179586
  0
ELLIPSE
  5
32CA
330
32A9
100
AcDbEntity
  8
0
100
AcDbEllipse
 10
12.27134441470371
 20
-90.36751525577589
 30
0.0
 11
-6.749999999999998
 21
0.0000000000000017
 31
0.0
210
0.0
220
0.0
230
1.0
 40
0.5773502691896257
 41
0.0
 42
6.283185307179586
  0
ELLIPSE
  5
32CB
330
32A9
100
AcDbEntity
  8
0
100
AcDbEllipse
 10
12.27134441470371
 20
-92.81700499855908
 30
0.0
 11
6.749999999999996
 21
-0.0000000000000024
 31
0.0
210
0.0
220
0.0
230
1.0
 40
0.5773502691896259
 41
0.3196872591302824
 42
2.821905394459511
  0
ELLIPSE
  5
32CC
330
32A9
100
AcDbEntity
  8
0
100
AcDbEllipse
 10
11.91779102411044
 20
-3.614753532204986
 30
0.0
 11
-1.300000000000003
 21
2.251666049839546
 31
0.0
210
0.0
220
0.0
230
1.0
 40
0.5773502691896258
 41
0.0
 42
6.283185307179586
  0
ELLIPSE
  5
32CD
330
32A9
100
AcDbEntity
  8
0
100
AcDbEllipse
 10
43.73759617750508
 20
-21.98592660307884
 30
0.0
 11
-1.3
 21
2.251666049839541
 31
0.0
210
0.0
220
0.0
230
1.0
 40
0.5773502691896258
 41
0.0
 42
6.283185307179586
  0
ELLIPSE
  5
32CE
330
32A9
100
AcDbEntity
  8
0
100
AcDbEllipse
 10
27.82769360080776
 20
-51.17567937124505
 30
0.0
 11
-1.3
 21
2.251666049839541
 31
0.0
210
0.0
220
0.0
230
1.0
 40
0.5773502691896255
 41
0.0
 42
6.283185307179586
  0
ELLIPSE
  5
32CF
330
32A9
100
AcDbEntity
  8
0
100
AcDbEllipse
 10
37.72718853741942
 20
-48.72618962846188
 30
0.0
 11
1.299999999999999
 21
-2.251666049839541
 31
0.0
210
0.0
220
0.0
230
0.9999999999999998
 40
0.5773502691896257
 41
1.102424509025406
 42
6.261604347111336
  0
ELLIPSE
  5
32D0
330
32A9
100
AcDbEntity
  8
0
100
AcDbEllipse
 10
37.72718853741942
 20
-48.72618962846188
 30
0.0
 11
1.3
 21
-2.251666049839541
 31
0.0
210
0.0
220
0.0
230
1.0
 40
0.5773502691896254
 41
0.9823128046850015
 42
0.9823847703589256
  0
ELLIPSE
  5
32D1
330
32A9
100
AcDbEntity
  8
0
100
AcDbEllipse
 10
17.92819866419609
 20
-37.2952374954737
 30
0.0
 11
-1.3
 21
2.251666049839541
 31
0.0
210
0.0
220
0.0
230
1.0
 40
0.5773502691896255
 41
0.0
 42
6.283185307179586
  0
ELLIPSE
  5
32D2
330
32A9
100
AcDbEntity
  8
0
100
AcDbEllipse
 10
27.82769360080776
 20
-34.84574775269053
 30
0.0
 11
-1.3
 21
2.251666049839541
 31
0.0
210
0.0
220
0.0
230
1.0
 40
0.5773502691896255
 41
0.0
 42
6.283185307179586
  0
ELLIPSE
  5
32D3
330
32A9
100
AcDbEntity
  8
0
100
AcDbEllipse
 10
41.9698292245387
 20
-35.66224433361825
 30
0.0
 11
-1.3
 21
2.251666049839541
 31
0.0
210
0.0
220
0.0
230
1.0
 40
0.5773502691896255
 41
0.0
 42
6.283185307179586
  0
ELLIPSE
  5
32D4
330
32A9
100
AcDbEntity
  8
0
100
AcDbEllipse
 10
13.68555797707681
 20
-19.33231271506371
 30
0.0
 11
-1.3
 21
2.251666049839541
 31
0.0
210
0.0
220
0.0
230
1.0
 40
0.5773502691896255
 41
0.0
 42
6.283185307179586
  0
ELLIPSE
  5
32D5
330
32A9
100
AcDbEntity
  8
0
100
AcDbEllipse
 10
27.82769360080776
 20
-20.14880929599145
 30
0.0
 11
-1.3
 21
2.251666049839541
 31
0.0
210
0.0
220
0.0
230
1.0
 40
0.5773502691896255
 41
0.0
 42
6.283185307179586
  0
ELLIPSE
  5
32D6
330
32A9
100
AcDbEntity
  8
0
100
AcDbEllipse
 10
-16.0129268327582
 20
-106.6974468743304
 30
0.0
 11
5.500000000000002
 21
-0.0000000000000017
 31
0.0
210
0.0
220
0.0
230
1.0
 40
0.5773502691896257
 41
0.0
 42
6.283185307179586
  0
ELLIPSE
  5
32D7
330
32A9
100
AcDbEntity
  8
0
100
AcDbEllipse
 10
-38.99389722132099
 20
-101.5943432435321
 30
0.0
 11
2.600000000000001
 21
-0.0000000000000007
 31
0.0
210
0.0
220
0.0
230
1.0
 40
0.5773502691896255
 41
0.0
 42
6.283185307179586
  0
ELLIPSE
  5
32D8
330
32A9
100
AcDbEntity
  8
0
100
AcDbEllipse
 10
-7.174092067926371
 20
-119.9655163144059
 30
0.0
 11
2.600000000000001
 21
-0.0000000000000007
 31
0.0
210
0.0
220
0.0
230
1.0
 40
0.5773502691896255
 41
0.0
 42
6.283185307179586
  0
LINE
  5
32D9
330
32A9
100
AcDbEntity
  8
0
100
AcDbLine
 10
50.80866398937057
 20
-38.72410651209724
 30
0.0
 11
50.80866398937057
 21
97.22257421236918
 31
0.0
  0
LINE
  5
32DA
330
32A9
100
AcDbEntity
  8
0
100
AcDbLine
 10
4.846723212244987
 20
-12.18796763194611
 30
0.0
 11
4.846723212245001
 21
123.7587130925203
 31
0.0
  0
LINE
  5
32DB
330
32A9
100
AcDbEntity
  8
0
100
AcDbLine
 10
24.60905239728937
 20
-89.46240479813781
 30
0.0
 11
5.810390456116429
 21
-107.4861242010065
 31
0.0
  0
ELLIPSE
  5
32DC
330
32A9
100
AcDbEntity
  8
0
100
AcDbEllipse
 10
24.49410001854297
 20
-79.46140171348149
 30
0.0
 11
-7.49999999999998
 21
-12.99038105676659
 31
0.0
210
0.0
220
0.0
230
0.9999999999999998
 40
0.4150676916945047
 41
0.9599310885968748
 42
2.181661564992907
  0
LINE
  5
32DD
330
32A9
100
AcDbEntity
  8
0
100
AcDbLine
 10
39.42236684553536
 20
-49.26847335172738
 30
0.0
 11
33.21269894255507
 21
-74.56045185137319
 31
0.0
  0
LINE
  5
32DE
330
32A9
100
AcDbEntity
  8
0
100
AcDbLine
 10
5.776256155780337
 20
-58.72001422282302
 30
0.0
 11
7.063897022042326
 21
-30.58630208856929
 31
0.0
  0
ELLIPSE
  5
32DF
330
32A9
100
AcDbEntity
  8
0
100
AcDbEllipse
 10
-6.396072129808136
 20
-61.6269525083171
 30
0.0
 11
7.499999999999976
 21
12.99038105676659
 31
0.0
210
0.0
220
0.0
230
1.0
 40
0.7396328466847474
 41
4.101523742186671
 42
5.323254218582702
  0
LINE
  5
32E0
330
32A9
100
AcDbEntity
  8
0
100
AcDbLine
 10
-26.54807936737667
 20
-88.80395293784836
 30
0.0
 11
-2.827390389485371
 21
-73.62196716958763
 31
0.0
  0
LINE
  5
32E1
330
32A9
100
AcDbEntity
  8
0
100
AcDbLine
 10
-48.18628537674612
 20
-104.4520812767791
 30
0.0
 11
-12.12383953623219
 21
-125.2727440904361
 31
0.0
  0
ELLIPSE
  5
32E2
330
32A9
100
AcDbEntity
  8
0
100
AcDbEllipse
 10
14.03911136767012
 20
-2.390008660813389
 30
0.0
 11
1.300000000000137
 21
-2.251666049839469
 31
0.0
210
0.0
220
0.0
230
1.0
 40
0.5773502691896255
 41
4.095863641558294
 42
5.328914319210786
  0
ELLIPSE
  5
32E3
330
32A9
100
AcDbEntity
  8
0
100
AcDbEllipse
 10
45.85891652106474
 20
-20.76118173168724
 30
0.0
 11
1.300000000000134
 21
-2.251666049839464
 31
0.0
210
0.0
220
0.0
230
0.9999999999999998
 40
0.5773502691896255
 41
4.095863641558295
 42
5.328914319210786
  0
ELLIPSE
  5
32E4
330
32A9
100
AcDbEntity
  8
0
100
AcDbEllipse
 10
29.94901394436742
 20
-49.95093449985343
 30
0.0
 11
1.300000000000135
 21
-2.251666049839464
 31
0.0
210
0.0
220
0.0
230
1.0
 40
0.5773502691896255
 41
4.095863641558294
 42
5.328914319210781
  0
ELLIPSE
  5
32E5
330
32A9
100
AcDbEntity
  8
0
100
AcDbEllipse
 10
39.84850888097909
 20
-47.50144475707027
 30
0.0
 11
1.300000000000134
 21
-2.251666049839464
 31
0.0
210
0.0
220
0.0
230
1.0
 40
0.5773502691896254
 41
4.095863641558294
 42
5.257964389049495
  0
ELLIPSE
  5
32E6
330
32A9
100
AcDbEntity
  8
0
100
AcDbEllipse
 10
20.04951900775576
 20
-36.0704926240821
 30
0.0
 11
1.300000000000134
 21
-2.251666049839464
 31
0.0
210
0.0
220
0.0
230
1.0
 40
0.5773502691896254
 41
4.095863641558294
 42
5.328914319210785
  0
ELLIPSE
  5
32E7
330
32A9
100
AcDbEntity
  8
0
100
AcDbEllipse
 10
29.94901394436743
 20
-33.62100288129892
 30
0.0
 11
1.300000000000134
 21
-2.251666049839464
 31
0.0
210
0.0
220
0.0
230
0.9999999999999998
 40
0.5773502691896255
 41
4.095863641558297
 42
5.328914319210782
  0
ELLIPSE
  5
32E8
330
32A9
100
AcDbEntity
  8
0
100
AcDbEllipse
 10
44.09114956809837
 20
-34.43749946222665
 30
0.0
 11
1.300000000000134
 21
-2.251666049839464
 31
0.0
210
0.0
220
0.0
230
1.0
 40
0.5773502691896254
 41
4.095863641558295
 42
5.328914319210787
  0
ELLIPSE
  5
32E9
330
32A9
100
AcDbEntity
  8
0
100
AcDbEllipse
 10
15.80687832063648
 20
-18.1075678436721
 30
0.0
 11
1.300000000000133
 21
-2.251666049839463
 31
0.0
210
0.0
220
0.0
230
0.9999999999999998
 40
0.5773502691896257
 41
4.095863641558294
 42
5.328914319210784
  0
ELLIPSE
  5
32EA
330
32A9
100
AcDbEntity
  8
0
100
AcDbEllipse
 10
29.94901394436743
 20
-18.92406442459984
 30
0.0
 11
1.300000000000134
 21
-2.251666049839464
 31
0.0
210
0.0
220
0.0
230
0.9999999999999998
 40
0.5773502691896255
 41
4.095863641558297
 42
5.328914319210782
  0
ELLIPSE
  5
32EB
330
32A9
100
AcDbEntity
  8
0
100
AcDbEllipse
 10
-16.0129268327582
 20
-109.1469366171136
 30
0.0
 11
-5.500000000000001
 21
-0.0000000000003278
 31
0.0
210
0.0
220
0.0
230
1.0
 40
0.5773502691896259
 41
3.537553217051975
 42
5.887224743716538
  0
ELLIPSE
  5
32EC
330
32A9
100
AcDbEntity
  8
0
100
AcDbEllipse
 10
-38.99389722132099
 20
-104.0438329863153
 30
0.0
 11
-2.6
 21
-0.0000000000001545
 31
0.0
210
0.0
220
0.0
230
1.0
 40
0.5773502691896258
 41
4.095863641558285
 42
5.328914319210799
  0
ELLIPSE
  5
32ED
330
32A9
100
AcDbEntity
  8
0
100
AcDbEllipse
 10
-7.174092067926371
 20
-122.4150060571891
 30
0.0
 11
-2.6
 21
-0.0000000000001545
 31
0.0
210
0.0
220
0.0
230
1.0
 40
0.5773502691896258
 41
4.095863641558285
 42
5.328914319210797
  0
LINE
  5
32EE
330
32A9
100
AcDbEntity
  8
0
100
AcDbLine
 10
52.92998433293021
 20
-37.49936164070565
 30
0.0
 11
52.92998433293022
 21
98.44731908376076
 31
0.0
  0
LINE
  5
32EF
330
32A9
100
AcDbEntity
  8
0
100
AcDbLine
 10
-48.18628537674612
 20
-106.9015710195623
 30
0.0
 11
-12.12383953623219
 21
-127.7222338332193
 31
0.0
  0
SPLINE
  5
32F0
330
32A9
100
AcDbEntity
  8
0
100
AcDbSpline
210
0.0
220
0.0
230
1.0
 70
     8
 71
     3
 72
    17
 73
    13
 74
     0
 42
0.000000001
 43
0.0000000001
 40
-0.4749268618492863
 40
-0.4749268618492863
 40
-0.4749268618492863
 40
-0.4749268618492863
 40
-0.4725410755532022
 40
-0.4725410755532022
 40
-0.4725410755532022
 40
-0.2262668722295299
 40
-0.2262668722295299
 40
-0.2262668722295299
 40
-0.0545088760473691
 40
-0.0545088760473691
 40
-0.0545088760473691
 40
0.0
 40
0.0
 40
0.0
 40
0.0
 10
5.955784129283885
 20
-20.69400013291524
 30
0.0
 10
5.953448767965778
 20
-20.70939561806831
 30
0.0
 10
5.951112983377067
 20
-20.72479233928307
 30
0.0
 10
5.948776818191769
 20
-20.74019027573518
 30
0.0
 10
5.707624783415674
 20
-22.32965138497096
 30
0.0
 10
5.465167066559453
 20
-23.92716826673737
 30
0.0
 10
5.270201438050152
 20
-25.49695167558626
 30
0.0
 10
5.134227368394381
 20
-26.59175920761807
 30
0.0
 10
5.019285176741434
 20
-27.69089148342779
 30
0.0
 10
4.943184674767877
 20
-28.74715137388499
 30
0.0
 10
4.919033526516125
 20
-29.08236452682418
 30
0.0
 10
4.899849217679377
 20
-29.41076603485505
 30
0.0
 10
4.88296722221337
 20
-29.7334077181264
 30
0.0
  0
LINE
  5
32F1
330
32A9
100
AcDbEntity
  8
0
100
AcDbLine
 10
5.401643092823444
 20
-29.93624585175261
 30
0.0
 11
4.882967222128433
 21
-29.73340771811678
 31
0.0
  0
LINE
  5
32F2
330
32A9
100
AcDbEntity
  8
0
100
AcDbLine
 10
7.063897022042295
 20
-30.58630208856925
 30
0.0
 11
5.401643092823444
 21
-29.93624585175261
 31
0.0
  0
SPLINE
  5
32F3
330
32A9
100
AcDbEntity
  8
0
100
AcDbSpline
210
0.0
220
0.0
230
1.0
 70
     8
 71
     3
 72
    20
 73
    16
 74
     0
 42
0.000000001
 43
0.0000000001
 40
-1.0
 40
-1.0
 40
-1.0
 40
-1.0
 40
-0.9088428636535578
 40
-0.9088428636535578
 40
-0.9088428636535578
 40
-0.5823465850615564
 40
-0.5823465850615564
 40
-0.5823465850615564
 40
-0.2911732925307782
 40
-0.2911732925307782
 40
-0.2911732925307782
 40
-0.092995535001048
 40
-0.092995535001048
 40
-0.092995535001048
 40
0.0
 40
0.0
 40
0.0
 40
0.0
 10
7.063897022042322
 20
-30.58630208856929
 30
0.0
 10
7.086649313943675
 20
-30.05736307679853
 30
0.0
 10
7.096684894453502
 20
-29.48933704143509
 30
0.0
 10
7.081095420753928
 20
-28.93029409586819
 30
0.0
 10
7.025258814294792
 20
-26.9279775618448
 30
0.0
 10
6.707722027456575
 20
-24.86002634691434
 30
0.0
 10
6.342018346184943
 20
-22.79518905219863
 30
0.0
 10
6.01587942225696
 20
-20.95374241692464
 30
0.0
 10
5.645336703671333
 20
-19.12767918204121
 30
0.0
 10
5.351854305672358
 20
-17.33930858547168
 30
0.0
 10
5.152104929607124
 20
-16.1221115294512
 30
0.0
 10
4.988530798502184
 20
-14.92524319405244
 30
0.0
 10
4.908849984210146
 20
-13.77848592754922
 30
0.0
 10
4.871459511905023
 20
-13.24036647941284
 30
0.0
 10
4.848778971386336
 20
-12.71176025764075
 30
0.0
 10
4.846723212320345
 20
-12.18796763185004
 30
0.0
  0
LINE
  5
32F4
330
32A9
100
AcDbEntity
  8
0
100
AcDbLine
 10
10.19933132305293
 20
-29.15295929574572
 30
0.0
 11
7.063897022042304
 21
-30.58630208856929
 31
0.0
  0
ELLIPSE
  5
32F5
330
32A9
100
AcDbEntity
  8
0
100
AcDbEllipse
 10
11.9875413927354
 20
-30.1853828608445
 30
0.0
 11
-2.980787541290217
 21
-0.3389773350668658
 31
0.0
210
0.0
220
0.0
230
1.0
 40
0.4913799087545888
 41
3.866279069693545
 42
5.298790550294563
  0
SPLINE
  5
32F6
330
32A9
100
AcDbEntity
  8
0
100
AcDbSpline
210
0.0
220
0.0
230
1.0
 70
     8
 71
     2
 72
     6
 73
     3
 74
     0
 42
0.000000001
 43
0.0000000001
 40
0.0
 40
0.0
 40
0.0
 40
1.0
 40
1.0
 40
1.0
 10
14.10886173629501
 20
-28.96063798945289
 30
0.0
 10
13.07994662309543
 20
-19.91290224668722
 30
0.0
 10
4.846723212244992
 20
-12.18796763194616
 30
0.0
  0
SPLINE
  5
32F7
330
32A9
100
AcDbEntity
  8
0
100
AcDbSpline
210
0.0
220
0.0
230
1.0
 70
     8
 71
     3
 72
    20
 73
    16
 74
     0
 42
0.000000001
 43
0.0000000001
 40
-1.0
 40
-1.0
 40
-1.0
 40
-1.0
 40
-0.85651408435884
 40
-0.85651408435884
 40
-0.85651408435884
 40
-0.5402558541856224
 40
-0.5402558541856224
 40
-0.5402558541856224
 40
-0.2701279270928112
 40
-0.2701279270928112
 40
-0.2701279270928112
 40
-0.0852549168085124
 40
-0.0852549168085124
 40
-0.0852549168085124
 40
0.0
 40
0.0
 40
0.0
 40
0.0
 10
39.42236684553537
 20
-49.26847335172738
 30
0.0
 10
39.61201461664668
 20
-48.50619334250602
 30
0.0
 10
39.97481775802727
 20
-47.83663254367808
 30
0.0
 10
40.47152194357511
 20
-47.26778761114172
 30
0.0
 10
41.56631083584414
 20
-46.01399283412075
 30
0.0
 10
43.25963394928532
 20
-45.18429040405367
 30
0.0
 10
44.96857509412172
 20
-44.38011629524713
 30
0.0
 10
46.4282453412025
 20
-43.69324125356159
 30
0.0
 10
47.87017853764162
 20
-43.04576261671447
 30
0.0
 10
48.97304596486072
 20
-42.17784782457989
 30
0.0
 10
49.72783804951784
 20
-41.58385511150117
 30
0.0
 10
50.30966102315417
 20
-40.88538466368385
 30
0.0
 10
50.60294111817846
 20
-40.03390306024358
 30
0.0
 10
50.73818838907236
 20
-39.64123896528647
 30
0.0
 10
50.8050537597406
 20
-39.20951498332615
 30
0.0
 10
50.80866398944793
 20
-38.7241065120024
 30
0.0
  0
SPLINE
  5
32F8
330
32A9
100
AcDbEntity
  8
0
100
AcDbSpline
210
0.0
220
0.0
230
1.0
 70
     8
 71
     2
 72
     6
 73
     3
 74
     0
 42
0.000000001
 43
0.0000000001
 40
0.0
 40
0.0
 40
0.0
 40
1.0
 40
1.0
 40
1.0
 10
41.54652546532054
 20
-44.80178052934023
 30
0.0
 10
42.57544057852013
 20
-36.94213362173266
 30
0.0
 10
50.80866398937057
 20
-38.72410651209728
 30
0.0
  0
ELLIPSE
  5
32F9
330
32A9
100
AcDbEntity
  8
0
100
AcDbEllipse
 10
39.42520512176087
 20
-46.02652540073179
 30
0.0
 11
-2.974619186296044
 21
0.3894107041665294
 31
0.0
210
0.0
220
0.0
230
1.0
 40
0.6520831633610861
 41
3.544678159217273
 42
4.007259574309323
  0
ELLIPSE
  5
32FA
330
32A9
100
AcDbEntity
  8
0
100
AcDbEllipse
 10
39.42520512176087
 20
-46.0265254007318
 30
0.0
 11
5.949238372592033
 21
-0.7788214083334757
 31
0.0
210
0.0
220
0.0
230
0.9999999999999998
 40
0.6520831633610853
 41
5.716340747298442
 42
6.217776105829925
  0
SPLINE
  5
32FB
330
32A9
100
AcDbEntity
  8
0
100
AcDbSpline
210
0.0
220
0.0
230
1.0
 70
     8
 71
     3
 72
    20
 73
    16
 74
     0
 42
0.000000001
 43
0.0000000001
 40
-1.0
 40
-1.0
 40
-1.0
 40
-1.0
 40
-0.8557507846681595
 40
-0.8557507846681595
 40
-0.8557507846681595
 40
-0.4725410755532022
 40
-0.4725410755532022
 40
-0.4725410755532022
 40
-0.2262668722295299
 40
-0.2262668722295299
 40
-0.2262668722295299
 40
-0.0545088760473691
 40
-0.0545088760473691
 40
-0.0545088760473691
 40
0.0
 40
0.0
 40
0.0
 40
0.0
 10
52.92998433293035
 20
-37.49936164070569
 30
0.0
 10
52.92713575807572
 20
-38.30259447567195
 30
0.0
 10
52.72646480117997
 20
-39.06333216617408
 30
0.0
 10
52.35909792651206
 20
-39.76498455638301
 30
0.0
 10
51.38315810697057
 20
-41.62898088893313
 30
0.0
 10
49.34234818981645
 20
-43.10358880146477
 30
0.0
 10
47.27183140804822
 20
-44.59806696692641
 30
0.0
 10
45.94118957207818
 20
-45.55851084616353
 30
0.0
 10
44.59958646336363
 20
-46.521435840062
 30
0.0
 10
43.53110810564722
 20
-47.5868964395626
 30
0.0
 10
42.78592367622414
 20
-48.32997620638963
 30
0.0
 10
42.16504498034706
 20
-49.1370059052927
 30
0.0
 10
41.78467079064602
 20
-50.01759330023311
 30
0.0
 10
41.66395577289485
 20
-50.29705527712284
 30
0.0
 10
41.57097197526943
 20
-50.58284863043549
 30
0.0
 10
41.49781865241402
 20
-50.87300204769092
 30
0.0
  0
LINE
  5
32FC
330
32A9
100
AcDbEntity
  8
0
100
AcDbLine
 10
44.17127494764404
 20
-48.76667009229823
 30
0.0
 11
41.49781865248967
 21
-50.87300204777405
 31
0.0
  0
LINE
  5
32FD
330
32A9
100
AcDbEntity
  8
0
100
AcDbLine
 10
41.49781865248971
 20
-50.87300204777405
 30
0.0
 11
41.00422790367236
 21
-50.49140777614276
 31
0.0
  0
LINE
  5
32FE
330
32A9
100
AcDbEntity
  8
0
100
AcDbLine
 10
50.80866398937057
 20
-38.72410651209724
 30
0.0
 11
52.92998433293022
 21
-37.49936164070565
 31
0.0
  0
LINE
  5
32FF
330
32A9
100
AcDbEntity
  8
0
100
AcDbLine
 10
40.84992031852634
 20
-50.3721128122439
 30
0.0
 11
39.4223668455354
 21
-49.26847335172741
 31
0.0
  0
LINE
  5
3300
330
32A9
100
AcDbEntity
  8
0
100
AcDbLine
 10
41.00422790367236
 20
-50.49140777614276
 30
0.0
 11
40.84992031852634
 21
-50.3721128122439
 31
0.0
  0
SPLINE
  5
3301
330
32A9
100
AcDbEntity
  8
0
100
AcDbSpline
210
0.0
220
0.0
230
1.0
 70
     8
 71
     3
 72
    16
 73
    12
 74
     0
 42
0.000000001
 43
0.0000000001
 40
0.0013082202829374
 40
0.0013082202829374
 40
0.0013082202829374
 40
0.0013082202829374
 40
0.1518810458880182
 40
0.1518810458880182
 40
0.2381113559648623
 40
0.2381113559648623
 40
0.2859298527211902
 40
0.2859298527211902
 40
0.3647175814048244
 40
0.3647175814048244
 40
0.3700931282087469
 40
0.3700931282087469
 40
0.3700931282087469
 40
0.3700931282087469
 10
41.2849709037131
 20
-46.49066715756731
 30
0.0
 10
41.6304374008927
 20
-46.20897415120058
 30
0.0
 10
41.96086901353125
 20
-45.92503435318364
 30
0.0
 10
42.36964458573772
 20
-45.51407922066778
 30
0.0
 10
42.49661935224867
 20
-45.37045084531635
 30
0.0
 10
42.64027604313193
 20
-45.18716803265244
 30
0.0
 10
42.68153665433143
 20
-45.12926046899519
 30
0.0
 10
42.76272626796443
 20
-45.00681387617484
 30
0.0
 10
42.78476454628673
 20
-44.96225847610937
 30
0.0
 10
42.78740927499071
 20
-44.9567963050893
 30
0.0
 10
42.78749199319481
 20
-44.95662159514118
 30
0.0
 10
42.78749199319761
 20
-44.95662159513525
 30
0.0
  0
SPLINE
  5
3302
330
32A9
100
AcDbEntity
  8
0
100
AcDbSpline
210
0.0
220
0.0
230
1.0
 70
     8
 71
     3
 72
    10
 73
     6
 74
     0
 42
0.000000001
 43
0.0000000001
 40
0.6267344159712018
 40
0.6267344159712018
 40
0.6267344159712018
 40
0.6267344159712018
 40
0.7263096531652077
 40
0.7263096531652077
 40
0.8486335783227422
 40
0.8486335783227422
 40
0.8486335783227422
 40
0.8486335783227422
 10
45.65990486147703
 20
-45.77956764770923
 30
0.0
 10
45.61291551496871
 20
-45.93147148493804
 30
0.0
 10
45.56281116054642
 20
-46.11059742402291
 30
0.0
 10
45.45137652910837
 20
-46.53935821670337
 30
0.0
 10
45.390284881027
 20
-46.79382864603687
 30
0.0
 10
45.32849782862435
 20
-47.05724235221419
 30
0.0
  0
ELLIPSE
  5
3303
330
32A9
100
AcDbEntity
  8
0
100
AcDbEllipse
 10
3.004200310920102
 20
-109.1095561958185
 30
0.0
 11
3.649098310923982
 21
-4.762780859667152
 31
0.0
210
0.0
220
0.0
230
1.0
 40
0.6520831633610852
 41
0.0654092013496586
 42
0.5668445598811438
  0
LINE
  5
3304
330
32A9
100
AcDbEntity
  8
0
100
AcDbLine
 10
8.237678971471105
 20
-108.4812538421359
 30
0.0
 11
7.750270136803276
 21
-111.8497008873849
 31
0.0
  0
SPLINE
  5
3305
330
32A9
100
AcDbEntity
  8
0
100
AcDbSpline
210
0.0
220
0.0
230
1.0
 70
     8
 71
     3
 72
    20
 73
    16
 74
     0
 42
0.000000001
 43
0.0000000001
 40
-1.0
 40
-1.0
 40
-1.0
 40
-1.0
 40
-0.8557507846681595
 40
-0.8557507846681595
 40
-0.8557507846681595
 40
-0.4725410755532022
 40
-0.4725410755532022
 40
-0.4725410755532022
 40
-0.2262668722295299
 40
-0.2262668722295299
 40
-0.2262668722295299
 40
-0.0545088760473691
 40
-0.0545088760473691
 40
-0.0545088760473691
 40
0.0
 40
0.0
 40
0.0
 40
0.0
 10
2.371849478092147
 20
-125.0686199452043
 30
0.0
 10
3.066045230899399
 20
-124.6645365895325
 30
0.0
 10
3.624527918042685
 20
-124.110381597808
 30
0.0
 10
4.048493275255742
 20
-123.4414063567322
 30
0.0
 10
5.1747915420344
 20
-121.6642195141694
 30
0.0
 10
5.431434496331304
 20
-119.1595223253529
 30
0.0
 10
5.690432162138141
 20
-116.6191631106488
 30
0.0
 10
5.856880042481731
 20
-114.9865715377418
 30
0.0
 10
6.019995994779518
 20
-113.3432466668496
 30
0.0
 10
6.408472761820225
 20
-111.885186965923
 30
0.0
 10
6.679406502219111
 20
-110.8682984361245
 30
0.0
 10
7.067875375139136
 20
-109.9270868633749
 30
0.0
 10
7.640299334559368
 20
-109.1573794546796
 30
0.0
 10
7.821962997062099
 20
-108.913106194244
 30
0.0
 10
8.022975402450898
 20
-108.6896831867037
 30
0.0
 10
8.237678971361255
 20
-108.481253842112
 30
0.0
  0
SPLINE
  5
3306
330
32A9
100
AcDbEntity
  8
0
100
AcDbSpline
210
0.0
220
0.0
230
1.0
 70
     8
 71
     3
 72
    20
 73
    16
 74
     0
 42
0.000000001
 43
0.0000000001
 40
-1.0
 40
-1.0
 40
-1.0
 40
-1.0
 40
-0.85651408435884
 40
-0.85651408435884
 40
-0.85651408435884
 40
-0.5402558541856224
 40
-0.5402558541856224
 40
-0.5402558541856224
 40
-0.2701279270928112
 40
-0.2701279270928112
 40
-0.2701279270928112
 40
-0.0852549168085124
 40
-0.0852549168085124
 40
-0.0852549168085124
 40
0.0
 40
0.0
 40
0.0
 40
0.0
 10
5.810390456116394
 20
-107.4861242010065
 30
0.0
 10
5.245060488889303
 20
-108.0315039931707
 30
0.0
 10
4.846605398416405
 20
-108.680481129593
 30
0.0
 10
4.602323328799791
 20
-109.3950620387117
 30
0.0
 10
4.063899646901898
 20
-110.9700744197082
 30
0.0
 10
4.192017821602727
 20
-112.8513864677971
 30
0.0
 10
4.350053186728732
 20
-114.7334599672012
 30
0.0
 10
4.48503707494396
 20
-116.3410090031642
 30
0.0
 10
4.645270725246191
 20
-117.9134991002642
 30
0.0
 10
4.445068180546898
 20
-119.3025677053096
 30
0.0
 10
4.308051443686453
 20
-120.2532331817374
 30
0.0
 10
3.994069778902127
 20
-121.1063418813205
 30
0.0
 10
3.403305126979896
 20
-121.786070695756
 30
0.0
 10
3.130871681039963
 20
-122.0995303156212
 30
0.0
 10
2.790420430573461
 20
-122.3732994162335
 30
0.0
 10
2.371849478048586
 20
-122.6191302025354
 30
0.0
  0
ELLIPSE
  5
3307
330
32A9
100
AcDbEntity
  8
0
100
AcDbEllipse
 10
3.004200310920115
 20
-109.1095561958185
 30
0.0
 11
1.824549155461987
 21
-2.381390429833577
 31
0.0
210
0.0
220
0.0
230
0.9999999999999998
 40
0.6520831633610854
 41
5.417518386459803
 42
5.880099801549756
  0
SPLINE
  5
3308
330
32A9
100
AcDbEntity
  8
0
100
AcDbSpline
210
0.0
220
0.0
230
1.0
 70
     8
 71
     2
 72
     6
 73
     3
 74
     0
 42
0.000000001
 43
0.0000000001
 40
0.0
 40
0.0
 40
0.0
 40
1.0
 40
1.0
 40
1.0
 10
3.004200310920106
 20
-111.5590459386017
 30
0.0
 10
-3.287996019244081
 20
-116.3799360187741
 30
0.0
 10
2.37184947809208
 20
-122.619130202421
 30
0.0
  0
LINE
  5
3309
330
32A9
100
AcDbEntity
  8
0
100
AcDbLine
 10
7.660413263899652
 20
-108.2445888504063
 30
0.0
 11
8.237678971471096
 21
-108.4812538421359
 31
0.0
  0
LINE
  5
330A
330
32A9
100
AcDbEntity
  8
0
100
AcDbLine
 10
7.479947002024704
 20
-108.1706020436136
 30
0.0
 11
7.660413263899652
 21
-108.2445888504063
 31
0.0
  0
LINE
  5
330B
330
32A9
100
AcDbEntity
  8
0
100
AcDbLine
 10
5.810390456116421
 20
-107.4861242010065
 30
0.0
 11
7.479947002024704
 21
-108.1706020436136
 31
0.0
  0
SPLINE
  5
330C
330
32A9
100
AcDbEntity
  8
0
100
AcDbSpline
210
0.0
220
0.0
230
1.0
 70
     8
 71
     3
 72
     8
 73
     4
 74
     0
 42
0.000000001
 43
0.0000000001
 40
0.0
 40
0.0
 40
0.0
 40
0.0
 40
0.2216425592109845
 40
0.2216425592109845
 40
0.2216425592109845
 40
0.2216425592109845
 10
6.848473728446808
 20
-113.7065991701965
 30
0.0
 10
6.491107524896309
 20
-114.0421978720145
 30
0.0
 10
6.147819523316573
 20
-114.3732170256614
 30
0.0
 10
5.907678492999046
 20
-114.6324434318922
 30
0.0
  0
SPLINE
  5
330D
330
32A9
100
AcDbEntity
  8
0
100
AcDbSpline
210
0.0
220
0.0
230
1.0
 70
     8
 71
     3
 72
    16
 73
    12
 74
     0
 42
0.000000001
 43
0.0000000001
 40
0.3455872360750138
 40
0.3455872360750138
 40
0.3455872360750138
 40
0.3455872360750138
 40
0.429122802137735
 40
0.429122802137735
 40
0.5038382920980716
 40
0.5038382920980716
 40
0.5839347605407462
 40
0.5839347605407462
 40
0.6898114324261043
 40
0.6898114324261043
 40
0.7145300103863442
 40
0.7145300103863442
 40
0.7145300103863442
 40
0.7145300103863442
 10
3.758779871386765
 20
-112.5563339440911
 30
0.0
 10
3.758779856291347
 20
-112.5563339659222
 30
0.0
 10
3.786747863793946
 20
-112.5158486020339
 30
0.0
 10
3.868194494617602
 20
-112.3525432544227
 30
0.0
 10
3.918420759895635
 20
-112.237853629504
 30
0.0
 10
4.022327217204209
 20
-111.946055461947
 30
0.0
 10
4.076771079925172
 20
-111.7631974589467
 30
0.0
 10
4.191198824626272
 20
-111.3013198543347
 30
0.0
 10
4.248541781623997
 20
-111.0072132843811
 30
0.0
 10
4.31249634039216
 20
-110.632006676216
 30
0.0
 10
4.3243536298466
 20
-110.5603039819302
 30
0.0
 10
4.336041981755514
 20
-110.4880883073994
 30
0.0
  0
LINE
  5
330E
330
32A9
100
AcDbEntity
  8
0
100
AcDbLine
 10
2.37184947809208
 20
-122.619130202421
 30
0.0
 11
2.37184947809208
 21
-125.0686199452042
 31
0.0
  0
LINE
  5
330F
330
32A9
100
AcDbEntity
  8
0
100
AcDbLine
 10
-2.224344599620531
 20
-127.7222338332193
 30
0.0
 11
2.371849478092094
 21
-125.0686199452042
 31
0.0
  0
LINE
  5
3310
330
32A9
100
AcDbEntity
  8
0
100
AcDbLine
 10
-43.5900912990335
 20
-96.08299132226992
 30
0.0
 11
-48.18628537674612
 21
-98.73660521028506
 31
0.0
  0
LINE
  5
3311
330
32A9
100
AcDbEntity
  8
0
100
AcDbLine
 10
-2.224344599620531
 20
-125.2727440904362
 30
0.0
 11
2.371849478092094
 21
-122.619130202421
 31
0.0
  0
LINE
  5
3312
330
32A9
100
AcDbEntity
  8
0
100
AcDbLine
 10
-2.224344599620531
 20
-127.7222338332193
 30
0.0
 11
-2.224344599620531
 21
-125.2727440904362
 31
0.0
  0
SPLINE
  5
3313
330
32A9
100
AcDbEntity
  8
0
100
AcDbSpline
210
0.0
220
0.0
230
1.0
 70
     8
 71
     3
 72
    17
 73
    13
 74
     0
 42
0.000000001
 43
0.0000000001
 40
-0.474926861849286
 40
-0.474926861849286
 40
-0.474926861849286
 40
-0.474926861849286
 40
-0.4725410755532022
 40
-0.4725410755532022
 40
-0.4725410755532022
 40
-0.2262668722295299
 40
-0.2262668722295299
 40
-0.2262668722295299
 40
-0.0545088760473691
 40
-0.0545088760473691
 40
-0.0545088760473691
 40
0.0
 40
0.0
 40
0.0
 40
0.0
 10
-35.66912060925873
 20
-92.79045000028553
 30
0.0
 10
-35.65695540867164
 20
-92.78072977548049
 30
0.0
 10
-35.64478934925903
 20
-92.77100856608152
 30
0.0
 10
-35.63262242771831
 20
-92.76128641945758
 30
0.0
 10
-34.37668474618077
 20
-91.75771207654927
 30
0.0
 10
-33.11442340202467
 20
-90.748979093525
 30
0.0
 10
-31.85243390577684
 20
-89.79524220194671
 30
0.0
 10
-30.97228980561065
 20
-89.13008143735295
 30
0.0
 10
-30.0778844284665
 20
-88.48097244150999
 30
0.0
 10
-29.20118678131876
 20
-87.88693752833152
 30
0.0
 10
-28.92295924931663
 20
-87.69841544394536
 30
0.0
 10
-28.64814735513915
 20
-87.51760059112326
 30
0.0
 10
-28.3771724588394
 20
-87.34165951254745
 30
0.0
  0
SPLINE
  5
3314
330
32A9
100
AcDbEntity
  8
0
100
AcDbSpline
210
0.0
220
0.0
230
1.0
 70
     8
 71
     3
 72
    20
 73
    16
 74
     0
 42
0.000000001
 43
0.0000000001
 40
-1.0
 40
-1.0
 40
-1.0
 40
-1.0
 40
-0.85651408435884
 40
-0.85651408435884
 40
-0.85651408435884
 40
-0.5402558541856224
 40
-0.5402558541856224
 40
-0.5402558541856224
 40
-0.2701279270928112
 40
-0.2701279270928112
 40
-0.2701279270928112
 40
-0.0852549168085124
 40
-0.0852549168085124
 40
-0.0852549168085124
 40
0.0
 40
0.0
 40
0.0
 40
0.0
 10
-26.5480793673767
 20
-88.80395293784836
 30
0.0
 10
-27.2615420184867
 20
-89.26380828509696
 30
0.0
 10
-28.03540064458552
 20
-89.69604608917094
 30
0.0
 10
-28.8367626190643
 20
-90.08899676525732
 30
0.0
 10
-30.60304970476393
 20
-90.95510187954076
 30
0.0
 10
-32.50271562159646
 20
-91.66567223652451
 30
0.0
 10
-34.42036746702254
 20
-92.34934716616285
 30
0.0
 10
-36.05830529272571
 20
-92.93329937334297
 30
0.0
 10
-37.67369541582448
 20
-93.48063260689034
 30
0.0
 10
-39.23828805400808
 20
-94.08197022418292
 30
0.0
 10
-40.30908052631057
 20
-94.49352002839058
 30
0.0
 10
-41.34511302690359
 20
-94.92975248355094
 30
0.0
 10
-42.30071775808291
 20
-95.3988407800162
 30
0.0
 10
-42.74139864348217
 20
-95.61516269541906
 30
0.0
 10
-43.16423533259899
 20
-95.84136654084932
 30
0.0
 10
-43.59009129907906
 20
-96.08299132238316
 30
0.0
  0
SPLINE
  5
3315
330
32A9
100
AcDbEntity
  8
0
100
AcDbSpline
210
0.0
220
0.0
230
1.0
 70
     8
 71
     2
 72
     6
 73
     3
 74
     0
 42
0.000000001
 43
0.0000000001
 40
0.0
 40
0.0
 40
0.0
 40
1.0
 40
1.0
 40
1.0
 10
-24.43346341810543
 20
-95.71790339871439
 30
0.0
 10
-32.78348997466877
 20
-99.35070464372865
 30
0.0
 10
-43.5900912990335
 20
-96.08299132226992
 30
0.0
  0
ELLIPSE
  5
3316
330
32A9
100
AcDbEntity
  8
0
100
AcDbEllipse
 10
-24.43346341810542
 20
-93.26841365593123
 30
0.0
 11
1.196830787170336
 21
-2.750926401574793
 31
0.0
210
0.0
220
0.0
230
1.0
 40
0.4913799087545872
 41
4.12598741047433
 42
5.558498891075148
  0
LINE
  5
3317
330
32A9
100
AcDbEntity
  8
0
100
AcDbLine
 10
-26.54807936737667
 20
-88.80395293784836
 30
0.0
 11
-26.2216734877879
 21
-92.23599009083244
 31
0.0
  0
LINE
  5
3318
330
32A9
100
AcDbEntity
  8
0
100
AcDbLine
 10
-28.37717245889018
 20
-87.34165951247868
 30
0.0
 11
-27.94217154696427
 21
-87.6894269260075
 31
0.0
  0
LINE
  5
3319
330
32A9
100
AcDbEntity
  8
0
100
AcDbLine
 10
-27.8061804644215
 20
-87.79814685220145
 30
0.0
 11
-26.54807936737667
 21
-88.80395293784836
 31
0.0
  0
LINE
  5
331A
330
32A9
100
AcDbEntity
  8
0
100
AcDbLine
 10
-27.94217154696427
 20
-87.6894269260075
 30
0.0
 11
-27.8061804644215
 21
-87.79814685220145
 31
0.0
  0
LINE
  5
331B
330
32A9
100
AcDbEntity
  8
0
100
AcDbLine
 10
44.17127494764404
 20
-48.76667009229821
 30
0.0
 11
39.45014603983538
 21
-84.83029258617621
 31
0.0
  0
ELLIPSE
  5
331C
330
32A9
100
AcDbEntity
  8
0
100
AcDbEllipse
 10
34.7040762139522
 20
-82.09014789460979
 30
0.0
 11
5.949238372592031
 21
-0.7788214083334749
 31
0.0
210
0.0
220
0.0
230
0.9999999999999998
 40
0.6520831633610851
 41
5.71634074729844
 42
6.283185307179586
  0
ELLIPSE
  5
331D
330
32A9
100
AcDbEntity
  8
0
100
AcDbEllipse
 10
31.87564908920601
 20
-86.98912738017614
 30
0.0
 11
3.649098310923982
 21
-4.762780859667153
 31
0.0
210
0.0
220
0.0
230
1.0
 40
0.6520831633610853
 41
0.0
 42
0.5668445598811447
  0
ELLIPSE
  5
331E
330
32A9
100
AcDbEntity
  8
0
100
AcDbEllipse
 10
37.01922842409592
 20
-86.69278797006212
 30
0.0
 11
-1.999999999999999
 21
-3.464101615137756
 31
0.0
210
0.0
220
0.0
230
1.0
 40
0.4150676916945045
 41
0.7853981633974474
 42
2.356194490192342
  0
LINE
  5
331F
330
32A9
100
AcDbEntity
  8
0
100
AcDbLine
 10
36.6217189150892
 20
-89.72927207174256
 30
0.0
 11
7.750270136803276
 21
-111.8497008873849
 31
0.0
  0
LINE
  5
3320
330
32A9
100
AcDbEntity
  8
0
100
AcDbLine
 10
45.3577119331301
 20
-46.93315537338434
 30
0.0
 11
40.65331458654423
 21
-82.86896930294327
 31
0.0
  0
SPLINE
  5
3321
330
32A9
100
AcDbEntity
  8
0
100
AcDbSpline
210
0.0
220
0.0
230
1.0
 70
     8
 71
     3
 72
    16
 73
    12
 74
     0
 42
0.000000001
 43
0.0000000001
 40
-0.7853981633974484
 40
-0.7853981633974484
 40
-0.7853981633974484
 40
-0.7853981633974484
 40
-0.4712388980384691
 40
-0.4712388980384691
 40
-0.1570796326794898
 40
-0.1570796326794898
 40
0.1570796326794895
 40
0.1570796326794895
 40
0.4712388980384689
 40
0.4712388980384689
 40
0.7853981633974481
 40
0.7853981633974481
 40
0.7853981633974481
 40
0.7853981633974481
 10
40.65331458654423
 20
-82.86896930294327
 30
0.0
 10
40.55393328067
 20
-83.62812033821128
 30
0.0
 10
40.38242782077467
 20
-84.31793308336422
 30
0.0
 10
39.95097371924283
 20
-85.64120451342066
 30
0.0
 10
39.68890954138537
 20
-86.27267974216453
 30
0.0
 10
39.08692725297138
 20
-87.49398232751303
 30
0.0
 10
38.74693250545489
 20
-88.08287050451816
 30
0.0
 10
37.99024458504246
 20
-89.21485375158722
 30
0.0
 10
37.57440308401842
 20
-89.75754560140559
 30
0.0
 10
36.64414346025326
 20
-90.7928315289274
 30
0.0
 10
36.13250082904425
 20
-91.28626598666095
 30
0.0
 10
35.52474740013
 20
-91.7519082398433
 30
0.0
  0
LINE
  5
3322
330
32A9
100
AcDbEntity
  8
0
100
AcDbLine
 10
35.52474740012999
 20
-91.7519082398433
 30
0.0
 11
6.755618304753898
 21
-113.7939428162625
 31
0.0
  0
LINE
  5
3323
330
32A9
100
AcDbEntity
  8
0
100
AcDbLine
 10
47.98023686462439
 20
107.0205331835019
 30
0.0
 11
11.91779102411048
 21
127.8411959971589
 31
0.0
  0
LINE
  5
3324
330
32A9
100
AcDbEntity
  8
0
100
AcDbLine
 10
45.85891652106474
 20
105.7957883121103
 30
0.0
 11
9.796470680550836
 21
126.6164511257673
 31
0.0
  0
LINE
  5
3325
330
32A9
100
AcDbEntity
  8
0
100
AcDbLine
 10
47.98023686462439
 20
107.0205331835019
 30
0.0
 11
45.85891652106474
 21
105.7957883121103
 31
0.0
  0
LINE
  5
3326
330
32A9
100
AcDbEntity
  8
0
100
AcDbLine
 10
9.796470680550836
 20
126.6164511257673
 30
0.0
 11
11.91779102411048
 21
127.8411959971589
 31
0.0
  0
LINE
  5
3327
330
32A9
100
AcDbEntity
  8
0
100
AcDbLine
 10
52.92998433293022
 20
98.44731908376076
 30
0.0
 11
47.98023686462439
 21
107.0205331835019
 31
0.0
  0
LINE
  5
3328
330
32A9
100
AcDbEntity
  8
0
100
AcDbLine
 10
-12.12383953623219
 20
-127.7222338332193
 30
0.0
 11
-2.224344599620531
 21
-127.7222338332193
 31
0.0
  0
LINE
  5
3329
330
32A9
100
AcDbEntity
  8
0
100
AcDbLine
 10
45.85891652106474
 20
105.7957883121103
 30
0.0
 11
50.80866398937057
 21
97.22257421236918
 31
0.0
  0
LINE
  5
332A
330
32A9
100
AcDbEntity
  8
0
100
AcDbLine
 10
4.846723212245001
 20
123.7587130925203
 30
0.0
 11
9.796470680550836
 21
126.6164511257673
 31
0.0
  0
LINE
  5
332B
330
32A9
100
AcDbEntity
  8
0
100
AcDbLine
 10
-48.18628537674612
 20
-104.4520812767791
 30
0.0
 11
-48.18628537674612
 21
-98.73660521028506
 31
0.0
  0
LINE
  5
332C
330
32A9
100
AcDbEntity
  8
0
100
AcDbLine
 10
-2.224344599620531
 20
-125.2727440904362
 30
0.0
 11
-12.12383953623219
 21
-125.2727440904361
 31
0.0
  0
LINE
  5
332D
330
32A9
100
AcDbEntity
  8
0
100
AcDbLine
 10
-12.12383953623219
 20
-125.2727440904361
 30
0.0
 11
-12.12383953623219
 21
-127.7222338332193
 31
0.0
  0
LINE
  5
332E
330
32A9
100
AcDbEntity
  8
0
100
AcDbLine
 10
-48.18628537674612
 20
-106.9015710195623
 30
0.0
 11
-48.18628537674612
 21
-104.4520812767791
 31
0.0
  0
LINE
  5
332F
330
32A9
100
AcDbEntity
  8
0
100
AcDbLine
 10
50.80866398937057
 20
97.22257421236918
 30
0.0
 11
52.92998433293022
 21
98.44731908376076
 31
0.0
  0
LINE
  5
3330
330
32A9
100
AcDbEntity
  8
0
100
AcDbLine
 10
-28.37717245889019
 20
-87.34165951247868
 30
0.0
 11
-4.990204652423728
 21
-72.37326577267302
 31
0.0
  0
ELLIPSE
  5
3331
330
32A9
100
AcDbEntity
  8
0
100
AcDbEllipse
 10
-8.558886392746497
 20
-60.37825111140247
 30
0.0
 11
7.499999999999976
 21
12.99038105676659
 31
0.0
210
0.0
220
0.0
230
1.0
 40
0.7396328466847474
 41
4.101523742186671
 42
5.323254218582703
  0
LINE
  5
3332
330
32A9
100
AcDbEntity
  8
0
100
AcDbLine
 10
3.613441892841975
 20
-57.47131282590839
 30
0.0
 11
4.88296722212846
 21
-29.7334077181168
 31
0.0
  0
LINE
  5
3333
330
32A9
100
AcDbEntity
  8
0
100
AcDbLine
 10
24.60905239728937
 20
-89.46240479813781
 30
0.0
 11
26.77186666022772
 21
-90.71110619505246
 31
0.0
  0
LINE
  5
3334
330
32A9
100
AcDbEntity
  8
0
100
AcDbLine
 10
3.613441892841975
 20
-57.47131282590839
 30
0.0
 11
5.776256155780337
 21
-58.72001422282302
 31
0.0
  0
LINE
  5
3335
330
32A9
100
AcDbEntity
  8
0
100
AcDbLine
 10
-4.990204652423728
 20
-72.37326577267302
 30
0.0
 11
-2.827390389485371
 21
-73.62196716958763
 31
0.0
  0
LINE
  5
3336
330
32A9
100
AcDbEntity
  8
0
100
AcDbLine
 10
33.21269894255507
 20
-74.56045185137319
 30
0.0
 11
35.37551320549342
 21
-75.80915324828781
 31
0.0
  0
LINE
  5
3337
330
32A9
100
AcDbEntity
  8
0
100
AcDbLine
 10
18.53185851234867
 20
-67.85413416562938
 30
0.0
 11
14.10886173629504
 21
-28.96063798945291
 31
0.0
  0
LINE
  5
3338
330
32A9
100
AcDbEntity
  8
0
100
AcDbLine
 10
41.54652546532051
 20
-44.80178052934022
 30
0.0
 11
41.33027694606233
 21
-46.45365344272086
 31
0.0
  0
LINE
  5
3339
330
32A9
100
AcDbEntity
  8
0
100
AcDbLine
 10
40.82032616917456
 20
-50.34905063844707
 30
0.0
 11
40.82030441645025
 21
-50.34921680252631
 31
0.0
  0
LINE
  5
333A
330
32A9
100
AcDbEntity
  8
0
100
AcDbLine
 10
7.445310524939383
 20
-108.156401924924
 30
0.0
 11
7.445177498987716
 21
-108.1565038453755
 31
0.0
  0
LINE
  5
333B
330
32A9
100
AcDbEntity
  8
0
100
AcDbLine
 10
4.326639893430126
 20
-110.5458328202527
 30
0.0
 11
3.004200310920097
 21
-111.5590459386017
 31
0.0
  0
LINE
  5
333C
330
32A9
100
AcDbEntity
  8
0
100
AcDbLine
 10
10.19933132305294
 20
-29.15295929574573
 30
0.0
 11
14.62232809910656
 21
-68.0464554719222
 31
0.0
  0
ELLIPSE
  5
333D
330
32A9
100
AcDbEntity
  8
0
100
AcDbEllipse
 10
16.41053816878902
 20
-69.07887903702098
 30
0.0
 11
-2.980787541290217
 21
-0.3389773350668591
 31
0.0
210
0.0
220
0.0
230
0.9999999999999998
 40
0.4913799087545879
 41
3.866279069693527
 42
5.298790550294556
  0
LINE
  5
333E
330
32A9
100
AcDbEntity
  8
0
100
AcDbLine
 10
9.672580630800716
 20
-76.61966957166334
 30
0.0
 11
-26.22167348778791
 21
-92.23599009083244
 31
0.0
  0
ELLIPSE
  5
333F
330
32A9
100
AcDbEntity
  8
0
100
AcDbEllipse
 10
8.97693899003897
 20
-70.50256461661593
 30
0.0
 11
-3.500000000000007
 21
-6.062177826491068
 31
0.0
210
0.0
220
0.0
230
1.0
 40
0.7396328466847474
 41
0.7853981633974483
 42
2.356194490192345
  0
LINE
  5
3340
330
32A9
100
AcDbEntity
  8
0
100
AcDbLine
 10
-24.43346341810543
 20
-95.71790339871439
 30
0.0
 11
11.46079070048318
 21
-80.10158287954528
 31
0.0
  0
ELLIPSE
  5
3341
330
32A9
100
AcDbEntity
  8
0
100
AcDbEllipse
 10
10.76514905972143
 20
-71.5349881817147
 30
0.0
 11
5.000000000000004
 21
8.66025403784438
 31
0.0
210
0.0
220
0.0
230
1.0
 40
0.6909480734362111
 41
3.926990816987242
 42
5.497787143782138
  0
ELLIPSE
  5
3342
330
32A9
100
AcDbEntity
  8
0
100
AcDbEllipse
 10
11.46079070048318
 20
-77.6520931367621
 30
0.0
 11
-1.196830787170058
 21
2.750926401574914
 31
0.0
210
0.0
220
0.0
230
1.0
 40
0.4913799087545867
 41
0.9843947568850204
 42
2.416906237486054
  0
LINE
  5
3343
330
32A9
100
AcDbEntity
  8
0
100
AcDbLine
 10
32.78483171377736
 20
-76.08309208022678
 30
0.0
 11
18.53185851234867
 21
-67.85413416562938
 31
0.0
  0
LINE
  5
3344
330
32A9
100
AcDbEntity
  8
0
100
AcDbLine
 10
11.46079070048318
 20
-80.10158287954528
 30
0.0
 11
25.71376390191187
 21
-88.33054079414267
 31
0.0
  0
LINE
  5
3345
330
32A9
100
AcDbEntity
  8
0
100
AcDbLine
 10
26.77186666022772
 20
-90.71110619505246
 30
0.0
 11
8.237678971471105
 21
-108.4812538421359
 31
0.0
  0
LINE
  5
3346
330
32A9
100
AcDbEntity
  8
0
100
AcDbLine
 10
41.49781865248969
 20
-50.87300204777402
 30
0.0
 11
35.37551320549342
 21
-75.80915324828781
 31
0.0
  0
ELLIPSE
  5
3347
330
32A9
100
AcDbEntity
  8
0
100
AcDbEllipse
 10
26.65691428148133
 20
-80.71010311039612
 30
0.0
 11
-7.49999999999998
 21
-12.99038105676659
 31
0.0
210
0.0
220
0.0
230
0.9999999999999998
 40
0.4150676916945047
 41
0.9599310885968748
 42
2.181661564992907
  0
ENDBLK
  5
32AB
330
32A9
100
AcDbEntity
  8
0
100
AcDbBlockEnd
  0
ENDSEC
  0
SECTION
  2
ENTITIES
  0
INSERT
  5
3348
330
1F
100
AcDbEntity
  8
0
100
AcDbBlockReference
  2
AKR245X3-Front
 10
0.0
 20
0.0
 30
0.0
  0
INSERT
  5
3349
330
1F
100
AcDbEntity
  8
0
100
AcDbBlockReference
  2
AKR245X3-Left
 10
106.0000093914717
 20
0.0
 30
0.0
  0
INSERT
  5
334A
330
1F
100
AcDbEntity
  8
0
100
AcDbBlockReference
  2
AKR245X3-Right
 10
-106.0000093914717
 20
0.0
 30
0.0
  0
INSERT
  5
334B
330
1F
100
AcDbEntity
  8
0
100
AcDbBlockReference
  2
AKR245X3-Top
 10
0.0
 20
-73.50000156524505
 30
0.0
  0
INSERT
  5
334C
330
1F
100
AcDbEntity
  8
0
100
AcDbBlockReference
  2
AKR245X3-Bottom
 10
0.0
 20
318.5000093914703
 30
0.0
  0
INSERT
  5
334D
330
1F
100
AcDbEntity
  8
0
100
AcDbBlockReference
  2
AKR245X3-ISO
 10
154.1862869419926
 20
-201.3411975624039
 30
0.0
  0
MTEXT
  5
334E
330
1F
100
AcDbEntity
  8
0
100
AcDbMText
 10
0.0
 20
-232.0000031304901
 30
0.0
 40
16.30769254849946
 41
0.0
 71
     5
 72
     5
  1
AKR245X3L
 73
     1
 44
1.0
1001
ACAD
1000
MTEXTBEGIN
1070
    73
1070
     1
1070
    44
1040
1.0
1070
    74
1070
     0
1000
MTEXTEND
  0
ENDSEC
  0
SECTION
  2
OBJECTS
  0
DICTIONARY
  5
C
330
0
100
AcDbDictionary
281
     1
  3
ACAD_CIP_PREVIOUS_PRODUCT_INFO
350
216
  3
ACAD_COLOR
350
6B
  3
ACAD_DETAILVIEWSTYLE
350
21B
  3
ACAD_GROUP
350
D
  3
ACAD_LAYOUT
350
1A
  3
ACAD_MATERIAL
350
6A
  3
ACAD_MLEADERSTYLE
350
12D
  3
ACAD_MLINESTYLE
350
17
  3
ACAD_PLOTSETTINGS
350
19
  3
ACAD_PLOTSTYLENAME
350
E
  3
ACAD_SCALELIST
350
10C
  3
ACAD_SECTIONVIEWSTYLE
350
219
  3
ACAD_TABLESTYLE
350
7E
  3
ACAD_VISUALSTYLE
350
EF
  3
ACDB_RECOMPOSE_DATA
350
344F
  3
AcDbVariableDictionary
350
5E
  3
DWGPROPS
350
3450
  0
DICTIONARY
  5
339F
330
8
100
AcDbDictionary
280
     1
281
     1
  0
DICTIONARY
  5
1FF
330
2
100
AcDbDictionary
280
     1
281
     1
  3
ACAD_LAYERSTATES
360
200
  0
DICTIONARY
  5
13C
330
10
100
AcDbDictionary
280
     1
281
     1
  0
DICTIONARY
  5
1CE
330
1F
100
AcDbDictionary
280
     1
281
     1
  3
ACAD_LAYOUTSELFREF
360
33A7
  0
DICTIONARY
  5
3352
330
D2
100
AcDbDictionary
280
     1
281
     1
  3
ACAD_LAYOUTSELFREF
360
33B0
  0
DICTIONARY
  5
3354
330
D6
100
AcDbDictionary
280
     1
281
     1
  3
ACAD_LAYOUTSELFREF
360
33B3
  0
XRECORD
  5
216
102
{ACAD_REACTORS
330
C
102
}
330
C
100
AcDbXrecord
280
     1
300
ACD
300
2021
300
87393ACD_2021_0F
  0
DICTIONARY
  5
6B
102
{ACAD_REACTORS
330
C
102
}
330
C
100
AcDbDictionary
281
     1
  0
DICTIONARY
  5
21B
102
{ACAD_REACTORS
330
C
102
}
330
C
100
AcDbDictionary
281
     1
  3
Metric50
350
21C
  0
DICTIONARY
  5
D
102
{ACAD_REACTORS
330
C
102
}
330
C
100
AcDbDictionary
281
     1
  0
DICTIONARY
  5
1A
102
{ACAD_REACTORS
330
C
102
}
330
C
100
AcDbDictionary
281
     1
  3
Layout1
350
D3
  3
Layout2
350
D7
  3
Model
350
22
  0
DICTIONARY
  5
6A
102
{ACAD_REACTORS
330
C
102
}
330
C
100
AcDbDictionary
281
     1
  3
ByBlock
350
ED
  3
ByLayer
350
EC
  3
Global
350
EE
  0
DICTIONARY
  5
12D
102
{ACAD_REACTORS
330
C
102
}
330
C
100
AcDbDictionary
281
     1
  3
Standard
350
12E
  0
DICTIONARY
  5
17
102
{ACAD_REACTORS
330
C
102
}
330
C
100
AcDbDictionary
281
     1
  3
Standard
350
18
  0
DICTIONARY
  5
19
102
{ACAD_REACTORS
330
C
102
}
330
C
100
AcDbDictionary
281
     1
  0
ACDBDICTIONARYWDFLT
  5
E
102
{ACAD_REACTORS
330
C
102
}
330
C
100
AcDbDictionary
281
     1
  3
Normal
350
F
100
AcDbDictionaryWithDefault
340
F
  0
DICTIONARY
  5
10C
102
{ACAD_REACTORS
330
C
102
}
330
C
100
AcDbDictionary
281
     1
  3
A0
350
10D
  3
A1
350
1BE
  3
A2
350
1BF
  3
A3
350
1C0
  3
A4
350
1C1
  3
A5
350
1C2
  3
A6
350
1C3
  3
A7
350
1C4
  3
A8
350
1C5
  3
A9
350
1C6
  3
B0
350
1C7
  3
B1
350
1C8
  3
B2
350
1C9
  3
B3
350
1CA
  3
B4
350
1CB
  3
B5
350
1CC
  3
B6
350
1CD
  0
DICTIONARY
  5
219
102
{ACAD_REACTORS
330
C
102
}
330
C
100
AcDbDictionary
281
     1
  3
Metric50
350
21A
  0
DICTIONARY
  5
7E
102
{ACAD_REACTORS
330
C
102
}
330
C
100
AcDbDictionary
281
     1
  3
Standard
350
7F
  0
DICTIONARY
  5
EF
102
{ACAD_REACTORS
330
C
102
}
330
C
100
AcDbDictionary
281
     1
  3
2dWireframe
350
F5
  3
Basic
350
F4
  3
Brighten
350
FB
  3
ColorChange
350
FF
  3
Conceptual
350
F8
  3
Dim
350
FA
  3
EdgeColorOff
350
1E6
  3
Facepattern
350
FE
  3
Flat
350
F0
  3
FlatWithEdges
350
F1
  3
Gouraud
350
F2
  3
GouraudWithEdges
350
F3
  3
Hidden
350
F7
  3
JitterOff
350
1E4
  3
Linepattern
350
FD
  3
OverhangOff
350
1E5
  3
Realistic
350
F9
  3
Shaded
350
1F3
  3
Shaded with edges
350
1F2
  3
Shades of Gray
350
1EF
  3
Sketchy
350
1F0
  3
Thicken
350
FC
  3
Wireframe
350
F6
  3
X-Ray
350
1F1
  0
XRECORD
  5
344F
102
{ACAD_REACTORS
330
C
102
}
330
C
100
AcDbXrecord
280
     1
 90
        1
330
7F
  0
DICTIONARY
  5
5E
102
{ACAD_REACTORS
330
C
102
}
330
C
100
AcDbDictionary
281
     1
  3
CANNOSCALE
350
146
  3
CENTEREXE
350
259
  3
CENTERLTYPEFILE
350
25A
  3
CMLEADERSTYLE
350
145
  3
CTABLESTYLE
350
84
  3
CVIEWDETAILSTYLE
350
227
  3
CVIEWSECTIONSTYLE
350
228
  3
DIMASSOC
350
5F
  3
HIDETEXT
350
63
  3
INDEXCTL
350
33FC
  3
LAYEREVAL
350
1AE
  3
LAYERNOTIFY
350
1AF
  3
LIGHTINGUNITS
350
33FA
  3
MSLTSCALE
350
33F9
  3
PSOLHEIGHT
350
344C
  3
PSOLWIDTH
350
344B
  3
SORTENTS
350
33FB
  3
XCLIPFRAME
350
344D
  0
XRECORD
  5
3450
102
{ACAD_REACTORS
330
C
102
}
330
C
100
AcDbXrecord
280
     1
  1
DWGPROPS COOKIE
  2

  3

  4

  6

  7

  8
tronnguyen
  9

300
=
301
=
302
=
303
=
304
=
305
=
306
=
307
=
308
=
309
=
 40
0.6789120370370371
 41
2460572.688854167
 42
2460573.369861111
  1

 90
        0
  0
DICTIONARY
  5
200
102
{ACAD_REACTORS
330
1FF
102
}
330
1FF
100
AcDbDictionary
281
     1
  0
XRECORD
  5
33A7
102
{ACAD_REACTORS
330
1CE
102
}
330
1CE
100
AcDbXrecord
280
     1
340
1F
  0
XRECORD
  5
33B0
102
{ACAD_REACTORS
330
3352
102
}
330
3352
100
AcDbXrecord
280
     1
340
D2
  0
XRECORD
  5
33B3
102
{ACAD_REACTORS
330
3354
102
}
330
3354
100
AcDbXrecord
280
     1
340
D6
  0
ACDBDETAILVIEWSTYLE
  5
21C
102
{ACAD_XDICTIONARY
360
348F
102
}
102
{ACAD_REACTORS
330
21B
102
}
330
21B
100
AcDbModelDocViewStyle
 70
     0
  3
Metric50
290
     0
100
AcDbDetailViewStyle
 70
     0
 71
     0
 90
        3
 71
     1
340
11
 40
5.0
340
0
 40
5.0
300

 40
0.0
280
     1
 71
     2
340
16
 90
       25
 71
     3
340
11
 40
5.0
 90
        0
 40
15.0
 90
        1
300
%<\AcVar ViewDetailId>% (%<\AcVar ViewScale \f "%sn">%)
 71
     4
340
16
 90
       25
340
16
 90
       25
280
     0
  0
LAYOUT
  5
D3
102
{ACAD_XDICTIONARY
360
3454
102
}
102
{ACAD_REACTORS
330
1A
102
}
330
1A
100
AcDbPlotSettings
  1

  2
C:\Documents and Settings\basas\Application Data\Autodesk\AutoCAD 2005\R16.1\enu\plotters\Default Windows System Printer.pc3
  4

  6

 40
0.0
 41
0.0
 42
0.0
 43
0.0
 44
0.0
 45
0.0
 46
0.0
 47
0.0
 48
0.0
 49
0.0
140
0.0
141
0.0
142
1.0
143
1.0
 70
   688
 72
     0
 73
     0
 74
     5
  7

 75
    16
147
1.0
148
0.0
149
0.0
100
AcDbLayout
  1
Layout1
 70
     1
 71
     1
 10
0.0
 20
0.0
 11
12.0
 21
9.0
 12
0.0
 22
0.0
 32
0.0
 14
0.0
 24
0.0
 34
0.0
 15
0.0
 25
0.0
 35
0.0
146
0.0
 13
0.0
 23
0.0
 33
0.0
 16
1.0
 26
0.0
 36
0.0
 17
0.0
 27
1.0
 37
0.0
 76
     0
330
D2
  0
LAYOUT
  5
D7
102
{ACAD_XDICTIONARY
360
3456
102
}
102
{ACAD_REACTORS
330
1A
102
}
330
1A
100
AcDbPlotSettings
  1

  2
C:\Documents and Settings\basas\Application Data\Autodesk\AutoCAD 2005\R16.1\enu\plotters\Default Windows System Printer.pc3
  4

  6

 40
0.0
 41
0.0
 42
0.0
 43
0.0
 44
0.0
 45
0.0
 46
0.0
 47
0.0
 48
0.0
 49
0.0
140
0.0
141
0.0
142
1.0
143
1.0
 70
   688
 72
     0
 73
     0
 74
     5
  7

 75
    16
147
1.0
148
0.0
149
0.0
100
AcDbLayout
  1
Layout2
 70
     1
 71
     2
 10
0.0
 20
0.0
 11
12.0
 21
9.0
 12
0.0
 22
0.0
 32
0.0
 14
0.0
 24
0.0
 34
0.0
 15
0.0
 25
0.0
 35
0.0
146
0.0
 13
0.0
 23
0.0
 33
0.0
 16
1.0
 26
0.0
 36
0.0
 17
0.0
 27
1.0
 37
0.0
 76
     0
330
D6
  0
LAYOUT
  5
22
102
{ACAD_XDICTIONARY
360
3451
102
}
102
{ACAD_REACTORS
330
1A
102
}
330
1A
100
AcDbPlotSettings
  1

  2
none_device
  4
ISO_A4_(210.00_x_297.00_MM)
  6

 40
7.5
 41
20.0
 42
7.5
 43
20.0
 44
210.0
 45
297.0
 46
11.54999923706054
 47
-13.65000009536743
 48
0.0
 49
0.0
140
0.0
141
0.0
142
1.0
143
8.704084754739808
 70
 11952
 72
     1
 73
     0
 74
     0
  7

 75
     0
147
0.1148885871608098
148
0.0
149
0.0
100
AcDbLayout
  1
Model
 70
     1
 71
     0
 10
0.0
 20
0.0
 11
12.0
 21
9.0
 12
0.0
 22
0.0
 32
0.0
 14
0.0
 24
0.0
 34
0.0
 15
0.0
 25
0.0
 35
0.0
146
0.0
 13
0.0
 23
0.0
 33
0.0
 16
1.0
 26
0.0
 36
0.0
 17
0.0
 27
1.0
 37
0.0
 76
     0
330
1F
331
EA
1001
ACAD_PSEXT
1000
None
1000
None
1000
Not applicable
1000
The layout will not be plotted unless a new plotter configuration name is selected.
1070
     0
  0
MATERIAL
  5
ED
102
{ACAD_XDICTIONARY
360
1F9
102
}
102
{ACAD_REACTORS
330
6A
102
}
330
6A
100
AcDbMaterial
  1
ByBlock
  0
MATERIAL
  5
EC
102
{ACAD_XDICTIONARY
360
1F7
102
}
102
{ACAD_REACTORS
330
6A
102
}
330
6A
100
AcDbMaterial
  1
ByLayer
  0
MATERIAL
  5
EE
102
{ACAD_XDICTIONARY
360
173
102
}
102
{ACAD_REACTORS
330
6A
102
}
330
6A
100
AcDbMaterial
  1
Global
 43
0.0007999999797903
 43
0.0
 43
0.0
 43
0.0
 43
0.0
 43
0.0007999999797903
 43
0.0
 43
0.0
 43
0.0
 43
0.0
 43
1.0
 43
0.0
 43
0.0
 43
0.0
 43
0.0
 43
1.0
 49
0.0007999999797903
 49
0.0
 49
0.0
 49
0.0
 49
0.0
 49
0.0007999999797903
 49
0.0
 49
0.0
 49
0.0
 49
0.0
 49
1.0
 49
0.0
 49
0.0
 49
0.0
 49
0.0
 49
1.0
142
0.0007999999797903
142
0.0
142
0.0
142
0.0
142
0.0
142
0.0007999999797903
142
0.0
142
0.0
142
0.0
142
0.0
142
1.0
142
0.0
142
0.0
142
0.0
142
0.0
142
1.0
144
0.0007999999797903
144
0.0
144
0.0
144
0.0
144
0.0
144
0.0007999999797903
144
0.0
144
0.0
144
0.0
144
0.0
144
1.0
144
0.0
144
0.0
144
0.0
144
0.0
144
1.0
1001
ACAD
1070
    -1
1070
     3
1070
     0
1000

1071
        0
1070
     0
  0
MLEADERSTYLE
  5
12E
102
{ACAD_XDICTIONARY
360
347B
102
}
102
{ACAD_REACTORS
330
12D
102
}
330
12D
100
AcDbMLeaderStyle
170
     2
171
     1
172
     0
 90
        2
 40
0.0
 41
0.0
173
     1
 91
-1056964608
340
14
 92
       -2
290
     1
 42
2.0
291
     1
 43
8.0
  3
Standard
 44
4.0
300

342
11
174
     1
178
     1
175
     1
176
     0
 93
-1056964608
 45
4.0
292
     0
297
     0
 46
4.0
 94
-1056964608
 47
1.0
 49
1.0
140
1.0
293
     1
141
0.0
294
     1
177
     0
142
1.0
295
     0
296
     0
143
3.75
1001
ACAD_MLEADERVER
1070
     2
  0
MLINESTYLE
  5
18
102
{ACAD_REACTORS
330
17
102
}
330
17
100
AcDbMlineStyle
  2
STANDARD
 70
     0
  3

 62
   256
 51
90.0
 52
90.0
 71
     2
 49
0.5
 62
   256
  6
BYLAYER
 49
-0.5
 62
   256
  6
BYLAYER
  0
ACDBPLACEHOLDER
  5
F
102
{ACAD_REACTORS
330
E
102
}
330
E
  0
SCALE
  5
10D
102
{ACAD_REACTORS
330
10C
102
}
330
10C
100
AcDbScale
 70
     0
300
1:1
140
1.0
141
1.0
290
     1
  0
SCALE
  5
1BE
102
{ACAD_REACTORS
330
10C
102
}
330
10C
100
AcDbScale
 70
     0
300
1:2
140
1.0
141
2.0
290
     0
  0
SCALE
  5
1BF
102
{ACAD_REACTORS
330
10C
102
}
330
10C
100
AcDbScale
 70
     0
300
1:4
140
1.0
141
4.0
290
     0
  0
SCALE
  5
1C0
102
{ACAD_REACTORS
330
10C
102
}
330
10C
100
AcDbScale
 70
     0
300
1:5
140
1.0
141
5.0
290
     0
  0
SCALE
  5
1C1
102
{ACAD_REACTORS
330
10C
102
}
330
10C
100
AcDbScale
 70
     0
300
1:8
140
1.0
141
8.0
290
     0
  0
SCALE
  5
1C2
102
{ACAD_REACTORS
330
10C
102
}
330
10C
100
AcDbScale
 70
     0
300
1:10
140
1.0
141
10.0
290
     0
  0
SCALE
  5
1C3
102
{ACAD_REACTORS
330
10C
102
}
330
10C
100
AcDbScale
 70
     0
300
1:16
140
1.0
141
16.0
290
     0
  0
SCALE
  5
1C4
102
{ACAD_REACTORS
330
10C
102
}
330
10C
100
AcDbScale
 70
     0
300
1:20
140
1.0
141
20.0
290
     0
  0
SCALE
  5
1C5
102
{ACAD_REACTORS
330
10C
102
}
330
10C
100
AcDbScale
 70
     0
300
1:30
140
1.0
141
30.0
290
     0
  0
SCALE
  5
1C6
102
{ACAD_REACTORS
330
10C
102
}
330
10C
100
AcDbScale
 70
     0
300
1:40
140
1.0
141
40.0
290
     0
  0
SCALE
  5
1C7
102
{ACAD_REACTORS
330
10C
102
}
330
10C
100
AcDbScale
 70
     0
300
1:50
140
1.0
141
50.0
290
     0
  0
SCALE
  5
1C8
102
{ACAD_REACTORS
330
10C
102
}
330
10C
100
AcDbScale
 70
     0
300
1:100
140
1.0
141
100.0
290
     0
  0
SCALE
  5
1C9
102
{ACAD_REACTORS
330
10C
102
}
330
10C
100
AcDbScale
 70
     0
300
2:1
140
2.0
141
1.0
290
     0
  0
SCALE
  5
1CA
102
{ACAD_REACTORS
330
10C
102
}
330
10C
100
AcDbScale
 70
     0
300
4:1
140
4.0
141
1.0
290
     0
  0
SCALE
  5
1CB
102
{ACAD_REACTORS
330
10C
102
}
330
10C
100
AcDbScale
 70
     0
300
8:1
140
8.0
141
1.0
290
     0
  0
SCALE
  5
1CC
102
{ACAD_REACTORS
330
10C
102
}
330
10C
100
AcDbScale
 70
     0
300
10:1
140
10.0
141
1.0
290
     0
  0
SCALE
  5
1CD
102
{ACAD_REACTORS
330
10C
102
}
330
10C
100
AcDbScale
 70
     0
300
100:1
140
100.0
141
1.0
290
     0
  0
ACDBSECTIONVIEWSTYLE
  5
21A
102
{ACAD_XDICTIONARY
360
348D
102
}
102
{ACAD_REACTORS
330
219
102
}
330
219
100
AcDbModelDocViewStyle
 70
     0
  3
Metric50
290
     0
100
AcDbSectionViewStyle
 70
     0
 71
     0
 90
      102
 71
     1
340
11
 40
5.0
340
0
340
0
 40
5.0
300
I, O, Q, S, X, Z
 40
10.0
 90
        0
 40
2.5
 90
        0
 71
     2
340
16
 90
       25
340
16
 90
       50
 40
5.0
 40
2.5
 40
5.0
 71
     3
340
11
 40
5.0
 90
        0
 40
15.0
 90
        1
300
%<\AcVar ViewSectionStartId>%-%<\AcVar ViewSectionEndId>% (%<\AcVar ViewScale \f "%sn">%)
 71
     4
300
ANSI31
 40
1.0
 90
        0
290
     0
290
     0
 90
        6
 40
0.0
 40
1.570796326794896
 40
0.2617993877991494
 40
1.308996938995747
 40
-0.2617993877991494
 40
1.832595714594046
  0
TABLESTYLE
  5
7F
102
{ACAD_XDICTIONARY
360
162
102
}
102
{ACAD_REACTORS
330
7E
102
}
330
7E
100
AcDbTableStyle
  3
Standard
 70
     0
 71
     0
 40
1.5
 41
1.5
280
     0
281
     0
  7
Standard
140
4.5
170
     2
 62
     0
 63
     7
283
     0
274
    -2
284
     1
 64
     0
275
    -2
285
     1
 65
     0
276
    -2
286
     1
 66
     0
277
    -2
287
     1
 67
     0
278
    -2
288
     1
 68
     0
279
    -2
289
     1
 69
     0
  7
Standard
140
6.0
170
     5
 62
     0
 63
     7
283
     0
274
    -2
284
     1
 64
     0
275
    -2
285
     1
 65
     0
276
    -2
286
     1
 66
     0
277
    -2
287
     1
 67
     0
278
    -2
288
     1
 68
     0
279
    -2
289
     1
 69
     0
  7
Standard
140
4.5
170
     5
 62
     0
 63
     7
283
     0
274
    -2
284
     1
 64
     0
275
    -2
285
     1
 65
     0
276
    -2
286
     1
 66
     0
277
    -2
287
     1
 67
     0
278
    -2
288
     1
 68
     0
279
    -2
289
     1
 69
     0
  0
VISUALSTYLE
  5
F5
102
{ACAD_XDICTIONARY
360
3465
102
}
102
{ACAD_REACTORS
330
EF
102
}
330
EF
100
AcDbVisualStyle
  2
2dWireframe
 70
     4
 71
     0
 72
     2
 73
     1
 90
        0
 40
-0.6
 41
-30.0
 62
     5
 63
     7
 74
     1
 91
        4
 64
     7
 65
   257
 75
     1
175
     1
 42
1.0
 92
        0
 66
   257
 43
1.0
 76
     1
 77
     6
 78
     2
 67
     7
 79
     5
170
     0
171
     0
290
     0
174
     0
 93
        1
 44
0.0
173
     0
291
     0
 45
0.0
1001
ACAD
1000
AcDbSavedByObjectVersion
1070
     0
  0
VISUALSTYLE
  5
F4
102
{ACAD_XDICTIONARY
360
3463
102
}
102
{ACAD_REACTORS
330
EF
102
}
330
EF
100
AcDbVisualStyle
  2
Basic
 70
     7
 71
     1
 72
     0
 73
     1
 90
        0
 40
-0.6
 41
-30.0
 62
     5
 63
     7
 74
     0
 91
        4
 64
     7
 65
   257
 75
     1
175
     1
 42
1.0
 92
        8
 66
     7
 43
1.0
 76
     1
 77
     6
 78
     2
 67
     7
 79
     5
170
     0
171
     0
290
     0
174
     0
 93
        1
 44
0.0
173
     0
291
     1
 45
0.0
1001
ACAD
1000
AcDbSavedByObjectVersion
1070
     0
  0
VISUALSTYLE
  5
FB
102
{ACAD_XDICTIONARY
360
3471
102
}
102
{ACAD_REACTORS
330
EF
102
}
330
EF
100
AcDbVisualStyle
  2
Brighten
 70
    12
 71
     2
 72
     2
 73
     1
 90
        0
 40
-0.6
 41
-30.0
 62
     5
 63
     7
 74
     1
 91
        4
 64
     7
 65
   257
 75
     1
175
     1
 42
1.0
 92
        8
 66
     7
 43
1.0
 76
     1
 77
     6
 78
     2
 67
     7
 79
     5
170
     0
171
     0
290
     0
174
     0
 93
        1
 44
50.0
173
     0
291
     1
 45
0.0
1001
ACAD
1000
AcDbSavedByObjectVersion
1070
     0
  0
VISUALSTYLE
  5
FF
102
{ACAD_XDICTIONARY
360
3479
102
}
102
{ACAD_REACTORS
330
EF
102
}
330
EF
100
AcDbVisualStyle
  2
ColorChange
 70
    16
 71
     2
 72
     2
 73
     3
 90
        0
 40
-0.6
 41
-30.0
 62
     5
 63
     8
 74
     1
 91
        4
 64
     7
 65
   257
 75
     1
175
     1
 42
1.0
 92
        8
 66
     8
 43
1.0
 76
     1
 77
     6
 78
     2
 67
     7
 79
     5
170
     0
171
     0
290
     0
174
     0
 93
        1
 44
0.0
173
     0
291
     1
 45
0.0
1001
ACAD
1000
AcDbSavedByObjectVersion
1070
     0
  0
VISUALSTYLE
  5
F8
102
{ACAD_XDICTIONARY
360
346B
102
}
102
{ACAD_REACTORS
330
EF
102
}
330
EF
100
AcDbVisualStyle
  2
Conceptual
 70
     9
 71
     3
 72
     2
 73
     1
 90
        0
 40
-0.6
 41
-30.0
 62
     5
 63
     7
 74
     2
 91
        2
 64
     7
 65
   257
 75
     1
175
     1
 42
40.0
 92
        8
 66
     7
 43
1.0
 76
     1
 77
     6
 78
     2
 67
     7
 79
     3
170
     0
171
     0
290
     0
174
     0
 93
        1
 44
0.0
173
     0
291
     0
 45
0.0
1001
ACAD
1000
AcDbSavedByObjectVersion
1070
     0
  0
VISUALSTYLE
  5
FA
102
{ACAD_XDICTIONARY
360
346F
102
}
102
{ACAD_REACTORS
330
EF
102
}
330
EF
100
AcDbVisualStyle
  2
Dim
 70
    11
 71
     2
 72
     2
 73
     1
 90
        0
 40
-0.6
 41
-30.0
 62
     5
 63
     7
 74
     1
 91
        4
 64
     7
 65
   257
 75
     1
175
     1
 42
1.0
 92
        8
 66
     7
 43
1.0
 76
     1
 77
     6
 78
     2
 67
     7
 79
     5
170
     0
171
     0
290
     0
174
     0
 93
        1
 44
-50.0
173
     0
291
     1
 45
0.0
1001
ACAD
1000
AcDbSavedByObjectVersion
1070
     0
  0
VISUALSTYLE
  5
1E6
102
{ACAD_XDICTIONARY
360
3481
102
}
102
{ACAD_REACTORS
330
EF
102
}
330
EF
100
AcDbVisualStyle
  2
EdgeColorOff
 70
    22
 71
     2
 72
     2
 73
     0
 90
        0
 40
-0.6
 41
-30.0
 62
     5
 63
     7
 74
     1
 91
        4
 64
     7
 65
   257
 75
     1
175
     1
 42
1.0
 92
        8
 66
     7
 43
1.0
 76
     1
 77
     6
 78
     2
 67
     7
 79
     5
170
     0
171
     0
290
     0
174
     0
 93
        1
 44
0.0
173
     0
291
     1
 45
0.0
1001
ACAD
1000
AcDbSavedByObjectVersion
1070
     0
  0
VISUALSTYLE
  5
FE
102
{ACAD_XDICTIONARY
360
3477
102
}
102
{ACAD_REACTORS
330
EF
102
}
330
EF
100
AcDbVisualStyle
  2
Facepattern
 70
    15
 71
     2
 72
     2
 73
     1
 90
        0
 40
-0.6
 41
-30.0
 62
     5
 63
     7
 74
     1
 91
        4
 64
     7
 65
   257
 75
     1
175
     1
 42
1.0
 92
        8
 66
     7
 43
1.0
 76
     1
 77
     6
 78
     2
 67
     7
 79
     5
170
     0
171
     0
290
     0
174
     0
 93
        1
 44
0.0
173
     0
291
     1
 45
0.0
1001
ACAD
1000
AcDbSavedByObjectVersion
1070
     0
  0
VISUALSTYLE
  5
F0
102
{ACAD_XDICTIONARY
360
345B
102
}
102
{ACAD_REACTORS
330
EF
102
}
330
EF
100
AcDbVisualStyle
  2
Flat
 70
     0
 71
     2
 72
     1
 73
     1
 90
        2
 40
-0.6
 41
30.0
 62
     5
 63
     7
 74
     0
 91
        0
 64
     7
 65
   257
 75
     1
175
     1
 42
1.0
 92
        8
 66
     7
 43
1.0
 76
     1
 77
     6
 78
     2
 67
     7
 79
     5
170
     0
171
     0
290
     0
174
     0
 93
       13
 44
0.0
173
     0
291
     1
 45
0.0
1001
ACAD
1000
AcDbSavedByObjectVersion
1070
     0
  0
VISUALSTYLE
  5
F1
102
{ACAD_XDICTIONARY
360
345D
102
}
102
{ACAD_REACTORS
330
EF
102
}
330
EF
100
AcDbVisualStyle
  2
FlatWithEdges
 70
     1
 71
     2
 72
     1
 73
     1
 90
        2
 40
-0.6
 41
30.0
 62
     5
 63
     7
 74
     1
 91
        0
 64
     7
 65
   257
 75
     1
175
     1
 42
1.0
 92
        0
 66
   257
 43
1.0
 76
     1
 77
     6
 78
     2
 67
     7
 79
     5
170
     0
171
     0
290
     0
174
     0
 93
       13
 44
0.0
173
     0
291
     1
 45
0.0
1001
ACAD
1000
AcDbSavedByObjectVersion
1070
     0
  0
VISUALSTYLE
  5
F2
102
{ACAD_XDICTIONARY
360
345F
102
}
102
{ACAD_REACTORS
330
EF
102
}
330
EF
100
AcDbVisualStyle
  2
Gouraud
 70
     2
 71
     2
 72
     2
 73
     1
 90
        2
 40
-0.6
 41
30.0
 62
     5
 63
     7
 74
     0
 91
        0
 64
     7
 65
   257
 75
     1
175
     1
 42
1.0
 92
        0
 66
     7
 43
1.0
 76
     1
 77
     6
 78
     2
 67
     7
 79
     5
170
     0
171
     0
290
     0
174
     0
 93
       13
 44
0.0
173
     0
291
     1
 45
0.0
1001
ACAD
1000
AcDbSavedByObjectVersion
1070
     0
  0
VISUALSTYLE
  5
F3
102
{ACAD_XDICTIONARY
360
3461
102
}
102
{ACAD_REACTORS
330
EF
102
}
330
EF
100
AcDbVisualStyle
  2
GouraudWithEdges
 70
     3
 71
     2
 72
     2
 73
     1
 90
        2
 40
-0.6
 41
30.0
 62
     5
 63
     7
 74
     1
 91
        0
 64
     7
 65
   257
 75
     1
175
     1
 42
1.0
 92
        0
 66
   257
 43
1.0
 76
     1
 77
     6
 78
     2
 67
     7
 79
     5
170
     0
171
     0
290
     0
174
     0
 93
       13
 44
0.0
173
     0
291
     1
 45
0.0
1001
ACAD
1000
AcDbSavedByObjectVersion
1070
     0
  0
VISUALSTYLE
  5
F7
102
{ACAD_XDICTIONARY
360
3469
102
}
102
{ACAD_REACTORS
330
EF
102
}
330
EF
100
AcDbVisualStyle
  2
Hidden
 70
     6
 71
     1
 72
     2
 73
     2
 90
        0
 40
-0.6
 41
-30.0
 62
     5
 63
     7
 74
     2
 91
        2
 64
     7
 65
   257
 75
     2
175
     1
 42
40.0
 92
        0
 66
   257
 43
1.0
 76
     1
 77
     6
 78
     2
 67
     7
 79
     3
170
     0
171
     0
290
     0
174
     0
 93
        1
 44
0.0
173
     0
291
     0
 45
0.0
1001
ACAD
1000
AcDbSavedByObjectVersion
1070
     0
  0
VISUALSTYLE
  5
1E4
102
{ACAD_XDICTIONARY
360
347D
102
}
102
{ACAD_REACTORS
330
EF
102
}
330
EF
100
AcDbVisualStyle
  2
JitterOff
 70
    20
 71
     2
 72
     2
 73
     0
 90
        0
 40
-0.6
 41
-30.0
 62
     5
 63
     7
 74
     1
 91
        4
 64
     7
 65
   257
 75
     1
175
     1
 42
1.0
 92
       10
 66
     7
 43
1.0
 76
     1
 77
     6
 78
     2
 67
     7
 79
     5
170
     0
171
     0
290
     0
174
     0
 93
        1
 44
0.0
173
     0
291
     1
 45
0.0
1001
ACAD
1000
AcDbSavedByObjectVersion
1070
     0
  0
VISUALSTYLE
  5
FD
102
{ACAD_XDICTIONARY
360
3475
102
}
102
{ACAD_REACTORS
330
EF
102
}
330
EF
100
AcDbVisualStyle
  2
Linepattern
 70
    14
 71
     2
 72
     2
 73
     1
 90
        0
 40
-0.6
 41
-30.0
 62
     5
 63
     7
 74
     1
 91
        4
 64
     7
 65
   257
 75
     7
175
     7
 42
1.0
 92
        8
 66
     7
 43
1.0
 76
     1
 77
     6
 78
     2
 67
     7
 79
     5
170
     0
171
     0
290
     0
174
     0
 93
        1
 44
0.0
173
     0
291
     1
 45
0.0
1001
ACAD
1000
AcDbSavedByObjectVersion
1070
     0
  0
VISUALSTYLE
  5
1E5
102
{ACAD_XDICTIONARY
360
347F
102
}
102
{ACAD_REACTORS
330
EF
102
}
330
EF
100
AcDbVisualStyle
  2
OverhangOff
 70
    21
 71
     2
 72
     2
 73
     0
 90
        0
 40
-0.6
 41
-30.0
 62
     5
 63
     7
 74
     1
 91
        4
 64
     7
 65
   257
 75
     1
175
     1
 42
1.0
 92
        9
 66
     7
 43
1.0
 76
     1
 77
     6
 78
     2
 67
     7
 79
     5
170
     0
171
     0
290
     0
174
     0
 93
        1
 44
0.0
173
     0
291
     1
 45
0.0
1001
ACAD
1000
AcDbSavedByObjectVersion
1070
     0
  0
VISUALSTYLE
  5
F9
102
{ACAD_XDICTIONARY
360
346D
102
}
102
{ACAD_REACTORS
330
EF
102
}
330
EF
100
AcDbVisualStyle
  2
Realistic
 70
     8
 71
     2
 72
     2
 73
     0
 90
        2
 40
-0.6
 41
30.0
 62
     5
 63
     7
 74
     0
 91
        0
 64
     7
 65
   257
 75
     1
175
     1
 42
1.0
 92
        8
 66
   257
 43
1.0
 76
     1
 77
     6
 78
     2
 67
     7
 79
     3
170
     0
171
     0
290
     0
174
     0
 93
       13
 44
0.0
173
     0
291
     0
 45
0.0
1001
ACAD
1000
AcDbSavedByObjectVersion
1070
     0
  0
VISUALSTYLE
  5
1F3
102
{ACAD_XDICTIONARY
360
348B
102
}
102
{ACAD_REACTORS
330
EF
102
}
330
EF
100
AcDbVisualStyle
  2
Shaded
 70
    27
 71
     2
 72
     2
 73
     1
 90
        2
 40
-0.6
 41
30.0
 62
     5
 63
     7
 74
     0
 91
        4
 64
     7
 65
   257
 75
     1
175
     1
 42
1.0
 92
        8
 66
   257
 43
1.0
 76
     1
 77
     6
 78
     2
 67
     8
 79
     3
170
     0
171
     0
290
     0
174
     0
 93
        5
 44
0.0
173
     0
291
     0
 45
0.0
1001
ACAD
1000
AcDbSavedByObjectVersion
1070
     0
  0
VISUALSTYLE
  5
1F2
102
{ACAD_XDICTIONARY
360
3489
102
}
102
{ACAD_REACTORS
330
EF
102
}
330
EF
100
AcDbVisualStyle
  2
Shaded with edges
 70
    26
 71
     2
 72
     2
 73
     1
 90
        2
 40
-0.6
 41
30.0
 62
     5
 63
     7
 74
     1
 91
        2
 64
     7
 65
   257
 75
     2
175
     1
 42
1.0
 92
        8
 66
   257
 43
1.0
 76
     1
 77
     6
 78
     2
 67
     7
 79
     3
170
     0
171
     0
290
     0
174
     0
 93
        5
 44
0.0
173
     0
291
     0
 45
0.0
1001
ACAD
1000
AcDbSavedByObjectVersion
1070
     0
  0
VISUALSTYLE
  5
1EF
102
{ACAD_XDICTIONARY
360
3483
102
}
102
{ACAD_REACTORS
330
EF
102
}
330
EF
100
AcDbVisualStyle
  2
Shades of Gray
 70
    23
 71
     2
 72
     2
 73
     3
 90
        0
 40
-0.6
 41
-30.0
 62
     5
 63
     7
 74
     2
 91
        2
 64
     7
 65
     7
 75
     1
175
     1
 42
40.0
 92
        8
 66
     7
 43
1.0
 76
     1
 77
     6
 78
     2
 67
     7
 79
     3
170
     0
171
     0
290
     0
174
     0
 93
        1
 44
0.0
173
     0
291
     0
 45
0.0
1001
ACAD
1000
AcDbSavedByObjectVersion
1070
     0
  0
VISUALSTYLE
  5
1F0
102
{ACAD_XDICTIONARY
360
3485
102
}
102
{ACAD_REACTORS
330
EF
102
}
330
EF
100
AcDbVisualStyle
  2
Sketchy
 70
    24
 71
     1
 72
     2
 73
     2
 90
        0
 40
-0.6
 41
-30.0
 62
     5
 63
     7
 74
     2
 91
        2
 64
     7
 65
     7
 75
     1
175
     1
 42
40.0
 92
       11
 66
     7
 43
1.0
 76
     1
 77
     6
 78
     2
 67
     7
 79
     6
170
     0
171
     0
290
     0
174
     0
 93
        1
 44
0.0
173
     0
291
     0
 45
0.0
1001
ACAD
1000
AcDbSavedByObjectVersion
1070
     0
  0
VISUALSTYLE
  5
FC
102
{ACAD_XDICTIONARY
360
3473
102
}
102
{ACAD_REACTORS
330
EF
102
}
330
EF
100
AcDbVisualStyle
  2
Thicken
 70
    13
 71
     2
 72
     2
 73
     1
 90
        0
 40
-0.6
 41
-30.0
 62
     5
 63
     7
 74
     1
 91
        4
 64
     7
 65
   257
 75
     1
175
     1
 42
1.0
 92
       12
 66
     7
 43
1.0
 76
     1
 77
     6
 78
     2
 67
     7
 79
     5
170
     0
171
     0
290
     0
174
     0
 93
        1
 44
0.0
173
     0
291
     1
 45
0.0
1001
ACAD
1000
AcDbSavedByObjectVersion
1070
     0
  0
VISUALSTYLE
  5
F6
102
{ACAD_XDICTIONARY
360
3467
102
}
102
{ACAD_REACTORS
330
EF
102
}
330
EF
100
AcDbVisualStyle
  2
Wireframe
 70
     5
 71
     0
 72
     2
 73
     0
 90
        0
 40
-0.6
 41
-30.0
 62
     5
 63
     7
 74
     1
 91
        4
 64
     7
 65
   257
 75
     1
175
     1
 42
1.0
 92
        0
 66
   257
 43
1.0
 76
     1
 77
     6
 78
     2
 67
     7
 79
     3
170
     0
171
     0
290
     0
174
     0
 93
        1
 44
0.0
173
     0
291
     0
 45
0.0
1001
ACAD
1000
AcDbSavedByObjectVersion
1070
     0
  0
VISUALSTYLE
  5
1F1
102
{ACAD_XDICTIONARY
360
3487
102
}
102
{ACAD_REACTORS
330
EF
102
}
330
EF
100
AcDbVisualStyle
  2
X-Ray
 70
    25
 71
     2
 72
     2
 73
     1
 90
        1
 40
0.5
 41
-30.0
 62
     5
 63
     7
 74
     1
 91
        0
 64
     7
 65
   257
 75
     1
175
     1
 42
1.0
 92
        8
 66
     7
 43
1.0
 76
     1
 77
     6
 78
     2
 67
     7
 79
     3
170
     0
171
     0
290
     0
174
     0
 93
       13
 44
0.0
173
     0
291
     0
 45
0.0
1001
ACAD
1000
AcDbSavedByObjectVersion
1070
     0
  0
DICTIONARYVAR
  5
146
102
{ACAD_REACTORS
330
5E
102
}
330
5E
100
DictionaryVariables
280
     0
  1
1:1
  0
DICTIONARYVAR
  5
259
102
{ACAD_REACTORS
330
5E
102
}
330
5E
100
DictionaryVariables
280
     0
  1
3.500000
  0
DICTIONARYVAR
  5
25A
102
{ACAD_REACTORS
330
5E
102
}
330
5E
100
DictionaryVariables
280
     0
  1
acadiso.lin
  0
DICTIONARYVAR
  5
145
102
{ACAD_REACTORS
330
5E
102
}
330
5E
100
DictionaryVariables
280
     0
  1
STANDARD
  0
DICTIONARYVAR
  5
84
102
{ACAD_REACTORS
330
5E
102
}
330
5E
100
DictionaryVariables
280
     0
  1
STANDARD
  0
DICTIONARYVAR
  5
227
102
{ACAD_REACTORS
330
5E
102
}
330
5E
100
DictionaryVariables
280
     0
  1
Metric50
  0
DICTIONARYVAR
  5
228
102
{ACAD_REACTORS
330
5E
102
}
330
5E
100
DictionaryVariables
280
     0
  1
Metric50
  0
DICTIONARYVAR
  5
5F
102
{ACAD_REACTORS
330
5E
102
}
330
5E
100
DictionaryVariables
280
     0
  1
2
  0
DICTIONARYVAR
  5
63
102
{ACAD_REACTORS
330
5E
102
}
330
5E
100
DictionaryVariables
280
     0
  1
1
  0
DICTIONARYVAR
  5
33FC
102
{ACAD_REACTORS
330
5E
102
}
330
5E
100
DictionaryVariables
280
     0
  1
0
  0
DICTIONARYVAR
  5
1AE
102
{ACAD_REACTORS
330
5E
102
}
330
5E
100
DictionaryVariables
280
     0
  1
0
  0
DICTIONARYVAR
  5
1AF
102
{ACAD_REACTORS
330
5E
102
}
330
5E
100
DictionaryVariables
280
     0
  1
0
  0
DICTIONARYVAR
  5
33FA
102
{ACAD_REACTORS
330
5E
102
}
330
5E
100
DictionaryVariables
280
     0
  1
2
  0
DICTIONARYVAR
  5
33F9
102
{ACAD_REACTORS
330
5E
102
}
330
5E
100
DictionaryVariables
280
     0
  1
1
  0
DICTIONARYVAR
  5
344C
102
{ACAD_REACTORS
330
5E
102
}
330
5E
100
DictionaryVariables
280
     0
  1
80.000000
  0
DICTIONARYVAR
  5
344B
102
{ACAD_REACTORS
330
5E
102
}
330
5E
100
DictionaryVariables
280
     0
  1
5.000000
  0
DICTIONARYVAR
  5
33FB
102
{ACAD_REACTORS
330
5E
102
}
330
5E
100
DictionaryVariables
280
     0
  1
127
  0
DICTIONARYVAR
  5
344D
102
{ACAD_REACTORS
330
5E
102
}
330
5E
100
DictionaryVariables
280
     0
  1
2
  0
DICTIONARY
  5
348F
330
21C
100
AcDbDictionary
280
     1
281
     1
  3
ACAD_XREC_ROUNDTRIP
360
3490
  0
DICTIONARY
  5
3454
330
D3
100
AcDbDictionary
280
     1
281
     1
  3
ACAD_XREC_ROUNDTRIP
360
3455
  0
DICTIONARY
  5
3456
330
D7
100
AcDbDictionary
280
     1
281
     1
  3
ACAD_XREC_ROUNDTRIP
360
3457
  0
DICTIONARY
  5
3451
330
22
100
AcDbDictionary
280
     1
281
     1
  3
ACAD_XREC_ROUNDTRIP
360
3452
  0
DICTIONARY
  5
1F9
330
ED
100
AcDbDictionary
280
     1
281
     1
  3
ACAD_XREC_ROUNDTRIP
360
3459
  3
FBXASSET
360
1FA
  0
DICTIONARY
  5
1F7
330
EC
100
AcDbDictionary
280
     1
281
     1
  3
ACAD_XREC_ROUNDTRIP
360
3458
  3
FBXASSET
360
1F8
  0
DICTIONARY
  5
173
330
EE
100
AcDbDictionary
280
     1
281
     1
  3
ACAD_XREC_ROUNDTRIP
360
345A
  3
BUMPTILE
360
175
  3
DIFFUSETILE
360
174
  3
FBXASSET
360
1FB
  3
OPACITYTILE
360
176
  3
REFLECTIONTILE
360
177
  0
DICTIONARY
  5
347B
330
12E
100
AcDbDictionary
280
     1
281
     1
  3
ACAD_XREC_ROUNDTRIP
360
347C
  0
DICTIONARY
  5
348D
330
21A
100
AcDbDictionary
280
     1
281
     1
  3
ACAD_XREC_ROUNDTRIP
360
348E
  0
DICTIONARY
  5
162
330
7F
100
AcDbDictionary
280
     1
281
     1
  3
ACAD_ROUNDTRIP_2008_TABLESTYLE_CELLSTYLEMAP
360
344E
  3
ACAD_XREC_ROUNDTRIP
360
3453
  0
DICTIONARY
  5
3465
330
F5
100
AcDbDictionary
280
     1
281
     1
  3
ACAD_XREC_ROUNDTRIP
360
3466
  0
DICTIONARY
  5
3463
330
F4
100
AcDbDictionary
280
     1
281
     1
  3
ACAD_XREC_ROUNDTRIP
360
3464
  0
DICTIONARY
  5
3471
330
FB
100
AcDbDictionary
280
     1
281
     1
  3
ACAD_XREC_ROUNDTRIP
360
3472
  0
DICTIONARY
  5
3479
330
FF
100
AcDbDictionary
280
     1
281
     1
  3
ACAD_XREC_ROUNDTRIP
360
347A
  0
DICTIONARY
  5
346B
330
F8
100
AcDbDictionary
280
     1
281
     1
  3
ACAD_XREC_ROUNDTRIP
360
346C
  0
DICTIONARY
  5
346F
330
FA
100
AcDbDictionary
280
     1
281
     1
  3
ACAD_XREC_ROUNDTRIP
360
3470
  0
DICTIONARY
  5
3481
330
1E6
100
AcDbDictionary
280
     1
281
     1
  3
ACAD_XREC_ROUNDTRIP
360
3482
  0
DICTIONARY
  5
3477
330
FE
100
AcDbDictionary
280
     1
281
     1
  3
ACAD_XREC_ROUNDTRIP
360
3478
  0
DICTIONARY
  5
345B
330
F0
100
AcDbDictionary
280
     1
281
     1
  3
ACAD_XREC_ROUNDTRIP
360
345C
  0
DICTIONARY
  5
345D
330
F1
100
AcDbDictionary
280
     1
281
     1
  3
ACAD_XREC_ROUNDTRIP
360
345E
  0
DICTIONARY
  5
345F
330
F2
100
AcDbDictionary
280
     1
281
     1
  3
ACAD_XREC_ROUNDTRIP
360
3460
  0
DICTIONARY
  5
3461
330
F3
100
AcDbDictionary
280
     1
281
     1
  3
ACAD_XREC_ROUNDTRIP
360
3462
  0
DICTIONARY
  5
3469
330
F7
100
AcDbDictionary
280
     1
281
     1
  3
ACAD_XREC_ROUNDTRIP
360
346A
  0
DICTIONARY
  5
347D
330
1E4
100
AcDbDictionary
280
     1
281
     1
  3
ACAD_XREC_ROUNDTRIP
360
347E
  0
DICTIONARY
  5
3475
330
FD
100
AcDbDictionary
280
     1
281
     1
  3
ACAD_XREC_ROUNDTRIP
360
3476
  0
DICTIONARY
  5
347F
330
1E5
100
AcDbDictionary
280
     1
281
     1
  3
ACAD_XREC_ROUNDTRIP
360
3480
  0
DICTIONARY
  5
346D
330
F9
100
AcDbDictionary
280
     1
281
     1
  3
ACAD_XREC_ROUNDTRIP
360
346E
  0
DICTIONARY
  5
348B
330
1F3
100
AcDbDictionary
280
     1
281
     1
  3
ACAD_XREC_ROUNDTRIP
360
348C
  0
DICTIONARY
  5
3489
330
1F2
100
AcDbDictionary
280
     1
281
     1
  3
ACAD_XREC_ROUNDTRIP
360
348A
  0
DICTIONARY
  5
3483
330
1EF
100
AcDbDictionary
280
     1
281
     1
  3
ACAD_XREC_ROUNDTRIP
360
3484
  0
DICTIONARY
  5
3485
330
1F0
100
AcDbDictionary
280
     1
281
     1
  3
ACAD_XREC_ROUNDTRIP
360
3486
  0
DICTIONARY
  5
3473
330
FC
100
AcDbDictionary
280
     1
281
     1
  3
ACAD_XREC_ROUNDTRIP
360
3474
  0
DICTIONARY
  5
3467
330
F6
100
AcDbDictionary
280
     1
281
     1
  3
ACAD_XREC_ROUNDTRIP
360
3468
  0
DICTIONARY
  5
3487
330
1F1
100
AcDbDictionary
280
     1
281
     1
  3
ACAD_XREC_ROUNDTRIP
360
3488
  0
XRECORD
  5
3490
102
{ACAD_REACTORS
330
348F
102
}
330
348F
100
AcDbXrecord
280
     1
102
DISPLAYNAME
  1
Metric50
102
FLAGS
 90
        0
  0
XRECORD
  5
3455
102
{ACAD_REACTORS
330
3454
102
}
330
3454
100
AcDbXrecord
280
     1
102
SHADEPLOT
 70
     0
102
SHADEPLOTRESLEVEL
 70
     2
102
SHADEPLOTCUSTOMDPI
 70
   300
  0
XRECORD
  5
3457
102
{ACAD_REACTORS
330
3456
102
}
330
3456
100
AcDbXrecord
280
     1
102
SHADEPLOT
 70
     0
102
SHADEPLOTRESLEVEL
 70
     2
102
SHADEPLOTCUSTOMDPI
 70
   300
  0
XRECORD
  5
3452
102
{ACAD_REACTORS
330
3451
102
}
330
3451
100
AcDbXrecord
280
     1
102
SHADEPLOT
 70
     0
102
SHADEPLOTRESLEVEL
 70
     2
102
SHADEPLOTCUSTOMDPI
 70
   300
  0
XRECORD
  5
3459
102
{ACAD_REACTORS
330
1F9
102
}
330
1F9
100
AcDbXrecord
280
     1
102
MATERIAL
148
0.0
149
0.0
149
0.0
 93
        0
 94
       63
282
     0
 72
     1
 77
     1
171
     1
175
     1
179
     1
273
     0
  0
XRECORD
  5
1FA
102
{ACAD_REACTORS
330
1F9
102
}
330
1F9
100
AcDbXrecord
280
     1
 70
     1
 90
429727718
  1
D62C5603-E3A1-4AEA-B7FB-FE5D8D0755AF
310
504B03040A0000080000CC70623B3DEE336E79000000790000001B0000006175746F6465736B2D64657369676E2D7061636B6167652E786D6C3C3F786D6C2076657273696F6E3D22312E302220656E636F64696E673D227574662D3822203F3E3C666F726D6174733E3C666F726D61743E687474703A2F2F736368656D612E
310
6175746F6465736B2E636F6D2F64657369676E2D7061636B6167652F323030393C2F666F726D61743E3C2F666F726D6174733E504B0304140006080800CC70623BD486FD9CA0000000F4000000130000005B436F6E74656E745F54797065735D2E786D6C7D8EC10E82300C865F65E91D8A1E8C310C0EEA1BF002731658846E
310
D98AC1B77784ABF1D8FE5FBFBF75BBCE937A534CCEB38643598122B6FEE978D0B0485F9C41B54DDD7D022595594E1A469170414C76A4D9A4D207E29CF43ECE46F218070CC6BECC4078ACAA135ACF422C856C0E68EA1BF5669944DDD7BCDE7B1F8E415D77AECB980613C2E4AC91FC167A2B244592486606FC29C8FD7F045B9A
310
EF7053A7E60B504B0304140006080800CC70623B853B8169EB0000007C01000008000000636F72652E786D6C8D90416EC3201045AF62CDB6C206821CC7C244919D9CA01740401C94182C03558F5F9C3852BBEB6A467FFE9B197D7EFC9E1EC5975982F5AE035262288C535E5B377690E21535501C055FBC8FBF6C503839990E
310
5619041F179FE64D52DE45E362569DD7661365082642A11EB9E920A89B99642953CC8E702F67A9EE7234257977194EC9EAE275C4EABCCF5EAD5940D4AC6F0E35A568B8F43562CD7046CD199FD07E60174276A7BE677B5EADB0E0D14EEFFB6A31321A0D82627C4084204C3F096B71DD52F6819B16635EADF63F509AF53FA164
310
5DDCD1EDDD17164090FCC8732078B56691CB33A85CD7DCC40F504B0304140006080800CC70623B55019EA25F0000007C00000007000000636E782E786D6C4DCB3B0E80201045D1AD90E915ED2CF8AC45050C11660C8261F98AB1B07AC9C97D42D718D865D3E909258CFD00CCE24AC6E326A164D74DC0B4128928FF32603847
310
2BA13128B1252AC747C6BAB984FC68F0B87FE8960A5C09FE86CFB69FBA01504B0304140006080800CC70623BDBABAAF470010000D40300000C0000006662782F636F72652E786D6CC553D16E823014FD95A6AF4B694182CC941A83FA05FB810A9511A125A5257EFE2E82712ECEB8A7F100CD39F7F69E734AF9FADC366850B6
310
AF8DCE7018308C942E4C59EB2AC3DE1D498AD15A706B8CFB56869196ADCAF00863C12B6B7C374385D14E6907A836A59A41D9F7CA615434B0C8705F7CAA5606D23BA8E84F41278B93AC54100640439DE0BDB320004D43C63716C7C399D30917DCFBBA9CD9BA8469F5B156168B24CED3F7248AC8769F27244EB73B92EED8862C
310
B7F13E0C179B3C8F979C8ECD82BBBABDAA2BAC924E9558448CBD9330242CFA08E3154B5651FCC6D215639C8EE5774DBE2B5F6CF2B5768B68963BB5F5588420E442FC700B1139D4CB01F450C1E918227C2E09DF070D8140C84E1E9AAB8F1340832A9CB13130A5F1376A908D57309505ECF2A0DF179C4E9D30F5B239B87E3823
310
7A79C6F31DE1A8A5AEC08474B03C7837EAE4938639B44E5932B833D2C6B6B279CDC613877FA26EE21F4A2A4C63EC7F29A2F301D1F9F7A0E37D145F504B0304140006080800CC70623B9C113CC27E0000009D0000000B0000006662782F636E782E786D6C4DCCDF0A83201C86E15B91DFB94BFB330DD428C8FB886521330DA7
310
6397BF1A1DECE883878F57749FCDA1B7892F1BBC047A23808C7F84D9FA55424E0BE6803A256208E9EF06C84F9B91703228B1C690F78B66B34CD9A5439DF5CF0BFBF65E35BCA1B8D6A5C6F540381E886698B5741C695F9503EBA150A2F8958E3DC3EA0B504B0304140006080800CC70623B7DF2F77C2A010000120200003100
310
00006662782F41393633353835312D344632462D344230382D423046372D3739314545314133324237412F636F72652E786D6C8D51DB8EC22014FC15C2939B0D2DB4B45643319AE817EC0F6041255A68B86CFCFC856D4D76DF7CE190393373060EDB3DC707F856CE6B6B7A480A0C81328395DA5C7B18C3057510EC3873D686
310
3F34088C18550F330C39BB3A1BA7051AAC09CA84841A2BD5020AEF55806078A44B0FFD7053A328440C89E1EFC52486BBB8AA8214A99D789CF9E05200300FC927E4FB4D5B375D43103D5527440FB843077C5AA3F5861C8F645F5787F59E95B390B318B55CE45AA638FAA2957BD7248B390B7A7CC51F9C124149C82B8C378810
310
84AB2F42B7B8DD56F413775B8C5999E9FF4471926F8AA236A1AE96B8B3CC434E5839373893369E1FAF30EA395917409EB7F26AF8801C171837A4A6AC9C89E9F9C9B1A58BA30FD6A5EF5DDDCF894B9AD9B6A59C957943A9FCAE2FD5BC4DFE03504B0304140006080800CC70623BAD7543B64E01000033030000300000006662
310
782F41393633353835312D344632462D344230382D423046372D3739314545314133324237412F636E782E786D6CD593CD6EC32010845F0571AD6CE3D48AD20813A9873E410FBD12D82434182C7EAAE6EDBB2424CD25871E7B41D6EC30B3FA84F9E67BB2E40B4234DE8DB46F1925E094D7C6ED479AD3AE5951B2113C789FEE
310
6C943839C1488B4C05DF079FE72A69D8C96C13AAD6B8631503449F83828872B949AC57D26200B826A308D316B4064D6E46FCDA41C05550DC9E483A00797BFD207EFB092A45DE9514C1BBD22178396BD39D891265658C238DEA00936C654E5E433CB65A26D9F6EDB5EBC14EBF49A45CB856E66048291F6939A9A81BB5C89177
310
38143CA680F4AA299D66A042CEB3354A2684DC9D8D178FE0D9B8B41CAAD720F880EE7EF93C0C18769E099ECC04D5A102C8049A8A05632F4DDF376CF1DE0F6BB65C2F8627B65A33C6BB62177CEBBDAD973006829F89F22E814B54F4BC2BE347F8AA8F681390B50FA73F804400B5F542E796F19FF974E7F78DB802FE05E20750
310
4B0304140006080800CC70623BE75B7789680500003C100000340000006662782F41393633353835312D344632462D344230382D423046372D3739314545314133324237412F6F626A656374732E786D6CAD575B8F9B3818FD2B887D06C22499CB8AA1CA655245D5B455A356FB305264C061D8018C6C3393D95FBFC7600890
310
A4CD5EF210B0B1BFEBF98E3F7B1FF6596ABC522E1296DF9BAE3D320D9A872C4AF2F8DE2CE5CEBA358D0FBEC719939D65A691938CDE9B6ADAF4BD98B3B2D05311DD91329583D9D5FC0F438434A7A611A644887B5384CF34233629258BA878B12322891DEFF6B66BD70BFB62634E8AE781D082709A4B588AF91C528CDA28B73F
310
1C998EEF39EABBEFA97FBD6A7C7E9553F9D3D79FE442923C3C523610337627CB87ABE99D359D4CC6D6E4FACAB5E6ABF9D2726FC6A3C5F56271377BB88362213924694B38DD99FE47C48627A1E7D49F5A8BB5E1A74C0A599ED3B0F21F1E56366B89112D681E218F0915D0D6F17AD41FBA2A369DCF6335D62ABBD39779D5DDD1
310
11D4D8DE3CBB96B2E04FB8202E41051754A1AA8E8F76B4C6DFE810B580B1547F4B84911149794252234D024EF8BBE963A95AE27B3D310A9D5C215C7960FAEE415ED75694C6AFB17BCACA5D99A60A9AA65F217B0BFC53292ACB92BF283FAD0D3621576592CB5BED907C2FA8E9DF794E35E97BEA31BED21FEB401ABB94C44839
310
DCACBF0E1C5DA8DA5B2F4DFFD32AD86F543D9E565E7056502E157C00AD2671CD534549AB752FCA9CDA00677A313F04E51B22FF19E57B300579E3C97EB29F682D92935CEC18CF901B7B54FD8C51F362B56FC72FE0B3C1EAE335EDCCBF5AEC39ADB17DC238973F804BA5E6F6BFE7AF1FB32E523BE9F3BD571418E3631DCA4D48
310
5250CF639223210A9446CA30052EDF057BD35F8329C1ECD84552BF0DC8D18BE7BCE23BFE6BD960AB4A7DE79923A103BEBD80F911CBAA2C60DB19B01CF164A5583B772EE6D3FFA56666CBCDA74DC97724A48F9A58967497E489C4D979006FD7A05E227A1EBDD0F737C623387A9C844D3709995625106D157315F8B8392CD4E0
310
A0B9A720C4BE9829CEF37EA1E13111214D53925356365ADA634861B52519DD27A00AEB808EAF0628E6F435519D446F45CF2C9CF5214F0A15B2F6D06B79DA3EE3CBF7F56780D2F4E7EF73A0F5E5B02A38D07DC852C6B7C1FBB6664213E0C39E3EBA7FF4E1AD23EA2829407C85E586727488B751B2DB9502BC7B228A3FD68B6E
310
A65A22397E690AA8D158D7E404EC8CDA235CC3B7D1898680131CEC2CDF2638C65196279577750F15884AEE19F94199155B92B13297978469D4F8D358DF0AEF7631E28DC8F0D9F437D5D39A83B2231A1D52D543813A824EF8D44BCFF2FA6A31BD1E8DAD87F1CCB526B3879935BF59CDADD5C37479BB1CDD4CA7B3556B516589
310
EF352754B706114D9C885EC9131DE6EFEB43D99AFE2391C2F958179413D7CFEF6B1B6DB1E7600F00DE6E5C67454A339A4BA2E0FBA85ED26F045D454F463DBFCE484C2F90F2E5E3666003662ED8F755951A7D1BECD5B30B550B2785C8E7320B7292A4838DDA71BBC863ED7613CAF659337A3354231D4FF4A182A54904C2898C
310
98B28C4AD0CE056CCF332A80986E571EE9DBC305BB5FEB7E509220A58D25CF042D712A806AC0AD0C657FDEF80D2D9CEAA2EE4D1C76F60BFE74219A06527D6F82DF6412526107381E55E353090704D085B52408A8913C4ED159D79BDA71BB4BC506F4831350EB6F975CD22D69BF7AC49B91A2C0A9DDA3D5CA36AD20FC478E37
310
E61844E2352865EBCB61A275A65283CAAA9DD27703B4102F5AF51EF5F573B75CBB5AD38BC845F7A49F82A0966A49C2E3EA5EA0ECD326CD965F1DB402C6FA8B51A4658C5C5E2EC9E214602E55810345408596591009A82E7E7FFACA19EEA299B14A0081A705CB3296EBC14CDF658DCD336EA6D1136881AAEB87B81AB9EE53D5
310
F5EB8BC8362082DA24122F98680A4E7930C01A0079749CEA14382A0783E5EBA5A10F8C098456A03D6A4AEB6BB881E2513747552A5DB22C7EDAF83BD5528081A365F7FF06504B0304140006080000CC70623B000000000000000000000000350000006662782F41393633353835312D344632462D344230382D423046372D37
310
39314545314133324237412F76657274696365732E62696E504B0304140006080800CC70623BF270F1330600000004000000360000006662782F41393633353835312D344632462D344230382D423046372D3739314545314133324237412F747269616E676C65732E62696E636660600000504B0304140006080000CC7062
310
3B000000000000000000000000370000006662782F41393633353835312D344632462D344230382D423046372D3739314545314133324237412F617474726962757465732E62696E504B0304140006080800CC70623B08DA0BD19000000041010000360000006662782F41393633353835312D344632462D344230382D4230
310
46372D3739314545314133324237412F6469726563746F72792E786D6C858F410AC3201045AF22B36F53E9A60B35CBEEBAE80D244E44489C6234F4F835464A48035D0DF398FF9F8AF63D0E6CC63039F212F8F9020C7D47C6792B21C5FE7403D62A1188E2E60C98D7234A5830286103A55745067B9D86B8A3CF9C7F90C11DE6
310
07FB144396D7B6A82D282E9A152AD114D5EF2CB866EEE831B8EEA07A7BB5A8D7D61A2BAAEB7FD5F70921FF497D00504B0304140006080800CC70623BEDD1DC58FD000000A00100003B0000006662782F41393633353835312D344632462D344230382D423046372D3739314545314133324237412F7265736F75726365732F
310
636F72652E786D6C8D504B6E833010BD0A9A6D65B00922041947112427E8052C33A156828DFCA97AFC9A40A576D7CDCCE87D344F8F9FBFE667F689CE6B6B3A6039850C8DB2A336530731DC4903D95970676DF82583CCC8193B5861107C72362E3BA4AC096842428D1D7107A5F7182053CF7474E0D507CE32973124857FE48B
310
540F3961CEF244279DE03EB81420DB9EAC1384436FA353E879B1B182C7A8C75DA3C7F453DF353A1075D537A7BA6464B8F535A99AE14A9A2BBD90E350DD183B5CFABE3AF262350B1EF4FC9351399401471025A527C218A1E53BAB5A5AB765F5469B96525EACF23FA6B88CFF34456DC2A1DCE36E360F82A5202F42F062ED2BAD
310
579969AFDD8A6F504B010214000A0000080000CC70623B3DEE336E79000000790000001B00000000000000000000000000000000006175746F6465736B2D64657369676E2D7061636B6167652E786D6C504B01021400140006080800CC70623BD486FD9CA0000000F40000001300000000000000000000000000B20000005B
310
436F6E74656E745F54797065735D2E786D6C504B01021400140006080800CC70623B853B8169EB0000007C010000080000000000000000000000000083010000636F72652E786D6C504B01021400140006080800CC70623B55019EA25F0000007C000000070000000000000000000000000094020000636E782E786D6C504B
310
01021400140006080800CC70623BDBABAAF470010000D40300000C00000000000000000000000000180300006662782F636F72652E786D6C504B01021400140006080800CC70623B9C113CC27E0000009D0000000B00000000000000000000000000B20400006662782F636E782E786D6C504B01021400140006080800CC70
310
623B7DF2F77C2A010000120200003100000000000000000000000000590500006662782F41393633353835312D344632462D344230382D423046372D3739314545314133324237412F636F72652E786D6C504B01021400140006080800CC70623BAD7543B64E010000330300003000000000000000000000000000D2060000
310
6662782F41393633353835312D344632462D344230382D423046372D3739314545314133324237412F636E782E786D6C504B01021400140006080800CC70623BE75B7789680500003C10000034000000000000000000000000006E0800006662782F41393633353835312D344632462D344230382D423046372D3739314545
310
314133324237412F6F626A656374732E786D6C504B01021400140006080000CC70623B0000000000000000000000003500000000000000000000000000280E00006662782F41393633353835312D344632462D344230382D423046372D3739314545314133324237412F76657274696365732E62696E504B01021400140006
310
080800CC70623BF270F133060000000400000036000000000000000000000000007B0E00006662782F41393633353835312D344632462D344230382D423046372D3739314545314133324237412F747269616E676C65732E62696E504B01021400140006080000CC70623B0000000000000000000000003700000000000000
310
000000000000D50E00006662782F41393633353835312D344632462D344230382D423046372D3739314545314133324237412F617474726962757465732E62696E504B01021400140006080800CC70623B08DA0BD1900000004101000036000000000000000000000000002A0F00006662782F41393633353835312D344632
310
462D344230382D423046372D3739314545314133324237412F6469726563746F72792E786D6C504B01021400140006080800CC70623BEDD1DC58FD000000A00100003B000000000000000000000000000E1000006662782F41393633353835312D344632462D344230382D423046372D3739314545314133324237412F7265
310
736F75726365732F636F72652E786D6C504B0506000000000E000E0080040000641100000000
  0
XRECORD
  5
3458
102
{ACAD_REACTORS
330
1F7
102
}
330
1F7
100
AcDbXrecord
280
     1
102
MATERIAL
148
0.0
149
0.0
149
0.0
 93
        0
 94
       63
282
     0
 72
     1
 77
     1
171
     1
175
     1
179
     1
273
     0
  0
XRECORD
  5
1F8
102
{ACAD_REACTORS
330
1F7
102
}
330
1F7
100
AcDbXrecord
280
     1
 70
     1
 90
429727718
  1
30362254-06B7-45E0-A893-8CFA70E3D6BC
310
504B03040A0000080000CC70623B3DEE336E79000000790000001B0000006175746F6465736B2D64657369676E2D7061636B6167652E786D6C3C3F786D6C2076657273696F6E3D22312E302220656E636F64696E673D227574662D3822203F3E3C666F726D6174733E3C666F726D61743E687474703A2F2F736368656D612E
310
6175746F6465736B2E636F6D2F64657369676E2D7061636B6167652F323030393C2F666F726D61743E3C2F666F726D6174733E504B0304140006080800CC70623BD486FD9CA0000000F4000000130000005B436F6E74656E745F54797065735D2E786D6C7D8EC10E82300C865F65E91D8A1E8C310C0EEA1BF002731658846E
310
D98AC1B77784ABF1D8FE5FBFBF75BBCE937A534CCEB38643598122B6FEE978D0B0485F9C41B54DDD7D022595594E1A469170414C76A4D9A4D207E29CF43ECE46F218070CC6BECC4078ACAA135ACF422C856C0E68EA1BF5669944DDD7BCDE7B1F8E415D77AECB980613C2E4AC91FC167A2B244592486606FC29C8FD7F045B9A
310
EF7053A7E60B504B0304140006080800CC70623B1EC5D7A3EB0000007C01000008000000636F72652E786D6C8D90416EC3201045AF82665B6103C6756C6122AB4D4ED00B204C5C94182C03558F5F9C3852BBEB6A467FFE9B197D71FC9E6FE8CBACC17AD7032D0820E3B41FAD9B7A48F1820F808E52ACDEC75F36404ECDA687
310
4D0629A6D5A76597B477D1B89855E747B38B2A041301E95B6E7A08FAD3CCAA50296647B8168BD2573599823EBB0CA76447F43862C7BCCF5EAC59410E4DDD9C7973C2755553CCCFA4C603E3040F1565ED3B1FDE4E432BCA0D9622DAF9795FAF464533826484B498524CD807E51D79ED187F21878E10516EF63F505AC67F42C9
310
BA58B1FDDD071640D2FCC87D2045B96591CB3DA85CB7DCE40F504B0304140006080800CC70623B55019EA25F0000007C00000007000000636E782E786D6C4DCB3B0E80201045D1AD90E915ED2CF8AC45050C11660C8261F98AB1B07AC9C97D42D718D865D3E909258CFD00CCE24AC6E326A164D74DC0B4128928FF32603847
310
2BA13128B1252AC747C6BAB984FC68F0B87FE8960A5C09FE86CFB69FBA01504B0304140006080800CC70623B8C9102E971010000D40300000C0000006662782F636F72652E786D6CC5535B6E833010BC8AE5DF0A6C08340F1947A84D4ED00B38C6A128602363A31CBFCB234A53A551FA553EC09AD9F5CE8C31DB9E9B1AF5CA
310
7695D1198E428A91D2D214952E33ECDD315861B4E5CC1AE3BE9561A445A3323CC098B3D21ADFCE9034DA29ED00D5A6503328BA4E398C640D8B0C77F253352214DE4145770A5B214FA2546114020D759C75CE8200340D19DE981F0F6746269C33EFAB6266AB02A655C74A59CCF365BADC27CB5D902ED22848F6340DF238A141
310
BE88E2F57B92BFEDF23523433367AE6A2EEAA455C2A902F398D2751045018D3FA264435F3771F242571B4A1919CA6F9A7C5B3CD9E42BED16F12C776AEB308F40C848FC700B1139D4891EF410CEC810227CC6846F8386402064270EF5C5C709A05E49676C024C61FC95EA45ED154CA5211D1FF4FB8291A913A68E9B83EBBB33
310
E2A7673CDE118E5AE8124C0807CB8377834E366998436B950D7A7746DAD846D4CFD978E0F04FD455FC5D49D2D4C6FE9722321F10997F0F32DC47FE05504B0304140006080800CC70623BFFEA85907E0000009D0000000B0000006662782F636E782E786D6C4DCCD10A83201886E15B91FFDC95D95A811AB6F23E625948A6C3
310
E9D8E5AF46073BFAE0E1E365ED67B3E8ADC3CB78C7815C7240DA3DFC64DCC221C519D7805AC182F7F1EF06C88D9BE6703008B6049F9E274D7A1E938DBB5AE3D6131B2589BA0D3D965551E0B2EA732C9B9A624AAEB41E3A557677029960D9AFB4EF11165F504B0304140006080800CC70623B4FEEA4082C0100001202000031
310
0000006662782F39464131463745442D413632322D343644302D413938332D3331353338454246344243312F636F72652E786D6C8D515B6EC32010BC0AE2AB55850DD871ED0813254D72825EC00192A2C460F1A872FC42ED48ED5F7E00CDCECCCEB26C731F6FE05B39AFADE921293004CA082BB5B9F43086336A21D870E6AC
310
0D7F68109861543DCC30E4ECE26C9C164858139409093556AA051CBC570102714B8F1E7AF1A5C6A11862480C7F2DA6415C878B2A4891CA89C7990F2E050073937C42DE1DB7E4F87ED8A36D4329AA9B3D46DBAEAD504556557BD81DEBDD0761E52CE42C462D17B996298E3E6BE59E35C962CE821E1FF18553435012728A7187
310
0841987E927A8D9B35ADDF70BBC6989599FE4F1427F9A4286A132ABAC49D651EF234CD5CE04CDA78BA3DC2A8FB645D00B9DF8B57E215725C60BCA2A463E54C4CE327C7A65E1C7DB02E7DEFCBF594B864C5CA6CDBD49C957943E9FA5D5FBAF336F90F504B0304140006080800CC70623BAD7543B64E01000033030000300000
310
006662782F39464131463745442D413632322D343644302D413938332D3331353338454246344243312F636E782E786D6CD593CD6EC32010845F0571AD6CE3D48AD20813A9873E410FBD12D82434182C7EAAE6EDBB2424CD25871E7B41D6EC30B3FA84F9E67BB2E40B4234DE8DB46F1925E094D7C6ED479AD3AE5951B2113C
310
789FEE6C943839C1488B4C05DF079FE72A69D8C96C13AAD6B8631503449F83828872B949AC57D26200B826A308D316B4064D6E46FCDA41C05550DC9E483A00797BFD207EFB092A45DE9514C1BBD22178396BD39D891265658C238DEA00936C654E5E433CB65A26D9F6EDB5EBC14EBF49A45CB856E66048291F6939A9A81BB5
310
C8917738143CA680F4AA299D66A042CEB3354A2684DC9D8D178FE0D9B8B41CAAD720F880EE7EF93C0C18769E099ECC04D5A102C8049A8A05632F4DDF376CF1DE0F6BB65C2F8627B65A33C6BB62177CEBBDAD973006829F89F22E814B54F4BC2BE347F8AA8F681390B50FA73F804400B5F542E796F19FF974E7F78DB802FE05
310
E207504B0304140006080800CC70623B16AB87BA640500003C100000340000006662782F39464131463745442D413632322D343644302D413938332D3331353338454246344243312F6F626A656374732E786D6CAD575B6FA33818FD2B887DE6924B3BED8A326A92B68A663B534DD4D13E548A0C38942D60649B369D5FBFC7
310
600890A493BDE42160637FD7F31D7FF63E6FB3D478A55C242CBF3247B66B1A340F5994E4F19559CA8D75611A9F7D8F33263BCB4C232719BD32D5B4E97B316765A1A722BA21652A07B3B7B33F0D11D29C9A46981221AE4C113ED38CD8A4942CA2E2C58E882476BCD9DA23BB5ED8171B73523C0F841684D35CC252CCE79062D4
310
468DFA43D7747CCF51DF7D4FFDEB5593E3AB9CCA9FBEFE241792E4E19EB28198C968BAB8199F5D5A67D3E9C49A9E8F47D6EC76B6B0469F26EEFC7C3EBFBCBEB98462213924694B38DD98FE1D62C393D073EA4FADC5DAF04326852CCF6958F90F0F2B9BB5C48816348F90C7840A68EB78EDF68723159BCEE7891A6B95DDE9D3
310
BCEAEEE8086A6C6F9E5D4B59F0175C10A7A0820BAA5055C7473B5AE3CFDD452D602CD5DF12616444529E90D448938013FE6EFA58AA96F85E4F8C42275708571E98FE6827AF6B2B4AE3D7D83D64E5A64C53054DD3AF90BD06FEA9149565C94FCA0F6B834DC85599E4F2423B24DF0B6AFA979E534DFA9E7A4CC6FA631D486393
310
921829879BF5D781A373557BCB85E97FB90DB62B558F8795179C15944B051F40AB495CF35451D26A4727654E6D8033BD98EF82F21D91FF8AF2DD9982BCF1643BDD4EB516C9492E368C67C88DED563FC36D5EACF66DFF057C3658BDBFA69DF9578B3DA735B64F18C7F20770A9D45CFCF7FCF563D6456A277DBEF78A02637CA2
310
43B90A490AEAB94F72244481D24819A6C0E59B606BFA4B3025981DBB48EAB701D97BF19C577CC77F2D1B6C55A9EF3C732474C0B727303F625995056C3B02963D9EAC146BE78EC5FCEC7FA999EBC5EACBAAE41B12D27B4D2C0BBA49F244E2ECDC81B76B502F113D8F5EE8FB1BE3111CDD4FC2AA9B844CAB1288B68AB90A7CDC
310
1C166AB0D3DC5310625FCC14E779BFD0709F8890A629C9292B1B2DED31A4B0DA928CEE135085754027E3018A397D4D5427D15BD1330B677DC8934285AC3DF45A9EB68FF8F2B8FC0A509AFEECFD0FF2DE25CC6047F7214B195F07EFEB9A094D800F7BFAE8FED187B78EA8A3A400F115961BCAD1215E47C966530AF0EE8128FE
310
58CEBB996A8964FFA529A046635D9353B0336A8F700DDF46271A024E70B0B37C9DE01847591E54DED53D54202AB947E4076556AC49C6CA5C9E1226B7F1A7B1BE15DEED62C41B91E1B3E9AFAAA735036547343A925075041DF0A9979E893B391F8FCFA6967B3EFB644DCF6E5CEBFAE272625DCC6FAF3FB93793C5F90CE1EF57
310
407342756B10D1C489E8953CD1617E5CEECAD6F4EF8914CE5D5D504E5C3F1F9736DA62CFC11E00BCDDB8CC8A9466349744C1F75EBDA4DF09BA8A9E8C7A7E9991989E20E5DBDD6A6003664ED8F7A04A8DBE0DF6EAD9B9AA858342E47399053949D2C146EDB85DE4B176BB0965FBAC19BD19AA918E27FA50C1D22402E144464C
310
59462568E704B6E71915404CB72B8FF4EDE184DDAF753F284990D2C6926782963815403548A70C657FDEF80D2D9CEAA2AE4C1C76F60BFE74219A06527D6582DF6412526107381E55E353090704D085B52408D0933C4ED159D79BDA71BB4BC506F4831350EB6F979CD22D69BF7AC49B91A2C0A9DDA3D5CA36AD20FC478E37E6
310
1844E2352865EBCB6EA275A652E3836BE04EFB400BF1A2556F515F1FBB35B2AB35BD889C744FFA1004B5544B121E57F70215746DD2F5E2C1412B602CBF19455AC6C8E5E9922C4E01E65215385004546899059180EAFCF7A707CE7017CD8CDB0410789AB32C63B91E5CEBBBACB17AC6CD347A022D5075FD106377347AAABA7E
310
7D11590744509B44E205134DC1290F06580320F78E537D3D73540E06CB970B431F185308AD40BBD794D6D77003C5A36E8EAA54BA64597CD8F83BD552A080A365F7FF06504B0304140006080000CC70623B000000000000000000000000350000006662782F39464131463745442D413632322D343644302D413938332D3331
310
353338454246344243312F76657274696365732E62696E504B0304140006080800CC70623BF270F1330600000004000000360000006662782F39464131463745442D413632322D343644302D413938332D3331353338454246344243312F747269616E676C65732E62696E636660600000504B0304140006080000CC70623B
310
000000000000000000000000370000006662782F39464131463745442D413632322D343644302D413938332D3331353338454246344243312F617474726962757465732E62696E504B0304140006080800CC70623B08DA0BD19000000041010000360000006662782F39464131463745442D413632322D343644302D413938
310
332D3331353338454246344243312F6469726563746F72792E786D6C858F410AC3201045AF22B36F53E9A60B35CBEEBAE80D244E44489C6234F4F835464A48035D0DF398FF9F8AF63D0E6CC63039F212F8F9020C7D47C6792B21C5FE7403D62A1188E2E60C98D7234A5830286103A55745067B9D86B8A3CF9C7F90C11DE607
310
FB144396D7B6A82D282E9A152AD114D5EF2CB866EEE831B8EEA07A7BB5A8D7D61A2BAAEB7FD5F70921FF497D00504B0304140006080800CC70623B0D6EF93BFE000000A00100003B0000006662782F39464131463745442D413632322D343644302D413938332D3331353338454246344243312F7265736F75726365732F63
310
6F72652E786D6C8D50596E833010BD0A9ADFCA60B334011947A8694ED00B586642AC041B79A97AFC9A40A5F6AF3F33A3B7689E1E3F7DCD8FEC139DD7D6F4C0720A191A65476DA61E62B892236427C19DB5E1970C322367EC618541F0C9D9B8EC90B226A009093576C41D94DE63804C3DD2D18357379C652E63480A7FCF17A9
310
EE72C29CE5894E3AC17D702940B63D59270887DE46A7D0F36263058F518FBB468FE9A7BE6A7420864373B8D4873369AA8691FA421B3294352543C5CAF65C0F6FEF43CB8BD52C78D0F34F46E550061C419494B6843142CB0F5677F4B52BEB177AEC28E5C52AFF638ACBF84F53D42654E51E77B379102C05791282176B5F693D
310
CB4C7BED567C03504B010214000A0000080000CC70623B3DEE336E79000000790000001B00000000000000000000000000000000006175746F6465736B2D64657369676E2D7061636B6167652E786D6C504B01021400140006080800CC70623BD486FD9CA0000000F40000001300000000000000000000000000B20000005B
310
436F6E74656E745F54797065735D2E786D6C504B01021400140006080800CC70623B1EC5D7A3EB0000007C010000080000000000000000000000000083010000636F72652E786D6C504B01021400140006080800CC70623B55019EA25F0000007C000000070000000000000000000000000094020000636E782E786D6C504B
310
01021400140006080800CC70623B8C9102E971010000D40300000C00000000000000000000000000180300006662782F636F72652E786D6C504B01021400140006080800CC70623BFFEA85907E0000009D0000000B00000000000000000000000000B30400006662782F636E782E786D6C504B01021400140006080800CC70
310
623B4FEEA4082C0100001202000031000000000000000000000000005A0500006662782F39464131463745442D413632322D343644302D413938332D3331353338454246344243312F636F72652E786D6C504B01021400140006080800CC70623BAD7543B64E010000330300003000000000000000000000000000D5060000
310
6662782F39464131463745442D413632322D343644302D413938332D3331353338454246344243312F636E782E786D6C504B01021400140006080800CC70623B16AB87BA640500003C1000003400000000000000000000000000710800006662782F39464131463745442D413632322D343644302D413938332D3331353338
310
454246344243312F6F626A656374732E786D6C504B01021400140006080000CC70623B0000000000000000000000003500000000000000000000000000270E00006662782F39464131463745442D413632322D343644302D413938332D3331353338454246344243312F76657274696365732E62696E504B01021400140006
310
080800CC70623BF270F133060000000400000036000000000000000000000000007A0E00006662782F39464131463745442D413632322D343644302D413938332D3331353338454246344243312F747269616E676C65732E62696E504B01021400140006080000CC70623B0000000000000000000000003700000000000000
310
000000000000D40E00006662782F39464131463745442D413632322D343644302D413938332D3331353338454246344243312F617474726962757465732E62696E504B01021400140006080800CC70623B08DA0BD190000000410100003600000000000000000000000000290F00006662782F39464131463745442D413632
310
322D343644302D413938332D3331353338454246344243312F6469726563746F72792E786D6C504B01021400140006080800CC70623B0D6EF93BFE000000A00100003B000000000000000000000000000D1000006662782F39464131463745442D413632322D343644302D413938332D3331353338454246344243312F7265
310
736F75726365732F636F72652E786D6C504B0506000000000E000E0080040000641100000000
  0
XRECORD
  5
345A
102
{ACAD_REACTORS
330
173
102
}
330
173
100
AcDbXrecord
280
     1
102
MATERIAL
148
0.0
149
0.0
149
0.0
 93
        0
 94
       63
282
     0
 72
     1
 77
     1
171
     1
175
     1
179
     1
273
     0
  0
XRECORD
  5
175
102
{ACAD_REACTORS
330
173
102
}
330
173
100
AcDbXrecord
280
     1
270
     1
271
     1
  0
XRECORD
  5
174
102
{ACAD_REACTORS
330
173
102
}
330
173
100
AcDbXrecord
280
     1
270
     1
271
     1
  0
XRECORD
  5
1FB
102
{ACAD_REACTORS
330
173
102
}
330
173
100
AcDbXrecord
280
     1
 70
     0
 90
1673772943
  1
ECE7A1D2-D628-4531-984C-D00F80459256
310
504B03040A0000080000CC70623B3DEE336E79000000790000001B0000006175746F6465736B2D64657369676E2D7061636B6167652E786D6C3C3F786D6C2076657273696F6E3D22312E302220656E636F64696E673D227574662D3822203F3E3C666F726D6174733E3C666F726D61743E687474703A2F2F736368656D612E
310
6175746F6465736B2E636F6D2F64657369676E2D7061636B6167652F323030393C2F666F726D61743E3C2F666F726D6174733E504B0304140006080800CC70623BD486FD9CA0000000F4000000130000005B436F6E74656E745F54797065735D2E786D6C7D8EC10E82300C865F65E91D8A1E8C310C0EEA1BF002731658846E
310
D98AC1B77784ABF1D8FE5FBFBF75BBCE937A534CCEB38643598122B6FEE978D0B0485F9C41B54DDD7D022595594E1A469170414C76A4D9A4D207E29CF43ECE46F218070CC6BECC4078ACAA135ACF422C856C0E68EA1BF5669944DDD7BCDE7B1F8E415D77AECB980613C2E4AC91FC167A2B244592486606FC29C8FD7F045B9A
310
EF7053A7E60B504B0304140006080800CC70623BD9DDAED0EC0000007C01000008000000636F72652E786D6C8D90416EC3201045AF82665B61836D9CD8C2444DD39CA01740405C94182C03558F5F9C3852BBEB6A467FFE9B197D7EF89E6EE8CB2CC17A37002D0820E394D7D68D03A478C17B4007C117EFE32F1B20272733C0
310
2A83E0E3E2D3BC49CABB685CCCAAF3DA6CA20CC14440EA969B0182FA34932C648AD911AEC52CD5558EA6A0CF2EC329598D1E47ACCEFBECC59A050463A7EA5833865FEBDD0E37353BE3EE8DBDE3F6786A48D375FBF6CC78B9C282473B3DEFABC5C86834888A900E538A49F5419B9EB47DD5BC907D4F082F57FB1F28CDFA9F50
310
B22ED6D5F6EE030B20687EE43E10BC5CB3C8E51E54AE6B6EE207504B0304140006080800CC70623B55019EA25F0000007C00000007000000636E782E786D6C4DCB3B0E80201045D1AD90E915ED2CF8AC45050C11660C8261F98AB1B07AC9C97D42D718D865D3E909258CFD00CCE24AC6E326A164D74DC0B4128928FF326038
310
472BA13128B1252AC747C6BAB984FC68F0B87FE8960A5C09FE86CFB69FBA01504B0304140006080800CC70623BA24EB22D72010000D40300000C0000006662782F636F72652E786D6CC5535B6E833010BC8AE5DF0A6C5E49888CA3A6694ED00B38E05014B091B1518EDFE511A5A9D228FD2A1F60CDEC7A67C6986DCE4D8D7A
310
69BA4AAB0C073EC548AA5C17952A33ECECD15B61B4E1CC686DBF9561A44423333CC098B3D268D7CE50AE9595CA02AA74216750749DB418E5352C32DCE59FB211BE70162ABA93DF8AFC244AE9073ED050C759670D0840D390E18DF9F1706664C23973AE2A66B62A605A75ACA4C13C4976E1364A12EF355A2EBD384AF65EFA96
310
BC7B8BED2EA6719AAE16FB8491A199335B351775B991C2CA02F390D2D40B028F861F41BCA68B7518BFD0D59A524686F29B26D7164F36B94AD9289CE54E6D1DE6010819891F6E21228B3AD1831EC219194284CF98F06DD01008846CC5A1BEF83801D4CBDC6A1303536877A57A513B0953A94FC707FDBE6064EA84A9E3E6E0FA
310
EE8CF0E9198F7784A316AA0413C2C2F2E0ECA0934D1AE6D05A69BCDE9E91D2A611F573361E38FC1375157F5752AE6B6DFE4B11990F88CCBF0719EE23FF02504B0304140006080800CC70623B408A7D3B7C0000009D0000000B0000006662782F636E782E786D6C4DCCD10A83201886E15B91FFDC552A92A0064DBC8F581632
310
D3703A76F9ABD1C18E3E78F878E5F0D9027ABBFCF2292AE86E2D20171F69F6715550CB827B40839639A5F2770314A7CD293819B45C73AAFB45B35BA61ACAA1C1C7E7855C58C15BC331339661262CC762340413D68D77DA5B42298546CBE6573AF60CEB2F504B0304140006080800CC70623B449FB9BD290100001202000031
310
0000006662782F36394639363044362D344446342D343946362D394244322D3234314243333846323333332F636F72652E786D6C8D515B6EC32010BC0AE22B55850D98B871848994463E412FE002495162B07854397EA176A4F62F3F2C9A9D991D587EB84F37F0AD7D30CEF6905418026DA553C65E7A98E219ED203808EE9D
310
8B7F6810D871D23D2C3014FCE25D9A57483A1BB58D19B54EE9151C43D0110279CB971E06F9A5A7B11A53CC8C70ADE6515EC78BAE4895DB992778883E0700CB907242D17643D7E2538BD869608875438BBAE38922CAC8F1BDD90DB4691A5E2F42C153326A951B95E398B3D1FE599322163C9AE9115F7A3D46ADA0A018778810
310
84E907617BDCEE297BC5BB3DC6BC2EF47FA234AB2745C9D8D8D035EE220B50105E2F0DC1954B9FB747187D9F9D8FA0CCDB042D5FA0C015C65B42DF78BD10F3F3B363CB56C7109DCFDFBBB97E662ED92EB62D13BC2E1BCAE5777DB9966D8A1F504B0304140006080800CC70623BAD7543B64E01000033030000300000006662
310
782F36394639363044362D344446342D343946362D394244322D3234314243333846323333332F636E782E786D6CD593CD6EC32010845F0571AD6CE3D48AD20813A9873E410FBD12D82434182C7EAAE6EDBB2424CD25871E7B41D6EC30B3FA84F9E67BB2E40B4234DE8DB46F1925E094D7C6ED479AD3AE5951B2113C789FEE
310
6C943839C1488B4C05DF079FE72A69D8C96C13AAD6B8631503449F83828872B949AC57D26200B826A308D316B4064D6E46FCDA41C05550DC9E483A00797BFD207EFB092A45DE9514C1BBD22178396BD39D891265658C238DEA00936C654E5E433CB65A26D9F6EDB5EBC14EBF49A45CB856E66048291F6939A9A81BB5C89177
310
38143CA680F4AA299D66A042CEB3354A2684DC9D8D178FE0D9B8B41CAAD720F880EE7EF93C0C18769E099ECC04D5A102C8049A8A05632F4DDF376CF1DE0F6BB65C2F8627B65A33C6BB62177CEBBDAD973006829F89F22E814B54F4BC2BE347F8AA8F681390B50FA73F804400B5F542E796F19FF974E7F78DB802FE05E20750
310
4B0304140006080800CC70623B8D05915C650500003B100000340000006662782F36394639363044362D344446342D343946362D394244322D3234314243333846323333332F6F626A656374732E786D6CAD575B6FA33814FE2B887D06429276DA1565D4266D158D3A339A6846FB502932E050B66023DB74D2FDF5FB190C01
310
9276B2973C046C8ECFF53B17071F77456EBD502133CEAE6CDF9DD81665314F32965ED995DA3A17B6F5310C04E7AA47665B8C14F4CAD6DB7618A48257A5D94AE89654B91AEDDEDDFC61C998326A5B714EA4BCB265FC440BE2924AF184CA6737218AB8E976E7FA6E4338649B0A523E8D98964450A6A029F619B8588D52FE7039
310
B1BD30F0F4F730D0FF866AF6369557DB33949F31A9088B0F848DD8CCFCF9F2767A76E99CCDE733677E3EF59D9BBB9BA5E37F984D16E78BC5E5F5ED25044B25C0C96822E8D60EEFE11B91C581D77CEA34368A1F5329E68CD1B8B61F16D63A1B8E092D294B10C78C4A48EB593D192E7DED9BDEE7995E1B91FDEDD3ACEA9FE831
310
6A756F9F7D4D79F4274C90A7A04248AA51D5F8C718DAE06FB2F75AC4796EBE65D22A88A22223B995679120E2D50E41AA49C260C046A35368846B0BECD0DFF3EBEB8AD4F835768F69B9ADF25C43D30E6B646F807FAA64AD59F61715C7A54127C4AACA98BA3006A9D792DAE165E0D59B61A01FB3A9F9D838D2DAE62445C86166
310
F37564E842E7DE6A69879FEEA2DD5AE7E371E1A5E025154AC307D06A03D73EB5978C58FFA4C8E9033066E0F3BD53BEC1F39F91BE7B55103791EDE6BBB991A2046172CB4581D8B893FA674DDA17A77B3B7C413D1B511FD2743BFF8A38F03A658705E3ADF8015C3A3417FF3D7E439FF591DA0B5F18BC20C1B8981957AE6392A3
310
F43C640C01D1A0B4728E2DD4F26DB4B3C3152A252A3B4E913CEC1C72F012782FF88EFF8637AA552DBEF76408E8A8DE9E50F9E1CB3A2DA0DB1B6039A893B56063DC5B3E3FFB5F72E67AB9FEB4AEC496C4F4C1149625DD662C53E89D7BF0F6151A046260D1337DFDC94502430F83B0EE07A130A224BCAD7DAE1D9FB6CD422FF6
310
920702629C4BB9AE79C12F243C6432A6794E18E5552BA56B431AAB5D91317302B2B071E86C3A42B1A02F999E24061403B5D0EB639195DA655DD3EBEAB4FB862DDF579F014AD0E73C22F99E28DA57FB98E75C6CA2D74D53086D600F4786E0FE3144B771A8A7B900F03594DB8A633CBC49B2EDB69228BB479CF863B5E807AAAB
310
23872F6DFEB4129B949CA33823F58830E86D65621E10047D9DB34D862E8EAC3C2ABC2F7B2C40D67CDFE01F5545B92105AF983AC54D93D69E56FB8E797F88913F898A9FEC705D3F9D1B54EC8426FB500D40A03BD0119B06E1B95DDC7EB8F6975367793EBD70E66733DFB9BC982F9CE564727731999F5D4ECFCE3B8D6A4DC2A0
310
6D50FD148437D110834A64C6CDDF57FBACB5C307A2A477DFE4939736CFEF2B175371E0E10CF0DD1D5C15654E0BCA14D1E87DD02FF93782A162C0A3D95F1524A52770F972BF1EE9809D13CE7DD599467F8ECE9ADD85CE85A34CD45355448C64F9E8A031DC2D596ACC6E5DD93D9B82DE2EF5CAF81363A8E47996A0DE24564A79
310
4115AACE09C55E14540231FDA13C319787134EBF34E3A022514E5B4D9E0826E25C02D5805B15ABE1BEF51B26383D445DD9E875EE33FE4C22DA16427D65A3BCA92CA6D28DD01DF5DC53330704308475351050232CCD31583787BA75774AFB06E5070DD0C8EF484E19968C5D83BA5B90B244D31E54D55A372320FE4786B7EA58
310
44E135AA5467CB7EA333A61683CC6A8C3257034C10CF46F40EF9F5BE59BE5BD30C3C72D235E95D10345C1D45445A5F0BB47E46A5EBE5570F9380B5FA629579952296A773720405982B9DE04011506178964401AA8BDF1FBF0A8EAB6861DD6580C0E38217056766716DAEB2D6FA0917D3E4116581EADB879C4E7CFFB11EFACD
310
3D641311495D92C8676CB409A72D18610D803CE8A626049E8EC1887CB5B44CC39883690DDA8399B4B9855B481E7D71D4A9D22F96E5BB73BF5793020C02137BF837504B0304140006080000CC70623B000000000000000000000000350000006662782F36394639363044362D344446342D343946362D394244322D32343142
310
43333846323333332F76657274696365732E62696E504B0304140006080800CC70623BF270F1330600000004000000360000006662782F36394639363044362D344446342D343946362D394244322D3234314243333846323333332F747269616E676C65732E62696E636660600000504B0304140006080000CC70623B0000
310
00000000000000000000370000006662782F36394639363044362D344446342D343946362D394244322D3234314243333846323333332F617474726962757465732E62696E504B0304140006080800CC70623B08DA0BD19000000041010000360000006662782F36394639363044362D344446342D343946362D394244322D
310
3234314243333846323333332F6469726563746F72792E786D6C858F410AC3201045AF22B36F53E9A60B35CBEEBAE80D244E44489C6234F4F835464A48035D0DF398FF9F8AF63D0E6CC63039F212F8F9020C7D47C6792B21C5FE7403D62A1188E2E60C98D7234A5830286103A55745067B9D86B8A3CF9C7F90C11DE607FB14
310
4396D7B6A82D282E9A152AD114D5EF2CB866EEE831B8EEA07A7BB5A8D7D61A2BAAEB7FD5F70921FF497D00504B0304140006080800CC70623BCA768048FE000000A00100003B0000006662782F36394639363044362D344446342D343946362D394244322D3234314243333846323333332F7265736F75726365732F636F72
310
652E786D6C8D50596E833010BD0A9ADFCA60D600328E9AA639412F609909B1126CE4A5EAF16B0295DABFFECC8CDEA2797AECF8353F924FB44E193D409E5248504B332A3D0D10FC95B4901C39B3C6F85F3248B49871801506CE266BC2B243D2688FDA47549B11775038871E12F988C7004EDE7016A9083E2ADC3D5D84BC8B09
310
D33C8D74D471E6BC8D0192EDC93A815B742658898E651BCB59086ADC356A8C3FD555A1055ED7E7E254D615792D0F075295F585746FF53B694EE78A565DD736979A65AB9933AFE69F8CD2A2F038022F28ED489E135A7CE4554F9BBEA85E68DB53CAB255FEC71496F19FA6A0B42F8B3DEE6673C0F318E4497096AD7DC5F52C33
310
EEB55BFE0D504B010214000A0000080000CC70623B3DEE336E79000000790000001B00000000000000000000000000000000006175746F6465736B2D64657369676E2D7061636B6167652E786D6C504B01021400140006080800CC70623BD486FD9CA0000000F40000001300000000000000000000000000B20000005B436F
310
6E74656E745F54797065735D2E786D6C504B01021400140006080800CC70623BD9DDAED0EC0000007C010000080000000000000000000000000083010000636F72652E786D6C504B01021400140006080800CC70623B55019EA25F0000007C000000070000000000000000000000000095020000636E782E786D6C504B0102
310
1400140006080800CC70623BA24EB22D72010000D40300000C00000000000000000000000000190300006662782F636F72652E786D6C504B01021400140006080800CC70623B408A7D3B7C0000009D0000000B00000000000000000000000000B50400006662782F636E782E786D6C504B01021400140006080800CC70623B
310
449FB9BD290100001202000031000000000000000000000000005A0500006662782F36394639363044362D344446342D343946362D394244322D3234314243333846323333332F636F72652E786D6C504B01021400140006080800CC70623BAD7543B64E010000330300003000000000000000000000000000D20600006662
310
782F36394639363044362D344446342D343946362D394244322D3234314243333846323333332F636E782E786D6C504B01021400140006080800CC70623B8D05915C650500003B10000034000000000000000000000000006E0800006662782F36394639363044362D344446342D343946362D394244322D32343142433338
310
46323333332F6F626A656374732E786D6C504B01021400140006080000CC70623B0000000000000000000000003500000000000000000000000000250E00006662782F36394639363044362D344446342D343946362D394244322D3234314243333846323333332F76657274696365732E62696E504B010214001400060808
310
00CC70623BF270F13306000000040000003600000000000000000000000000780E00006662782F36394639363044362D344446342D343946362D394244322D3234314243333846323333332F747269616E676C65732E62696E504B01021400140006080000CC70623B00000000000000000000000037000000000000000000
310
00000000D20E00006662782F36394639363044362D344446342D343946362D394244322D3234314243333846323333332F617474726962757465732E62696E504B01021400140006080800CC70623B08DA0BD190000000410100003600000000000000000000000000270F00006662782F36394639363044362D344446342D
310
343946362D394244322D3234314243333846323333332F6469726563746F72792E786D6C504B01021400140006080800CC70623BCA768048FE000000A00100003B000000000000000000000000000B1000006662782F36394639363044362D344446342D343946362D394244322D3234314243333846323333332F7265736F
310
75726365732F636F72652E786D6C504B0506000000000E000E0080040000621100000000
  0
XRECORD
  5
176
102
{ACAD_REACTORS
330
173
102
}
330
173
100
AcDbXrecord
280
     1
270
     1
271
     1
  0
XRECORD
  5
177
102
{ACAD_REACTORS
330
173
102
}
330
173
100
AcDbXrecord
280
     1
270
     1
271
     1
  0
XRECORD
  5
347C
102
{ACAD_REACTORS
330
347B
102
}
330
347B
100
AcDbXrecord
280
     1
102
ACAD_ROUNDTRIP_2012_MLEADER_STYLE
298
     1
  0
XRECORD
  5
348E
102
{ACAD_REACTORS
330
348D
102
}
330
348D
100
AcDbXrecord
280
     1
102
DISPLAYNAME
  1
Metric50
102
FLAGS
 90
        0
  0
CELLSTYLEMAP
  5
344E
102
{ACAD_REACTORS
330
162
102
}
330
162
100
AcDbCellStyleMap
 90
        3
300
CELLSTYLE
  1
TABLEFORMAT_BEGIN
 90
        5
170
     1
 91
        0
 92
    32768
 62
   257
 93
        1
300
CONTENTFORMAT
  1
CONTENTFORMAT_BEGIN
 90
        0
 91
        0
 92
      512
 93
        0
300

 40
0.0
140
1.0
 94
        5
 62
     0
340
11
144
6.0
309
CONTENTFORMAT_END
171
     1
301
MARGIN
  1
CELLMARGIN_BEGIN
 40
1.5
 40
1.5
 40
1.5
 40
1.5
 40
4.5
 40
4.5
309
CELLMARGIN_END
 94
        6
 95
        1
302
GRIDFORMAT
  1
GRIDFORMAT_BEGIN
 90
        0
 91
        1
 62
     0
 92
       -2
340
14
 93
        0
 40
1.125
309
GRIDFORMAT_END
 95
        2
302
GRIDFORMAT
  1
GRIDFORMAT_BEGIN
 90
        0
 91
        1
 62
     0
 92
       -2
340
14
 93
        0
 40
1.125
309
GRIDFORMAT_END
 95
        4
302
GRIDFORMAT
  1
GRIDFORMAT_BEGIN
 90
        0
 91
        1
 62
     0
 92
       -2
340
14
 93
        0
 40
1.125
309
GRIDFORMAT_END
 95
        8
302
GRIDFORMAT
  1
GRIDFORMAT_BEGIN
 90
        0
 91
        1
 62
     0
 92
       -2
340
14
 93
        0
 40
1.125
309
GRIDFORMAT_END
 95
       16
302
GRIDFORMAT
  1
GRIDFORMAT_BEGIN
 90
        0
 91
        1
 62
     0
 92
       -2
340
14
 93
        0
 40
1.125
309
GRIDFORMAT_END
 95
       32
302
GRIDFORMAT
  1
GRIDFORMAT_BEGIN
 90
        0
 91
        1
 62
     0
 92
       -2
340
14
 93
        0
 40
1.125
309
GRIDFORMAT_END
309
TABLEFORMAT_END
  1
CELLSTYLE_BEGIN
 90
        1
 91
        1
300
_TITLE
309
CELLSTYLE_END
300
CELLSTYLE
  1
TABLEFORMAT_BEGIN
 90
        5
170
     1
 91
        0
 92
        0
 62
   257
 93
        1
300
CONTENTFORMAT
  1
CONTENTFORMAT_BEGIN
 90
        0
 91
        0
 92
      512
 93
        0
300

 40
0.0
140
1.0
 94
        5
 62
     0
340
11
144
4.5
309
CONTENTFORMAT_END
171
     1
301
MARGIN
  1
CELLMARGIN_BEGIN
 40
1.5
 40
1.5
 40
1.5
 40
1.5
 40
4.5
 40
4.5
309
CELLMARGIN_END
 94
        6
 95
        1
302
GRIDFORMAT
  1
GRIDFORMAT_BEGIN
 90
        0
 91
        1
 62
     0
 92
       -2
340
14
 93
        0
 40
1.125
309
GRIDFORMAT_END
 95
        2
302
GRIDFORMAT
  1
GRIDFORMAT_BEGIN
 90
        0
 91
        1
 62
     0
 92
       -2
340
14
 93
        0
 40
1.125
309
GRIDFORMAT_END
 95
        4
302
GRIDFORMAT
  1
GRIDFORMAT_BEGIN
 90
        0
 91
        1
 62
     0
 92
       -2
340
14
 93
        0
 40
1.125
309
GRIDFORMAT_END
 95
        8
302
GRIDFORMAT
  1
GRIDFORMAT_BEGIN
 90
        0
 91
        1
 62
     0
 92
       -2
340
14
 93
        0
 40
1.125
309
GRIDFORMAT_END
 95
       16
302
GRIDFORMAT
  1
GRIDFORMAT_BEGIN
 90
        0
 91
        1
 62
     0
 92
       -2
340
14
 93
        0
 40
1.125
309
GRIDFORMAT_END
 95
       32
302
GRIDFORMAT
  1
GRIDFORMAT_BEGIN
 90
        0
 91
        1
 62
     0
 92
       -2
340
14
 93
        0
 40
1.125
309
GRIDFORMAT_END
309
TABLEFORMAT_END
  1
CELLSTYLE_BEGIN
 90
        2
 91
        1
300
_HEADER
309
CELLSTYLE_END
300
CELLSTYLE
  1
TABLEFORMAT_BEGIN
 90
        5
170
     1
 91
        0
 92
        0
 62
   257
 93
        1
300
CONTENTFORMAT
  1
CONTENTFORMAT_BEGIN
 90
        0
 91
        0
 92
      512
 93
        0
300

 40
0.0
140
1.0
 94
        2
 62
     0
340
11
144
4.5
309
CONTENTFORMAT_END
171
     1
301
MARGIN
  1
CELLMARGIN_BEGIN
 40
1.5
 40
1.5
 40
1.5
 40
1.5
 40
4.5
 40
4.5
309
CELLMARGIN_END
 94
        6
 95
        1
302
GRIDFORMAT
  1
GRIDFORMAT_BEGIN
 90
        0
 91
        1
 62
     0
 92
       -2
340
14
 93
        0
 40
1.125
309
GRIDFORMAT_END
 95
        2
302
GRIDFORMAT
  1
GRIDFORMAT_BEGIN
 90
        0
 91
        1
 62
     0
 92
       -2
340
14
 93
        0
 40
1.125
309
GRIDFORMAT_END
 95
        4
302
GRIDFORMAT
  1
GRIDFORMAT_BEGIN
 90
        0
 91
        1
 62
     0
 92
       -2
340
14
 93
        0
 40
1.125
309
GRIDFORMAT_END
 95
        8
302
GRIDFORMAT
  1
GRIDFORMAT_BEGIN
 90
        0
 91
        1
 62
     0
 92
       -2
340
14
 93
        0
 40
1.125
309
GRIDFORMAT_END
 95
       16
302
GRIDFORMAT
  1
GRIDFORMAT_BEGIN
 90
        0
 91
        1
 62
     0
 92
       -2
340
14
 93
        0
 40
1.125
309
GRIDFORMAT_END
 95
       32
302
GRIDFORMAT
  1
GRIDFORMAT_BEGIN
 90
        0
 91
        1
 62
     0
 92
       -2
340
14
 93
        0
 40
1.125
309
GRIDFORMAT_END
309
TABLEFORMAT_END
  1
CELLSTYLE_BEGIN
 90
        3
 91
        2
300
_DATA
309
CELLSTYLE_END
  0
XRECORD
  5
3453
102
{ACAD_REACTORS
330
162
102
}
330
162
100
AcDbXrecord
280
     1
102
ACAD_ROUNDTRIP_PRE2007_TABLESTYLE
 90
      512
 91
        0
  1

 92
      512
 93
        0
  2

 94
      512
 95
        0
  3

  0
XRECORD
  5
3466
102
{ACAD_REACTORS
330
3465
102
}
330
3465
100
AcDbXrecord
280
     1
102
RTVSPost2010Prop28
280
     1
102
RTVSPost2010PropOp28
 70
     1
102
RTVSPost2010Prop29
280
     1
102
RTVSPost2010PropOp29
 70
     1
102
RTVSPost2010Prop30
280
     0
102
RTVSPost2010PropOp30
 70
     1
102
RTVSPost2010Prop31
280
     0
102
RTVSPost2010PropOp31
 70
     1
102
RTVSPost2010Prop32
280
     0
102
RTVSPost2010PropOp32
 70
     1
102
RTVSPost2010Prop33
280
     0
102
RTVSPost2010PropOp33
 70
     1
102
RTVSPost2010Prop34
280
     0
102
RTVSPost2010PropOp34
 70
     1
102
RTVSPost2010Prop35
280
     0
102
RTVSPost2010PropOp35
 70
     1
102
RTVSPost2010Prop36
280
     0
102
RTVSPost2010PropOp36
 70
     1
102
RTVSPost2010Prop37
 90
       50
102
RTVSPost2010PropOp37
 70
     1
102
RTVSPost2010Prop38
140
0.0
102
RTVSPost2010PropOp38
 70
     1
102
RTVSPost2010Prop39
140
1.0
102
RTVSPost2010PropOp39
 70
     1
102
RTVSPost2010Prop40
 90
        0
102
RTVSPost2010PropOp40
 70
     1
102
RTVSPost2010Prop41ColorIndex
 90
       18
102
RTVSPost2010Prop41ColorRGB
 90
        0
102
RTVSPost2010PropOp41
 70
     1
102
RTVSPost2010Prop42
 90
       50
102
RTVSPost2010PropOp42
 70
     1
102
RTVSPost2010Prop43
 90
        3
102
RTVSPost2010PropOp43
 70
     1
102
RTVSPost2010Prop44ColorIndex
 90
        5
102
RTVSPost2010Prop44ColorRGB
 90
      255
102
RTVSPost2010PropOp44
 70
     1
102
RTVSPost2010Prop45
280
     0
102
RTVSPost2010PropOp45
 70
     1
102
RTVSPost2010Prop46
 90
       50
102
RTVSPost2010PropOp46
 70
     1
102
RTVSPost2010Prop47
 90
       50
102
RTVSPost2010PropOp47
 70
     1
102
RTVSPost2010Prop48
 90
       50
102
RTVSPost2010PropOp48
 70
     1
102
RTVSPost2010Prop49
280
     0
102
RTVSPost2010PropOp49
 70
     1
102
RTVSPost2010Prop50
 90
       50
102
RTVSPost2010PropOp50
 70
     1
102
RTVSPost2010Prop51ColorIndex
 90
      256
102
RTVSPost2010Prop51ColorRGB
 90
-16777216
102
RTVSPost2010PropOp51
 70
     0
102
RTVSPost2010Prop52
140
1.0
102
RTVSPost2010PropOp52
 70
     0
102
RTVSPost2010Prop53
 90
        2
102
RTVSPost2010PropOp53
 70
     1
102
RTVSPost2010Prop54
  1
strokes_ogs.tif
102
RTVSPost2010PropOp54
 70
     1
102
RTVSPost2010Prop55
280
     0
102
RTVSPost2010PropOp55
 70
     1
102
RTVSPost2010Prop56
140
1.0
102
RTVSPost2010PropOp56
 70
     1
102
RTVSPost2010Prop57
140
1.0
102
RTVSPost2010PropOp57
 70
     1
102
RTVSPropertyOp0
 70
     1
102
RTVSPropertyOp1
 70
     1
102
RTVSPropertyOp2
 70
     1
102
RTVSPropertyOp3
 70
     1
102
RTVSPropertyOp4
 70
     1
102
RTVSPropertyOp5
 70
     1
102
RTVSPropertyOp6
 70
     1
102
RTVSPropertyOp7
 70
     1
102
RTVSPropertyOp8
 70
     1
102
RTVSPropertyOp9
 70
     1
102
RTVSPropertyOp10
 70
     1
102
RTVSPropertyOp11
 70
     1
102
RTVSPropertyOp12
 70
     1
102
RTVSPropertyOp13
 70
     1
102
RTVSPropertyOp14
 70
     1
102
RTVSPropertyOp15
 70
     1
102
RTVSPropertyOp16
 70
     1
102
RTVSPropertyOp17
 70
     1
102
RTVSPropertyOp18
 70
     1
102
RTVSPropertyOp19
 70
     1
102
RTVSPropertyOp20
 70
     1
102
RTVSPropertyOp21
 70
     1
102
RTVSPropertyOp22
 70
     1
102
RTVSPropertyOp23
 70
     1
102
RTVSPropertyOp24
 70
     1
102
RTVSPropertyOp25
 70
     1
102
RTVSPropertyOp26
 70
     1
102
RTVSPropertyOp27
 70
     1
102
RTVSPropertyOp28
 70
     1
102
RTVSPropertyOp29
 70
     1
102
RTVSPropertyOp30
 70
     1
102
RTVSPropertyOp31
 70
     1
102
RTVSPropertyOp32
 70
     1
102
RTVSPropertyOp33
 70
     1
102
RTVSPropertyOp34
 70
     1
102
RTVSPropertyOp35
 70
     1
102
RTVSPropertyOp36
 70
     1
102
RTVSPropertyOp37
 70
     1
102
RTVSPropertyOp38
 70
     1
102
RTVSPropertyOp39
 70
     1
102
RTVSPropertyOp40
 70
     1
102
RTVSPropertyOp41
 70
     1
102
RTVSPropertyOp42
 70
     1
102
RTVSPropertyOp43
 70
     1
102
RTVSPropertyOp44
 70
     1
102
RTVSPropertyOp45
 70
     1
102
RTVSPropertyOp46
 70
     1
102
RTVSPropertyOp47
 70
     1
102
RTVSPropertyOp48
 70
     1
102
RTVSPropertyOp49
 70
     1
102
RTVSPropertyOp50
 70
     1
102
RTVSPropertyOp51
 70
     0
102
RTVSPropertyOp52
 70
     0
102
RTVSPropertyOp53
 70
     1
102
RTVSPropertyOp54
 70
     1
102
RTVSPropertyOp55
 70
     1
102
RTVSPropertyOp56
 70
     1
102
RTVSPropertyOp57
 70
     1
102
RTVSPropertyOp58
 70
     1
102
RTVSPropertyOp59
 70
     1
102
RTVSPropertyOp60
 70
     1
102
RTVSPropertyOp61
 70
     1
102
RTVSPropertyOp62
 70
     1
  0
XRECORD
  5
3464
102
{ACAD_REACTORS
330
3463
102
}
330
3463
100
AcDbXrecord
280
     1
102
RTVSPost2010Prop28
280
     0
102
RTVSPost2010PropOp28
 70
     1
102
RTVSPost2010Prop29
280
     1
102
RTVSPost2010PropOp29
 70
     1
102
RTVSPost2010Prop30
280
     1
102
RTVSPost2010PropOp30
 70
     1
102
RTVSPost2010Prop31
280
     0
102
RTVSPost2010PropOp31
 70
     1
102
RTVSPost2010Prop32
280
     0
102
RTVSPost2010PropOp32
 70
     1
102
RTVSPost2010Prop33
280
     0
102
RTVSPost2010PropOp33
 70
     1
102
RTVSPost2010Prop34
280
     0
102
RTVSPost2010PropOp34
 70
     1
102
RTVSPost2010Prop35
280
     0
102
RTVSPost2010PropOp35
 70
     1
102
RTVSPost2010Prop36
280
     0
102
RTVSPost2010PropOp36
 70
     1
102
RTVSPost2010Prop37
 90
       50
102
RTVSPost2010PropOp37
 70
     1
102
RTVSPost2010Prop38
140
0.0
102
RTVSPost2010PropOp38
 70
     1
102
RTVSPost2010Prop39
140
1.0
102
RTVSPost2010PropOp39
 70
     1
102
RTVSPost2010Prop40
 90
        0
102
RTVSPost2010PropOp40
 70
     1
102
RTVSPost2010Prop41ColorIndex
 90
       18
102
RTVSPost2010Prop41ColorRGB
 90
        0
102
RTVSPost2010PropOp41
 70
     1
102
RTVSPost2010Prop42
 90
       50
102
RTVSPost2010PropOp42
 70
     1
102
RTVSPost2010Prop43
 90
        3
102
RTVSPost2010PropOp43
 70
     1
102
RTVSPost2010Prop44ColorIndex
 90
        5
102
RTVSPost2010Prop44ColorRGB
 90
      255
102
RTVSPost2010PropOp44
 70
     1
102
RTVSPost2010Prop45
280
     0
102
RTVSPost2010PropOp45
 70
     1
102
RTVSPost2010Prop46
 90
       50
102
RTVSPost2010PropOp46
 70
     1
102
RTVSPost2010Prop47
 90
       50
102
RTVSPost2010PropOp47
 70
     1
102
RTVSPost2010Prop48
 90
       50
102
RTVSPost2010PropOp48
 70
     1
102
RTVSPost2010Prop49
280
     0
102
RTVSPost2010PropOp49
 70
     1
102
RTVSPost2010Prop50
 90
       50
102
RTVSPost2010PropOp50
 70
     1
102
RTVSPost2010Prop51ColorIndex
 90
      256
102
RTVSPost2010Prop51ColorRGB
 90
-16777216
102
RTVSPost2010PropOp51
 70
     0
102
RTVSPost2010Prop52
140
1.0
102
RTVSPost2010PropOp52
 70
     0
102
RTVSPost2010Prop53
 90
        2
102
RTVSPost2010PropOp53
 70
     1
102
RTVSPost2010Prop54
  1
strokes_ogs.tif
102
RTVSPost2010PropOp54
 70
     1
102
RTVSPost2010Prop55
280
     0
102
RTVSPost2010PropOp55
 70
     1
102
RTVSPost2010Prop56
140
1.0
102
RTVSPost2010PropOp56
 70
     1
102
RTVSPost2010Prop57
140
1.0
102
RTVSPost2010PropOp57
 70
     1
102
RTVSPropertyOp0
 70
     1
102
RTVSPropertyOp1
 70
     1
102
RTVSPropertyOp2
 70
     1
102
RTVSPropertyOp3
 70
     1
102
RTVSPropertyOp4
 70
     1
102
RTVSPropertyOp5
 70
     1
102
RTVSPropertyOp6
 70
     1
102
RTVSPropertyOp7
 70
     1
102
RTVSPropertyOp8
 70
     1
102
RTVSPropertyOp9
 70
     1
102
RTVSPropertyOp10
 70
     1
102
RTVSPropertyOp11
 70
     1
102
RTVSPropertyOp12
 70
     1
102
RTVSPropertyOp13
 70
     1
102
RTVSPropertyOp14
 70
     1
102
RTVSPropertyOp15
 70
     1
102
RTVSPropertyOp16
 70
     1
102
RTVSPropertyOp17
 70
     1
102
RTVSPropertyOp18
 70
     1
102
RTVSPropertyOp19
 70
     1
102
RTVSPropertyOp20
 70
     1
102
RTVSPropertyOp21
 70
     1
102
RTVSPropertyOp22
 70
     1
102
RTVSPropertyOp23
 70
     1
102
RTVSPropertyOp24
 70
     1
102
RTVSPropertyOp25
 70
     1
102
RTVSPropertyOp26
 70
     1
102
RTVSPropertyOp27
 70
     1
102
RTVSPropertyOp28
 70
     1
102
RTVSPropertyOp29
 70
     1
102
RTVSPropertyOp30
 70
     1
102
RTVSPropertyOp31
 70
     1
102
RTVSPropertyOp32
 70
     1
102
RTVSPropertyOp33
 70
     1
102
RTVSPropertyOp34
 70
     1
102
RTVSPropertyOp35
 70
     1
102
RTVSPropertyOp36
 70
     1
102
RTVSPropertyOp37
 70
     1
102
RTVSPropertyOp38
 70
     1
102
RTVSPropertyOp39
 70
     1
102
RTVSPropertyOp40
 70
     1
102
RTVSPropertyOp41
 70
     1
102
RTVSPropertyOp42
 70
     1
102
RTVSPropertyOp43
 70
     1
102
RTVSPropertyOp44
 70
     1
102
RTVSPropertyOp45
 70
     1
102
RTVSPropertyOp46
 70
     1
102
RTVSPropertyOp47
 70
     1
102
RTVSPropertyOp48
 70
     1
102
RTVSPropertyOp49
 70
     1
102
RTVSPropertyOp50
 70
     1
102
RTVSPropertyOp51
 70
     0
102
RTVSPropertyOp52
 70
     0
102
RTVSPropertyOp53
 70
     1
102
RTVSPropertyOp54
 70
     1
102
RTVSPropertyOp55
 70
     1
102
RTVSPropertyOp56
 70
     1
102
RTVSPropertyOp57
 70
     1
102
RTVSPropertyOp58
 70
     1
102
RTVSPropertyOp59
 70
     1
102
RTVSPropertyOp60
 70
     1
102
RTVSPropertyOp61
 70
     1
102
RTVSPropertyOp62
 70
     1
  0
XRECORD
  5
3472
102
{ACAD_REACTORS
330
3471
102
}
330
3471
100
AcDbXrecord
280
     1
102
RTVSPost2010Prop28
280
     0
102
RTVSPost2010PropOp28
 70
     1
102
RTVSPost2010Prop29
280
     1
102
RTVSPost2010PropOp29
 70
     1
102
RTVSPost2010Prop30
280
     1
102
RTVSPost2010PropOp30
 70
     1
102
RTVSPost2010Prop31
280
     0
102
RTVSPost2010PropOp31
 70
     1
102
RTVSPost2010Prop32
280
     0
102
RTVSPost2010PropOp32
 70
     1
102
RTVSPost2010Prop33
280
     0
102
RTVSPost2010PropOp33
 70
     1
102
RTVSPost2010Prop34
280
     0
102
RTVSPost2010PropOp34
 70
     1
102
RTVSPost2010Prop35
280
     0
102
RTVSPost2010PropOp35
 70
     1
102
RTVSPost2010Prop36
280
     0
102
RTVSPost2010PropOp36
 70
     1
102
RTVSPost2010Prop37
 90
       50
102
RTVSPost2010PropOp37
 70
     1
102
RTVSPost2010Prop38
140
0.0
102
RTVSPost2010PropOp38
 70
     1
102
RTVSPost2010Prop39
140
1.0
102
RTVSPost2010PropOp39
 70
     1
102
RTVSPost2010Prop40
 90
        0
102
RTVSPost2010PropOp40
 70
     1
102
RTVSPost2010Prop41ColorIndex
 90
       18
102
RTVSPost2010Prop41ColorRGB
 90
        0
102
RTVSPost2010PropOp41
 70
     1
102
RTVSPost2010Prop42
 90
       50
102
RTVSPost2010PropOp42
 70
     1
102
RTVSPost2010Prop43
 90
        3
102
RTVSPost2010PropOp43
 70
     1
102
RTVSPost2010Prop44ColorIndex
 90
        5
102
RTVSPost2010Prop44ColorRGB
 90
      255
102
RTVSPost2010PropOp44
 70
     1
102
RTVSPost2010Prop45
280
     0
102
RTVSPost2010PropOp45
 70
     1
102
RTVSPost2010Prop46
 90
       50
102
RTVSPost2010PropOp46
 70
     1
102
RTVSPost2010Prop47
 90
       50
102
RTVSPost2010PropOp47
 70
     1
102
RTVSPost2010Prop48
 90
       50
102
RTVSPost2010PropOp48
 70
     1
102
RTVSPost2010Prop49
280
     0
102
RTVSPost2010PropOp49
 70
     1
102
RTVSPost2010Prop50
 90
       50
102
RTVSPost2010PropOp50
 70
     1
102
RTVSPost2010Prop51ColorIndex
 90
      256
102
RTVSPost2010Prop51ColorRGB
 90
-16777216
102
RTVSPost2010PropOp51
 70
     0
102
RTVSPost2010Prop52
140
1.0
102
RTVSPost2010PropOp52
 70
     0
102
RTVSPost2010Prop53
 90
        2
102
RTVSPost2010PropOp53
 70
     1
102
RTVSPost2010Prop54
  1
strokes_ogs.tif
102
RTVSPost2010PropOp54
 70
     1
102
RTVSPost2010Prop55
280
     0
102
RTVSPost2010PropOp55
 70
     1
102
RTVSPost2010Prop56
140
1.0
102
RTVSPost2010PropOp56
 70
     1
102
RTVSPost2010Prop57
140
1.0
102
RTVSPost2010PropOp57
 70
     1
102
RTVSPropertyOp0
 70
     1
102
RTVSPropertyOp1
 70
     1
102
RTVSPropertyOp2
 70
     1
102
RTVSPropertyOp3
 70
     1
102
RTVSPropertyOp4
 70
     1
102
RTVSPropertyOp5
 70
     1
102
RTVSPropertyOp6
 70
     1
102
RTVSPropertyOp7
 70
     1
102
RTVSPropertyOp8
 70
     1
102
RTVSPropertyOp9
 70
     1
102
RTVSPropertyOp10
 70
     1
102
RTVSPropertyOp11
 70
     1
102
RTVSPropertyOp12
 70
     1
102
RTVSPropertyOp13
 70
     1
102
RTVSPropertyOp14
 70
     1
102
RTVSPropertyOp15
 70
     1
102
RTVSPropertyOp16
 70
     1
102
RTVSPropertyOp17
 70
     1
102
RTVSPropertyOp18
 70
     1
102
RTVSPropertyOp19
 70
     1
102
RTVSPropertyOp20
 70
     1
102
RTVSPropertyOp21
 70
     1
102
RTVSPropertyOp22
 70
     1
102
RTVSPropertyOp23
 70
     1
102
RTVSPropertyOp24
 70
     1
102
RTVSPropertyOp25
 70
     1
102
RTVSPropertyOp26
 70
     1
102
RTVSPropertyOp27
 70
     1
102
RTVSPropertyOp28
 70
     1
102
RTVSPropertyOp29
 70
     1
102
RTVSPropertyOp30
 70
     1
102
RTVSPropertyOp31
 70
     1
102
RTVSPropertyOp32
 70
     1
102
RTVSPropertyOp33
 70
     1
102
RTVSPropertyOp34
 70
     1
102
RTVSPropertyOp35
 70
     1
102
RTVSPropertyOp36
 70
     1
102
RTVSPropertyOp37
 70
     1
102
RTVSPropertyOp38
 70
     1
102
RTVSPropertyOp39
 70
     1
102
RTVSPropertyOp40
 70
     1
102
RTVSPropertyOp41
 70
     1
102
RTVSPropertyOp42
 70
     1
102
RTVSPropertyOp43
 70
     1
102
RTVSPropertyOp44
 70
     1
102
RTVSPropertyOp45
 70
     1
102
RTVSPropertyOp46
 70
     1
102
RTVSPropertyOp47
 70
     1
102
RTVSPropertyOp48
 70
     1
102
RTVSPropertyOp49
 70
     1
102
RTVSPropertyOp50
 70
     1
102
RTVSPropertyOp51
 70
     0
102
RTVSPropertyOp52
 70
     0
102
RTVSPropertyOp53
 70
     1
102
RTVSPropertyOp54
 70
     1
102
RTVSPropertyOp55
 70
     1
102
RTVSPropertyOp56
 70
     1
102
RTVSPropertyOp57
 70
     1
102
RTVSPropertyOp58
 70
     1
102
RTVSPropertyOp59
 70
     1
102
RTVSPropertyOp60
 70
     1
102
RTVSPropertyOp61
 70
     1
102
RTVSPropertyOp62
 70
     1
  0
XRECORD
  5
347A
102
{ACAD_REACTORS
330
3479
102
}
330
3479
100
AcDbXrecord
280
     1
102
RTVSPost2010Prop28
280
     0
102
RTVSPost2010PropOp28
 70
     1
102
RTVSPost2010Prop29
280
     1
102
RTVSPost2010PropOp29
 70
     1
102
RTVSPost2010Prop30
280
     1
102
RTVSPost2010PropOp30
 70
     1
102
RTVSPost2010Prop31
280
     0
102
RTVSPost2010PropOp31
 70
     1
102
RTVSPost2010Prop32
280
     0
102
RTVSPost2010PropOp32
 70
     1
102
RTVSPost2010Prop33
280
     0
102
RTVSPost2010PropOp33
 70
     1
102
RTVSPost2010Prop34
280
     0
102
RTVSPost2010PropOp34
 70
     1
102
RTVSPost2010Prop35
280
     0
102
RTVSPost2010PropOp35
 70
     1
102
RTVSPost2010Prop36
280
     0
102
RTVSPost2010PropOp36
 70
     1
102
RTVSPost2010Prop37
 90
       50
102
RTVSPost2010PropOp37
 70
     1
102
RTVSPost2010Prop38
140
0.0
102
RTVSPost2010PropOp38
 70
     1
102
RTVSPost2010Prop39
140
1.0
102
RTVSPost2010PropOp39
 70
     1
102
RTVSPost2010Prop40
 90
        0
102
RTVSPost2010PropOp40
 70
     1
102
RTVSPost2010Prop41ColorIndex
 90
       18
102
RTVSPost2010Prop41ColorRGB
 90
        0
102
RTVSPost2010PropOp41
 70
     1
102
RTVSPost2010Prop42
 90
       50
102
RTVSPost2010PropOp42
 70
     1
102
RTVSPost2010Prop43
 90
        3
102
RTVSPost2010PropOp43
 70
     1
102
RTVSPost2010Prop44ColorIndex
 90
        5
102
RTVSPost2010Prop44ColorRGB
 90
      255
102
RTVSPost2010PropOp44
 70
     1
102
RTVSPost2010Prop45
280
     0
102
RTVSPost2010PropOp45
 70
     1
102
RTVSPost2010Prop46
 90
       50
102
RTVSPost2010PropOp46
 70
     1
102
RTVSPost2010Prop47
 90
       50
102
RTVSPost2010PropOp47
 70
     1
102
RTVSPost2010Prop48
 90
       50
102
RTVSPost2010PropOp48
 70
     1
102
RTVSPost2010Prop49
280
     0
102
RTVSPost2010PropOp49
 70
     1
102
RTVSPost2010Prop50
 90
       50
102
RTVSPost2010PropOp50
 70
     1
102
RTVSPost2010Prop51ColorIndex
 90
      256
102
RTVSPost2010Prop51ColorRGB
 90
-16777216
102
RTVSPost2010PropOp51
 70
     0
102
RTVSPost2010Prop52
140
1.0
102
RTVSPost2010PropOp52
 70
     0
102
RTVSPost2010Prop53
 90
        2
102
RTVSPost2010PropOp53
 70
     1
102
RTVSPost2010Prop54
  1
strokes_ogs.tif
102
RTVSPost2010PropOp54
 70
     1
102
RTVSPost2010Prop55
280
     0
102
RTVSPost2010PropOp55
 70
     1
102
RTVSPost2010Prop56
140
1.0
102
RTVSPost2010PropOp56
 70
     1
102
RTVSPost2010Prop57
140
1.0
102
RTVSPost2010PropOp57
 70
     1
102
RTVSPropertyOp0
 70
     1
102
RTVSPropertyOp1
 70
     1
102
RTVSPropertyOp2
 70
     1
102
RTVSPropertyOp3
 70
     1
102
RTVSPropertyOp4
 70
     1
102
RTVSPropertyOp5
 70
     1
102
RTVSPropertyOp6
 70
     1
102
RTVSPropertyOp7
 70
     1
102
RTVSPropertyOp8
 70
     1
102
RTVSPropertyOp9
 70
     1
102
RTVSPropertyOp10
 70
     1
102
RTVSPropertyOp11
 70
     1
102
RTVSPropertyOp12
 70
     1
102
RTVSPropertyOp13
 70
     1
102
RTVSPropertyOp14
 70
     1
102
RTVSPropertyOp15
 70
     1
102
RTVSPropertyOp16
 70
     1
102
RTVSPropertyOp17
 70
     1
102
RTVSPropertyOp18
 70
     1
102
RTVSPropertyOp19
 70
     1
102
RTVSPropertyOp20
 70
     1
102
RTVSPropertyOp21
 70
     1
102
RTVSPropertyOp22
 70
     1
102
RTVSPropertyOp23
 70
     1
102
RTVSPropertyOp24
 70
     1
102
RTVSPropertyOp25
 70
     1
102
RTVSPropertyOp26
 70
     1
102
RTVSPropertyOp27
 70
     1
102
RTVSPropertyOp28
 70
     1
102
RTVSPropertyOp29
 70
     1
102
RTVSPropertyOp30
 70
     1
102
RTVSPropertyOp31
 70
     1
102
RTVSPropertyOp32
 70
     1
102
RTVSPropertyOp33
 70
     1
102
RTVSPropertyOp34
 70
     1
102
RTVSPropertyOp35
 70
     1
102
RTVSPropertyOp36
 70
     1
102
RTVSPropertyOp37
 70
     1
102
RTVSPropertyOp38
 70
     1
102
RTVSPropertyOp39
 70
     1
102
RTVSPropertyOp40
 70
     1
102
RTVSPropertyOp41
 70
     1
102
RTVSPropertyOp42
 70
     1
102
RTVSPropertyOp43
 70
     1
102
RTVSPropertyOp44
 70
     1
102
RTVSPropertyOp45
 70
     1
102
RTVSPropertyOp46
 70
     1
102
RTVSPropertyOp47
 70
     1
102
RTVSPropertyOp48
 70
     1
102
RTVSPropertyOp49
 70
     1
102
RTVSPropertyOp50
 70
     1
102
RTVSPropertyOp51
 70
     0
102
RTVSPropertyOp52
 70
     0
102
RTVSPropertyOp53
 70
     1
102
RTVSPropertyOp54
 70
     1
102
RTVSPropertyOp55
 70
     1
102
RTVSPropertyOp56
 70
     1
102
RTVSPropertyOp57
 70
     1
102
RTVSPropertyOp58
 70
     1
102
RTVSPropertyOp59
 70
     1
102
RTVSPropertyOp60
 70
     1
102
RTVSPropertyOp61
 70
     1
102
RTVSPropertyOp62
 70
     1
  0
XRECORD
  5
346C
102
{ACAD_REACTORS
330
346B
102
}
330
346B
100
AcDbXrecord
280
     1
102
RTVSPost2010Prop28
280
     0
102
RTVSPost2010PropOp28
 70
     1
102
RTVSPost2010Prop29
280
     1
102
RTVSPost2010PropOp29
 70
     1
102
RTVSPost2010Prop30
280
     1
102
RTVSPost2010PropOp30
 70
     1
102
RTVSPost2010Prop31
280
     0
102
RTVSPost2010PropOp31
 70
     1
102
RTVSPost2010Prop32
280
     0
102
RTVSPost2010PropOp32
 70
     1
102
RTVSPost2010Prop33
280
     0
102
RTVSPost2010PropOp33
 70
     1
102
RTVSPost2010Prop34
280
     0
102
RTVSPost2010PropOp34
 70
     1
102
RTVSPost2010Prop35
280
     0
102
RTVSPost2010PropOp35
 70
     1
102
RTVSPost2010Prop36
280
     0
102
RTVSPost2010PropOp36
 70
     1
102
RTVSPost2010Prop37
 90
       50
102
RTVSPost2010PropOp37
 70
     1
102
RTVSPost2010Prop38
140
0.0
102
RTVSPost2010PropOp38
 70
     1
102
RTVSPost2010Prop39
140
1.0
102
RTVSPost2010PropOp39
 70
     1
102
RTVSPost2010Prop40
 90
        0
102
RTVSPost2010PropOp40
 70
     1
102
RTVSPost2010Prop41ColorIndex
 90
       18
102
RTVSPost2010Prop41ColorRGB
 90
        0
102
RTVSPost2010PropOp41
 70
     1
102
RTVSPost2010Prop42
 90
       50
102
RTVSPost2010PropOp42
 70
     1
102
RTVSPost2010Prop43
 90
        3
102
RTVSPost2010PropOp43
 70
     1
102
RTVSPost2010Prop44ColorIndex
 90
        5
102
RTVSPost2010Prop44ColorRGB
 90
      255
102
RTVSPost2010PropOp44
 70
     1
102
RTVSPost2010Prop45
280
     0
102
RTVSPost2010PropOp45
 70
     1
102
RTVSPost2010Prop46
 90
       50
102
RTVSPost2010PropOp46
 70
     1
102
RTVSPost2010Prop47
 90
       50
102
RTVSPost2010PropOp47
 70
     1
102
RTVSPost2010Prop48
 90
       50
102
RTVSPost2010PropOp48
 70
     1
102
RTVSPost2010Prop49
280
     0
102
RTVSPost2010PropOp49
 70
     1
102
RTVSPost2010Prop50
 90
       50
102
RTVSPost2010PropOp50
 70
     1
102
RTVSPost2010Prop51ColorIndex
 90
      256
102
RTVSPost2010Prop51ColorRGB
 90
-16777216
102
RTVSPost2010PropOp51
 70
     0
102
RTVSPost2010Prop52
140
1.0
102
RTVSPost2010PropOp52
 70
     0
102
RTVSPost2010Prop53
 90
        2
102
RTVSPost2010PropOp53
 70
     1
102
RTVSPost2010Prop54
  1
strokes_ogs.tif
102
RTVSPost2010PropOp54
 70
     1
102
RTVSPost2010Prop55
280
     0
102
RTVSPost2010PropOp55
 70
     1
102
RTVSPost2010Prop56
140
1.0
102
RTVSPost2010PropOp56
 70
     1
102
RTVSPost2010Prop57
140
1.0
102
RTVSPost2010PropOp57
 70
     1
102
RTVSPropertyOp0
 70
     1
102
RTVSPropertyOp1
 70
     1
102
RTVSPropertyOp2
 70
     1
102
RTVSPropertyOp3
 70
     1
102
RTVSPropertyOp4
 70
     1
102
RTVSPropertyOp5
 70
     1
102
RTVSPropertyOp6
 70
     1
102
RTVSPropertyOp7
 70
     1
102
RTVSPropertyOp8
 70
     1
102
RTVSPropertyOp9
 70
     1
102
RTVSPropertyOp10
 70
     1
102
RTVSPropertyOp11
 70
     1
102
RTVSPropertyOp12
 70
     1
102
RTVSPropertyOp13
 70
     1
102
RTVSPropertyOp14
 70
     1
102
RTVSPropertyOp15
 70
     1
102
RTVSPropertyOp16
 70
     1
102
RTVSPropertyOp17
 70
     1
102
RTVSPropertyOp18
 70
     1
102
RTVSPropertyOp19
 70
     1
102
RTVSPropertyOp20
 70
     1
102
RTVSPropertyOp21
 70
     1
102
RTVSPropertyOp22
 70
     1
102
RTVSPropertyOp23
 70
     1
102
RTVSPropertyOp24
 70
     1
102
RTVSPropertyOp25
 70
     1
102
RTVSPropertyOp26
 70
     1
102
RTVSPropertyOp27
 70
     1
102
RTVSPropertyOp28
 70
     1
102
RTVSPropertyOp29
 70
     1
102
RTVSPropertyOp30
 70
     1
102
RTVSPropertyOp31
 70
     1
102
RTVSPropertyOp32
 70
     1
102
RTVSPropertyOp33
 70
     1
102
RTVSPropertyOp34
 70
     1
102
RTVSPropertyOp35
 70
     1
102
RTVSPropertyOp36
 70
     1
102
RTVSPropertyOp37
 70
     1
102
RTVSPropertyOp38
 70
     1
102
RTVSPropertyOp39
 70
     1
102
RTVSPropertyOp40
 70
     1
102
RTVSPropertyOp41
 70
     1
102
RTVSPropertyOp42
 70
     1
102
RTVSPropertyOp43
 70
     1
102
RTVSPropertyOp44
 70
     1
102
RTVSPropertyOp45
 70
     1
102
RTVSPropertyOp46
 70
     1
102
RTVSPropertyOp47
 70
     1
102
RTVSPropertyOp48
 70
     1
102
RTVSPropertyOp49
 70
     1
102
RTVSPropertyOp50
 70
     1
102
RTVSPropertyOp51
 70
     0
102
RTVSPropertyOp52
 70
     0
102
RTVSPropertyOp53
 70
     1
102
RTVSPropertyOp54
 70
     1
102
RTVSPropertyOp55
 70
     1
102
RTVSPropertyOp56
 70
     1
102
RTVSPropertyOp57
 70
     1
102
RTVSPropertyOp58
 70
     1
102
RTVSPropertyOp59
 70
     1
102
RTVSPropertyOp60
 70
     1
102
RTVSPropertyOp61
 70
     1
102
RTVSPropertyOp62
 70
     1
  0
XRECORD
  5
3470
102
{ACAD_REACTORS
330
346F
102
}
330
346F
100
AcDbXrecord
280
     1
102
RTVSPost2010Prop28
280
     0
102
RTVSPost2010PropOp28
 70
     1
102
RTVSPost2010Prop29
280
     1
102
RTVSPost2010PropOp29
 70
     1
102
RTVSPost2010Prop30
280
     1
102
RTVSPost2010PropOp30
 70
     1
102
RTVSPost2010Prop31
280
     0
102
RTVSPost2010PropOp31
 70
     1
102
RTVSPost2010Prop32
280
     0
102
RTVSPost2010PropOp32
 70
     1
102
RTVSPost2010Prop33
280
     0
102
RTVSPost2010PropOp33
 70
     1
102
RTVSPost2010Prop34
280
     0
102
RTVSPost2010PropOp34
 70
     1
102
RTVSPost2010Prop35
280
     0
102
RTVSPost2010PropOp35
 70
     1
102
RTVSPost2010Prop36
280
     0
102
RTVSPost2010PropOp36
 70
     1
102
RTVSPost2010Prop37
 90
       50
102
RTVSPost2010PropOp37
 70
     1
102
RTVSPost2010Prop38
140
0.0
102
RTVSPost2010PropOp38
 70
     1
102
RTVSPost2010Prop39
140
1.0
102
RTVSPost2010PropOp39
 70
     1
102
RTVSPost2010Prop40
 90
        0
102
RTVSPost2010PropOp40
 70
     1
102
RTVSPost2010Prop41ColorIndex
 90
       18
102
RTVSPost2010Prop41ColorRGB
 90
        0
102
RTVSPost2010PropOp41
 70
     1
102
RTVSPost2010Prop42
 90
       50
102
RTVSPost2010PropOp42
 70
     1
102
RTVSPost2010Prop43
 90
        3
102
RTVSPost2010PropOp43
 70
     1
102
RTVSPost2010Prop44ColorIndex
 90
        5
102
RTVSPost2010Prop44ColorRGB
 90
      255
102
RTVSPost2010PropOp44
 70
     1
102
RTVSPost2010Prop45
280
     0
102
RTVSPost2010PropOp45
 70
     1
102
RTVSPost2010Prop46
 90
       50
102
RTVSPost2010PropOp46
 70
     1
102
RTVSPost2010Prop47
 90
       50
102
RTVSPost2010PropOp47
 70
     1
102
RTVSPost2010Prop48
 90
       50
102
RTVSPost2010PropOp48
 70
     1
102
RTVSPost2010Prop49
280
     0
102
RTVSPost2010PropOp49
 70
     1
102
RTVSPost2010Prop50
 90
       50
102
RTVSPost2010PropOp50
 70
     1
102
RTVSPost2010Prop51ColorIndex
 90
      256
102
RTVSPost2010Prop51ColorRGB
 90
-16777216
102
RTVSPost2010PropOp51
 70
     0
102
RTVSPost2010Prop52
140
1.0
102
RTVSPost2010PropOp52
 70
     0
102
RTVSPost2010Prop53
 90
        2
102
RTVSPost2010PropOp53
 70
     1
102
RTVSPost2010Prop54
  1
strokes_ogs.tif
102
RTVSPost2010PropOp54
 70
     1
102
RTVSPost2010Prop55
280
     0
102
RTVSPost2010PropOp55
 70
     1
102
RTVSPost2010Prop56
140
1.0
102
RTVSPost2010PropOp56
 70
     1
102
RTVSPost2010Prop57
140
1.0
102
RTVSPost2010PropOp57
 70
     1
102
RTVSPropertyOp0
 70
     1
102
RTVSPropertyOp1
 70
     1
102
RTVSPropertyOp2
 70
     1
102
RTVSPropertyOp3
 70
     1
102
RTVSPropertyOp4
 70
     1
102
RTVSPropertyOp5
 70
     1
102
RTVSPropertyOp6
 70
     1
102
RTVSPropertyOp7
 70
     1
102
RTVSPropertyOp8
 70
     1
102
RTVSPropertyOp9
 70
     1
102
RTVSPropertyOp10
 70
     1
102
RTVSPropertyOp11
 70
     1
102
RTVSPropertyOp12
 70
     1
102
RTVSPropertyOp13
 70
     1
102
RTVSPropertyOp14
 70
     1
102
RTVSPropertyOp15
 70
     1
102
RTVSPropertyOp16
 70
     1
102
RTVSPropertyOp17
 70
     1
102
RTVSPropertyOp18
 70
     1
102
RTVSPropertyOp19
 70
     1
102
RTVSPropertyOp20
 70
     1
102
RTVSPropertyOp21
 70
     1
102
RTVSPropertyOp22
 70
     1
102
RTVSPropertyOp23
 70
     1
102
RTVSPropertyOp24
 70
     1
102
RTVSPropertyOp25
 70
     1
102
RTVSPropertyOp26
 70
     1
102
RTVSPropertyOp27
 70
     1
102
RTVSPropertyOp28
 70
     1
102
RTVSPropertyOp29
 70
     1
102
RTVSPropertyOp30
 70
     1
102
RTVSPropertyOp31
 70
     1
102
RTVSPropertyOp32
 70
     1
102
RTVSPropertyOp33
 70
     1
102
RTVSPropertyOp34
 70
     1
102
RTVSPropertyOp35
 70
     1
102
RTVSPropertyOp36
 70
     1
102
RTVSPropertyOp37
 70
     1
102
RTVSPropertyOp38
 70
     1
102
RTVSPropertyOp39
 70
     1
102
RTVSPropertyOp40
 70
     1
102
RTVSPropertyOp41
 70
     1
102
RTVSPropertyOp42
 70
     1
102
RTVSPropertyOp43
 70
     1
102
RTVSPropertyOp44
 70
     1
102
RTVSPropertyOp45
 70
     1
102
RTVSPropertyOp46
 70
     1
102
RTVSPropertyOp47
 70
     1
102
RTVSPropertyOp48
 70
     1
102
RTVSPropertyOp49
 70
     1
102
RTVSPropertyOp50
 70
     1
102
RTVSPropertyOp51
 70
     0
102
RTVSPropertyOp52
 70
     0
102
RTVSPropertyOp53
 70
     1
102
RTVSPropertyOp54
 70
     1
102
RTVSPropertyOp55
 70
     1
102
RTVSPropertyOp56
 70
     1
102
RTVSPropertyOp57
 70
     1
102
RTVSPropertyOp58
 70
     1
102
RTVSPropertyOp59
 70
     1
102
RTVSPropertyOp60
 70
     1
102
RTVSPropertyOp61
 70
     1
102
RTVSPropertyOp62
 70
     1
  0
XRECORD
  5
3482
102
{ACAD_REACTORS
330
3481
102
}
330
3481
100
AcDbXrecord
280
     1
102
RTVSPost2010Prop28
280
     0
102
RTVSPost2010PropOp28
 70
     1
102
RTVSPost2010Prop29
280
     1
102
RTVSPost2010PropOp29
 70
     1
102
RTVSPost2010Prop30
280
     1
102
RTVSPost2010PropOp30
 70
     1
102
RTVSPost2010Prop31
280
     0
102
RTVSPost2010PropOp31
 70
     1
102
RTVSPost2010Prop32
280
     0
102
RTVSPost2010PropOp32
 70
     1
102
RTVSPost2010Prop33
280
     0
102
RTVSPost2010PropOp33
 70
     1
102
RTVSPost2010Prop34
280
     0
102
RTVSPost2010PropOp34
 70
     1
102
RTVSPost2010Prop35
280
     0
102
RTVSPost2010PropOp35
 70
     1
102
RTVSPost2010Prop36
280
     0
102
RTVSPost2010PropOp36
 70
     1
102
RTVSPost2010Prop37
 90
       50
102
RTVSPost2010PropOp37
 70
     1
102
RTVSPost2010Prop38
140
0.0
102
RTVSPost2010PropOp38
 70
     1
102
RTVSPost2010Prop39
140
1.0
102
RTVSPost2010PropOp39
 70
     1
102
RTVSPost2010Prop40
 90
        0
102
RTVSPost2010PropOp40
 70
     1
102
RTVSPost2010Prop41ColorIndex
 90
       18
102
RTVSPost2010Prop41ColorRGB
 90
        0
102
RTVSPost2010PropOp41
 70
     1
102
RTVSPost2010Prop42
 90
       50
102
RTVSPost2010PropOp42
 70
     1
102
RTVSPost2010Prop43
 90
        3
102
RTVSPost2010PropOp43
 70
     1
102
RTVSPost2010Prop44ColorIndex
 90
        5
102
RTVSPost2010Prop44ColorRGB
 90
      255
102
RTVSPost2010PropOp44
 70
     1
102
RTVSPost2010Prop45
280
     0
102
RTVSPost2010PropOp45
 70
     1
102
RTVSPost2010Prop46
 90
       50
102
RTVSPost2010PropOp46
 70
     1
102
RTVSPost2010Prop47
 90
       50
102
RTVSPost2010PropOp47
 70
     1
102
RTVSPost2010Prop48
 90
       50
102
RTVSPost2010PropOp48
 70
     1
102
RTVSPost2010Prop49
280
     0
102
RTVSPost2010PropOp49
 70
     1
102
RTVSPost2010Prop50
 90
       50
102
RTVSPost2010PropOp50
 70
     1
102
RTVSPost2010Prop51ColorIndex
 90
      256
102
RTVSPost2010Prop51ColorRGB
 90
-16777216
102
RTVSPost2010PropOp51
 70
     0
102
RTVSPost2010Prop52
140
1.0
102
RTVSPost2010PropOp52
 70
     0
102
RTVSPost2010Prop53
 90
        2
102
RTVSPost2010PropOp53
 70
     1
102
RTVSPost2010Prop54
  1
strokes_ogs.tif
102
RTVSPost2010PropOp54
 70
     1
102
RTVSPost2010Prop55
280
     0
102
RTVSPost2010PropOp55
 70
     1
102
RTVSPost2010Prop56
140
1.0
102
RTVSPost2010PropOp56
 70
     1
102
RTVSPost2010Prop57
140
1.0
102
RTVSPost2010PropOp57
 70
     1
102
RTVSPropertyOp0
 70
     0
102
RTVSPropertyOp1
 70
     0
102
RTVSPropertyOp2
 70
     0
102
RTVSPropertyOp3
 70
     0
102
RTVSPropertyOp4
 70
     0
102
RTVSPropertyOp5
 70
     0
102
RTVSPropertyOp6
 70
     0
102
RTVSPropertyOp7
 70
     0
102
RTVSPropertyOp8
 70
     0
102
RTVSPropertyOp9
 70
     0
102
RTVSPropertyOp10
 70
     0
102
RTVSPropertyOp11
 70
     0
102
RTVSPropertyOp12
 70
     0
102
RTVSPropertyOp13
 70
     0
102
RTVSPropertyOp14
 70
     2
102
RTVSPropertyOp15
 70
     0
102
RTVSPropertyOp16
 70
     0
102
RTVSPropertyOp17
 70
     0
102
RTVSPropertyOp18
 70
     0
102
RTVSPropertyOp19
 70
     0
102
RTVSPropertyOp20
 70
     0
102
RTVSPropertyOp21
 70
     0
102
RTVSPropertyOp22
 70
     0
102
RTVSPropertyOp23
 70
     0
102
RTVSPropertyOp24
 70
     0
102
RTVSPropertyOp25
 70
     0
102
RTVSPropertyOp26
 70
     0
102
RTVSPropertyOp27
 70
     0
102
RTVSPropertyOp28
 70
     1
102
RTVSPropertyOp29
 70
     1
102
RTVSPropertyOp30
 70
     1
102
RTVSPropertyOp31
 70
     1
102
RTVSPropertyOp32
 70
     1
102
RTVSPropertyOp33
 70
     1
102
RTVSPropertyOp34
 70
     1
102
RTVSPropertyOp35
 70
     1
102
RTVSPropertyOp36
 70
     1
102
RTVSPropertyOp37
 70
     1
102
RTVSPropertyOp38
 70
     1
102
RTVSPropertyOp39
 70
     1
102
RTVSPropertyOp40
 70
     1
102
RTVSPropertyOp41
 70
     1
102
RTVSPropertyOp42
 70
     1
102
RTVSPropertyOp43
 70
     1
102
RTVSPropertyOp44
 70
     1
102
RTVSPropertyOp45
 70
     1
102
RTVSPropertyOp46
 70
     1
102
RTVSPropertyOp47
 70
     1
102
RTVSPropertyOp48
 70
     1
102
RTVSPropertyOp49
 70
     1
102
RTVSPropertyOp50
 70
     1
102
RTVSPropertyOp51
 70
     0
102
RTVSPropertyOp52
 70
     0
102
RTVSPropertyOp53
 70
     1
102
RTVSPropertyOp54
 70
     1
102
RTVSPropertyOp55
 70
     1
102
RTVSPropertyOp56
 70
     1
102
RTVSPropertyOp57
 70
     1
102
RTVSPropertyOp58
 70
     1
102
RTVSPropertyOp59
 70
     1
102
RTVSPropertyOp60
 70
     1
102
RTVSPropertyOp61
 70
     1
102
RTVSPropertyOp62
 70
     1
  0
XRECORD
  5
3478
102
{ACAD_REACTORS
330
3477
102
}
330
3477
100
AcDbXrecord
280
     1
102
RTVSPost2010Prop28
280
     0
102
RTVSPost2010PropOp28
 70
     1
102
RTVSPost2010Prop29
280
     1
102
RTVSPost2010PropOp29
 70
     1
102
RTVSPost2010Prop30
280
     1
102
RTVSPost2010PropOp30
 70
     1
102
RTVSPost2010Prop31
280
     0
102
RTVSPost2010PropOp31
 70
     1
102
RTVSPost2010Prop32
280
     0
102
RTVSPost2010PropOp32
 70
     1
102
RTVSPost2010Prop33
280
     0
102
RTVSPost2010PropOp33
 70
     1
102
RTVSPost2010Prop34
280
     0
102
RTVSPost2010PropOp34
 70
     1
102
RTVSPost2010Prop35
280
     0
102
RTVSPost2010PropOp35
 70
     1
102
RTVSPost2010Prop36
280
     0
102
RTVSPost2010PropOp36
 70
     1
102
RTVSPost2010Prop37
 90
       50
102
RTVSPost2010PropOp37
 70
     1
102
RTVSPost2010Prop38
140
0.0
102
RTVSPost2010PropOp38
 70
     1
102
RTVSPost2010Prop39
140
1.0
102
RTVSPost2010PropOp39
 70
     1
102
RTVSPost2010Prop40
 90
        0
102
RTVSPost2010PropOp40
 70
     1
102
RTVSPost2010Prop41ColorIndex
 90
       18
102
RTVSPost2010Prop41ColorRGB
 90
        0
102
RTVSPost2010PropOp41
 70
     1
102
RTVSPost2010Prop42
 90
       50
102
RTVSPost2010PropOp42
 70
     1
102
RTVSPost2010Prop43
 90
        3
102
RTVSPost2010PropOp43
 70
     1
102
RTVSPost2010Prop44ColorIndex
 90
        5
102
RTVSPost2010Prop44ColorRGB
 90
      255
102
RTVSPost2010PropOp44
 70
     1
102
RTVSPost2010Prop45
280
     0
102
RTVSPost2010PropOp45
 70
     1
102
RTVSPost2010Prop46
 90
       50
102
RTVSPost2010PropOp46
 70
     1
102
RTVSPost2010Prop47
 90
       50
102
RTVSPost2010PropOp47
 70
     1
102
RTVSPost2010Prop48
 90
       50
102
RTVSPost2010PropOp48
 70
     1
102
RTVSPost2010Prop49
280
     0
102
RTVSPost2010PropOp49
 70
     1
102
RTVSPost2010Prop50
 90
       50
102
RTVSPost2010PropOp50
 70
     1
102
RTVSPost2010Prop51ColorIndex
 90
      256
102
RTVSPost2010Prop51ColorRGB
 90
-16777216
102
RTVSPost2010PropOp51
 70
     0
102
RTVSPost2010Prop52
140
1.0
102
RTVSPost2010PropOp52
 70
     0
102
RTVSPost2010Prop53
 90
        2
102
RTVSPost2010PropOp53
 70
     1
102
RTVSPost2010Prop54
  1
strokes_ogs.tif
102
RTVSPost2010PropOp54
 70
     1
102
RTVSPost2010Prop55
280
     0
102
RTVSPost2010PropOp55
 70
     1
102
RTVSPost2010Prop56
140
1.0
102
RTVSPost2010PropOp56
 70
     1
102
RTVSPost2010Prop57
140
1.0
102
RTVSPost2010PropOp57
 70
     1
102
RTVSPropertyOp0
 70
     1
102
RTVSPropertyOp1
 70
     1
102
RTVSPropertyOp2
 70
     1
102
RTVSPropertyOp3
 70
     1
102
RTVSPropertyOp4
 70
     1
102
RTVSPropertyOp5
 70
     1
102
RTVSPropertyOp6
 70
     1
102
RTVSPropertyOp7
 70
     1
102
RTVSPropertyOp8
 70
     1
102
RTVSPropertyOp9
 70
     1
102
RTVSPropertyOp10
 70
     1
102
RTVSPropertyOp11
 70
     1
102
RTVSPropertyOp12
 70
     1
102
RTVSPropertyOp13
 70
     1
102
RTVSPropertyOp14
 70
     1
102
RTVSPropertyOp15
 70
     1
102
RTVSPropertyOp16
 70
     1
102
RTVSPropertyOp17
 70
     1
102
RTVSPropertyOp18
 70
     1
102
RTVSPropertyOp19
 70
     1
102
RTVSPropertyOp20
 70
     1
102
RTVSPropertyOp21
 70
     1
102
RTVSPropertyOp22
 70
     1
102
RTVSPropertyOp23
 70
     1
102
RTVSPropertyOp24
 70
     1
102
RTVSPropertyOp25
 70
     1
102
RTVSPropertyOp26
 70
     1
102
RTVSPropertyOp27
 70
     1
102
RTVSPropertyOp28
 70
     1
102
RTVSPropertyOp29
 70
     1
102
RTVSPropertyOp30
 70
     1
102
RTVSPropertyOp31
 70
     1
102
RTVSPropertyOp32
 70
     1
102
RTVSPropertyOp33
 70
     1
102
RTVSPropertyOp34
 70
     1
102
RTVSPropertyOp35
 70
     1
102
RTVSPropertyOp36
 70
     1
102
RTVSPropertyOp37
 70
     1
102
RTVSPropertyOp38
 70
     1
102
RTVSPropertyOp39
 70
     1
102
RTVSPropertyOp40
 70
     1
102
RTVSPropertyOp41
 70
     1
102
RTVSPropertyOp42
 70
     1
102
RTVSPropertyOp43
 70
     1
102
RTVSPropertyOp44
 70
     1
102
RTVSPropertyOp45
 70
     1
102
RTVSPropertyOp46
 70
     1
102
RTVSPropertyOp47
 70
     1
102
RTVSPropertyOp48
 70
     1
102
RTVSPropertyOp49
 70
     1
102
RTVSPropertyOp50
 70
     1
102
RTVSPropertyOp51
 70
     0
102
RTVSPropertyOp52
 70
     0
102
RTVSPropertyOp53
 70
     1
102
RTVSPropertyOp54
 70
     1
102
RTVSPropertyOp55
 70
     1
102
RTVSPropertyOp56
 70
     1
102
RTVSPropertyOp57
 70
     1
102
RTVSPropertyOp58
 70
     1
102
RTVSPropertyOp59
 70
     1
102
RTVSPropertyOp60
 70
     1
102
RTVSPropertyOp61
 70
     1
102
RTVSPropertyOp62
 70
     1
  0
XRECORD
  5
345C
102
{ACAD_REACTORS
330
345B
102
}
330
345B
100
AcDbXrecord
280
     1
102
RTVSPost2010Prop28
280
     0
102
RTVSPost2010PropOp28
 70
     1
102
RTVSPost2010Prop29
280
     1
102
RTVSPost2010PropOp29
 70
     1
102
RTVSPost2010Prop30
280
     1
102
RTVSPost2010PropOp30
 70
     1
102
RTVSPost2010Prop31
280
     0
102
RTVSPost2010PropOp31
 70
     1
102
RTVSPost2010Prop32
280
     0
102
RTVSPost2010PropOp32
 70
     1
102
RTVSPost2010Prop33
280
     0
102
RTVSPost2010PropOp33
 70
     1
102
RTVSPost2010Prop34
280
     0
102
RTVSPost2010PropOp34
 70
     1
102
RTVSPost2010Prop35
280
     0
102
RTVSPost2010PropOp35
 70
     1
102
RTVSPost2010Prop36
280
     0
102
RTVSPost2010PropOp36
 70
     1
102
RTVSPost2010Prop37
 90
       50
102
RTVSPost2010PropOp37
 70
     1
102
RTVSPost2010Prop38
140
0.0
102
RTVSPost2010PropOp38
 70
     1
102
RTVSPost2010Prop39
140
1.0
102
RTVSPost2010PropOp39
 70
     1
102
RTVSPost2010Prop40
 90
        0
102
RTVSPost2010PropOp40
 70
     1
102
RTVSPost2010Prop41ColorIndex
 90
       18
102
RTVSPost2010Prop41ColorRGB
 90
        0
102
RTVSPost2010PropOp41
 70
     1
102
RTVSPost2010Prop42
 90
       50
102
RTVSPost2010PropOp42
 70
     1
102
RTVSPost2010Prop43
 90
        3
102
RTVSPost2010PropOp43
 70
     1
102
RTVSPost2010Prop44ColorIndex
 90
        5
102
RTVSPost2010Prop44ColorRGB
 90
      255
102
RTVSPost2010PropOp44
 70
     1
102
RTVSPost2010Prop45
280
     0
102
RTVSPost2010PropOp45
 70
     1
102
RTVSPost2010Prop46
 90
       50
102
RTVSPost2010PropOp46
 70
     1
102
RTVSPost2010Prop47
 90
       50
102
RTVSPost2010PropOp47
 70
     1
102
RTVSPost2010Prop48
 90
       50
102
RTVSPost2010PropOp48
 70
     1
102
RTVSPost2010Prop49
280
     0
102
RTVSPost2010PropOp49
 70
     1
102
RTVSPost2010Prop50
 90
       50
102
RTVSPost2010PropOp50
 70
     1
102
RTVSPost2010Prop51ColorIndex
 90
      256
102
RTVSPost2010Prop51ColorRGB
 90
-16777216
102
RTVSPost2010PropOp51
 70
     0
102
RTVSPost2010Prop52
140
1.0
102
RTVSPost2010PropOp52
 70
     0
102
RTVSPost2010Prop53
 90
        2
102
RTVSPost2010PropOp53
 70
     1
102
RTVSPost2010Prop54
  1
strokes_ogs.tif
102
RTVSPost2010PropOp54
 70
     1
102
RTVSPost2010Prop55
280
     0
102
RTVSPost2010PropOp55
 70
     1
102
RTVSPost2010Prop56
140
1.0
102
RTVSPost2010PropOp56
 70
     1
102
RTVSPost2010Prop57
140
1.0
102
RTVSPost2010PropOp57
 70
     1
102
RTVSPropertyOp0
 70
     1
102
RTVSPropertyOp1
 70
     1
102
RTVSPropertyOp2
 70
     1
102
RTVSPropertyOp3
 70
     1
102
RTVSPropertyOp4
 70
     1
102
RTVSPropertyOp5
 70
     1
102
RTVSPropertyOp6
 70
     1
102
RTVSPropertyOp7
 70
     1
102
RTVSPropertyOp8
 70
     1
102
RTVSPropertyOp9
 70
     1
102
RTVSPropertyOp10
 70
     1
102
RTVSPropertyOp11
 70
     1
102
RTVSPropertyOp12
 70
     1
102
RTVSPropertyOp13
 70
     1
102
RTVSPropertyOp14
 70
     1
102
RTVSPropertyOp15
 70
     1
102
RTVSPropertyOp16
 70
     1
102
RTVSPropertyOp17
 70
     1
102
RTVSPropertyOp18
 70
     1
102
RTVSPropertyOp19
 70
     1
102
RTVSPropertyOp20
 70
     1
102
RTVSPropertyOp21
 70
     1
102
RTVSPropertyOp22
 70
     1
102
RTVSPropertyOp23
 70
     1
102
RTVSPropertyOp24
 70
     1
102
RTVSPropertyOp25
 70
     1
102
RTVSPropertyOp26
 70
     1
102
RTVSPropertyOp27
 70
     1
102
RTVSPropertyOp28
 70
     1
102
RTVSPropertyOp29
 70
     1
102
RTVSPropertyOp30
 70
     1
102
RTVSPropertyOp31
 70
     1
102
RTVSPropertyOp32
 70
     1
102
RTVSPropertyOp33
 70
     1
102
RTVSPropertyOp34
 70
     1
102
RTVSPropertyOp35
 70
     1
102
RTVSPropertyOp36
 70
     1
102
RTVSPropertyOp37
 70
     1
102
RTVSPropertyOp38
 70
     1
102
RTVSPropertyOp39
 70
     1
102
RTVSPropertyOp40
 70
     1
102
RTVSPropertyOp41
 70
     1
102
RTVSPropertyOp42
 70
     1
102
RTVSPropertyOp43
 70
     1
102
RTVSPropertyOp44
 70
     1
102
RTVSPropertyOp45
 70
     1
102
RTVSPropertyOp46
 70
     1
102
RTVSPropertyOp47
 70
     1
102
RTVSPropertyOp48
 70
     1
102
RTVSPropertyOp49
 70
     1
102
RTVSPropertyOp50
 70
     1
102
RTVSPropertyOp51
 70
     0
102
RTVSPropertyOp52
 70
     0
102
RTVSPropertyOp53
 70
     1
102
RTVSPropertyOp54
 70
     1
102
RTVSPropertyOp55
 70
     1
102
RTVSPropertyOp56
 70
     1
102
RTVSPropertyOp57
 70
     1
102
RTVSPropertyOp58
 70
     1
102
RTVSPropertyOp59
 70
     1
102
RTVSPropertyOp60
 70
     1
102
RTVSPropertyOp61
 70
     1
102
RTVSPropertyOp62
 70
     1
  0
XRECORD
  5
345E
102
{ACAD_REACTORS
330
345D
102
}
330
345D
100
AcDbXrecord
280
     1
102
RTVSPost2010Prop28
280
     0
102
RTVSPost2010PropOp28
 70
     1
102
RTVSPost2010Prop29
280
     1
102
RTVSPost2010PropOp29
 70
     1
102
RTVSPost2010Prop30
280
     1
102
RTVSPost2010PropOp30
 70
     1
102
RTVSPost2010Prop31
280
     0
102
RTVSPost2010PropOp31
 70
     1
102
RTVSPost2010Prop32
280
     0
102
RTVSPost2010PropOp32
 70
     1
102
RTVSPost2010Prop33
280
     0
102
RTVSPost2010PropOp33
 70
     1
102
RTVSPost2010Prop34
280
     0
102
RTVSPost2010PropOp34
 70
     1
102
RTVSPost2010Prop35
280
     0
102
RTVSPost2010PropOp35
 70
     1
102
RTVSPost2010Prop36
280
     0
102
RTVSPost2010PropOp36
 70
     1
102
RTVSPost2010Prop37
 90
       50
102
RTVSPost2010PropOp37
 70
     1
102
RTVSPost2010Prop38
140
0.0
102
RTVSPost2010PropOp38
 70
     1
102
RTVSPost2010Prop39
140
1.0
102
RTVSPost2010PropOp39
 70
     1
102
RTVSPost2010Prop40
 90
        0
102
RTVSPost2010PropOp40
 70
     1
102
RTVSPost2010Prop41ColorIndex
 90
       18
102
RTVSPost2010Prop41ColorRGB
 90
        0
102
RTVSPost2010PropOp41
 70
     1
102
RTVSPost2010Prop42
 90
       50
102
RTVSPost2010PropOp42
 70
     1
102
RTVSPost2010Prop43
 90
        3
102
RTVSPost2010PropOp43
 70
     1
102
RTVSPost2010Prop44ColorIndex
 90
        5
102
RTVSPost2010Prop44ColorRGB
 90
      255
102
RTVSPost2010PropOp44
 70
     1
102
RTVSPost2010Prop45
280
     0
102
RTVSPost2010PropOp45
 70
     1
102
RTVSPost2010Prop46
 90
       50
102
RTVSPost2010PropOp46
 70
     1
102
RTVSPost2010Prop47
 90
       50
102
RTVSPost2010PropOp47
 70
     1
102
RTVSPost2010Prop48
 90
       50
102
RTVSPost2010PropOp48
 70
     1
102
RTVSPost2010Prop49
280
     0
102
RTVSPost2010PropOp49
 70
     1
102
RTVSPost2010Prop50
 90
       50
102
RTVSPost2010PropOp50
 70
     1
102
RTVSPost2010Prop51ColorIndex
 90
      256
102
RTVSPost2010Prop51ColorRGB
 90
-16777216
102
RTVSPost2010PropOp51
 70
     0
102
RTVSPost2010Prop52
140
1.0
102
RTVSPost2010PropOp52
 70
     0
102
RTVSPost2010Prop53
 90
        2
102
RTVSPost2010PropOp53
 70
     1
102
RTVSPost2010Prop54
  1
strokes_ogs.tif
102
RTVSPost2010PropOp54
 70
     1
102
RTVSPost2010Prop55
280
     0
102
RTVSPost2010PropOp55
 70
     1
102
RTVSPost2010Prop56
140
1.0
102
RTVSPost2010PropOp56
 70
     1
102
RTVSPost2010Prop57
140
1.0
102
RTVSPost2010PropOp57
 70
     1
102
RTVSPropertyOp0
 70
     1
102
RTVSPropertyOp1
 70
     1
102
RTVSPropertyOp2
 70
     1
102
RTVSPropertyOp3
 70
     1
102
RTVSPropertyOp4
 70
     1
102
RTVSPropertyOp5
 70
     1
102
RTVSPropertyOp6
 70
     1
102
RTVSPropertyOp7
 70
     1
102
RTVSPropertyOp8
 70
     1
102
RTVSPropertyOp9
 70
     1
102
RTVSPropertyOp10
 70
     1
102
RTVSPropertyOp11
 70
     1
102
RTVSPropertyOp12
 70
     1
102
RTVSPropertyOp13
 70
     1
102
RTVSPropertyOp14
 70
     1
102
RTVSPropertyOp15
 70
     1
102
RTVSPropertyOp16
 70
     1
102
RTVSPropertyOp17
 70
     1
102
RTVSPropertyOp18
 70
     1
102
RTVSPropertyOp19
 70
     1
102
RTVSPropertyOp20
 70
     1
102
RTVSPropertyOp21
 70
     1
102
RTVSPropertyOp22
 70
     1
102
RTVSPropertyOp23
 70
     1
102
RTVSPropertyOp24
 70
     1
102
RTVSPropertyOp25
 70
     1
102
RTVSPropertyOp26
 70
     1
102
RTVSPropertyOp27
 70
     1
102
RTVSPropertyOp28
 70
     1
102
RTVSPropertyOp29
 70
     1
102
RTVSPropertyOp30
 70
     1
102
RTVSPropertyOp31
 70
     1
102
RTVSPropertyOp32
 70
     1
102
RTVSPropertyOp33
 70
     1
102
RTVSPropertyOp34
 70
     1
102
RTVSPropertyOp35
 70
     1
102
RTVSPropertyOp36
 70
     1
102
RTVSPropertyOp37
 70
     1
102
RTVSPropertyOp38
 70
     1
102
RTVSPropertyOp39
 70
     1
102
RTVSPropertyOp40
 70
     1
102
RTVSPropertyOp41
 70
     1
102
RTVSPropertyOp42
 70
     1
102
RTVSPropertyOp43
 70
     1
102
RTVSPropertyOp44
 70
     1
102
RTVSPropertyOp45
 70
     1
102
RTVSPropertyOp46
 70
     1
102
RTVSPropertyOp47
 70
     1
102
RTVSPropertyOp48
 70
     1
102
RTVSPropertyOp49
 70
     1
102
RTVSPropertyOp50
 70
     1
102
RTVSPropertyOp51
 70
     0
102
RTVSPropertyOp52
 70
     0
102
RTVSPropertyOp53
 70
     1
102
RTVSPropertyOp54
 70
     1
102
RTVSPropertyOp55
 70
     1
102
RTVSPropertyOp56
 70
     1
102
RTVSPropertyOp57
 70
     1
102
RTVSPropertyOp58
 70
     1
102
RTVSPropertyOp59
 70
     1
102
RTVSPropertyOp60
 70
     1
102
RTVSPropertyOp61
 70
     1
102
RTVSPropertyOp62
 70
     1
  0
XRECORD
  5
3460
102
{ACAD_REACTORS
330
345F
102
}
330
345F
100
AcDbXrecord
280
     1
102
RTVSPost2010Prop28
280
     0
102
RTVSPost2010PropOp28
 70
     1
102
RTVSPost2010Prop29
280
     1
102
RTVSPost2010PropOp29
 70
     1
102
RTVSPost2010Prop30
280
     1
102
RTVSPost2010PropOp30
 70
     1
102
RTVSPost2010Prop31
280
     0
102
RTVSPost2010PropOp31
 70
     1
102
RTVSPost2010Prop32
280
     0
102
RTVSPost2010PropOp32
 70
     1
102
RTVSPost2010Prop33
280
     0
102
RTVSPost2010PropOp33
 70
     1
102
RTVSPost2010Prop34
280
     0
102
RTVSPost2010PropOp34
 70
     1
102
RTVSPost2010Prop35
280
     0
102
RTVSPost2010PropOp35
 70
     1
102
RTVSPost2010Prop36
280
     0
102
RTVSPost2010PropOp36
 70
     1
102
RTVSPost2010Prop37
 90
       50
102
RTVSPost2010PropOp37
 70
     1
102
RTVSPost2010Prop38
140
0.0
102
RTVSPost2010PropOp38
 70
     1
102
RTVSPost2010Prop39
140
1.0
102
RTVSPost2010PropOp39
 70
     1
102
RTVSPost2010Prop40
 90
        0
102
RTVSPost2010PropOp40
 70
     1
102
RTVSPost2010Prop41ColorIndex
 90
       18
102
RTVSPost2010Prop41ColorRGB
 90
        0
102
RTVSPost2010PropOp41
 70
     1
102
RTVSPost2010Prop42
 90
       50
102
RTVSPost2010PropOp42
 70
     1
102
RTVSPost2010Prop43
 90
        3
102
RTVSPost2010PropOp43
 70
     1
102
RTVSPost2010Prop44ColorIndex
 90
        5
102
RTVSPost2010Prop44ColorRGB
 90
      255
102
RTVSPost2010PropOp44
 70
     1
102
RTVSPost2010Prop45
280
     0
102
RTVSPost2010PropOp45
 70
     1
102
RTVSPost2010Prop46
 90
       50
102
RTVSPost2010PropOp46
 70
     1
102
RTVSPost2010Prop47
 90
       50
102
RTVSPost2010PropOp47
 70
     1
102
RTVSPost2010Prop48
 90
       50
102
RTVSPost2010PropOp48
 70
     1
102
RTVSPost2010Prop49
280
     0
102
RTVSPost2010PropOp49
 70
     1
102
RTVSPost2010Prop50
 90
       50
102
RTVSPost2010PropOp50
 70
     1
102
RTVSPost2010Prop51ColorIndex
 90
      256
102
RTVSPost2010Prop51ColorRGB
 90
-16777216
102
RTVSPost2010PropOp51
 70
     0
102
RTVSPost2010Prop52
140
1.0
102
RTVSPost2010PropOp52
 70
     0
102
RTVSPost2010Prop53
 90
        2
102
RTVSPost2010PropOp53
 70
     1
102
RTVSPost2010Prop54
  1
strokes_ogs.tif
102
RTVSPost2010PropOp54
 70
     1
102
RTVSPost2010Prop55
280
     0
102
RTVSPost2010PropOp55
 70
     1
102
RTVSPost2010Prop56
140
1.0
102
RTVSPost2010PropOp56
 70
     1
102
RTVSPost2010Prop57
140
1.0
102
RTVSPost2010PropOp57
 70
     1
102
RTVSPropertyOp0
 70
     1
102
RTVSPropertyOp1
 70
     1
102
RTVSPropertyOp2
 70
     1
102
RTVSPropertyOp3
 70
     1
102
RTVSPropertyOp4
 70
     1
102
RTVSPropertyOp5
 70
     1
102
RTVSPropertyOp6
 70
     1
102
RTVSPropertyOp7
 70
     1
102
RTVSPropertyOp8
 70
     1
102
RTVSPropertyOp9
 70
     1
102
RTVSPropertyOp10
 70
     1
102
RTVSPropertyOp11
 70
     1
102
RTVSPropertyOp12
 70
     1
102
RTVSPropertyOp13
 70
     1
102
RTVSPropertyOp14
 70
     1
102
RTVSPropertyOp15
 70
     1
102
RTVSPropertyOp16
 70
     1
102
RTVSPropertyOp17
 70
     1
102
RTVSPropertyOp18
 70
     1
102
RTVSPropertyOp19
 70
     1
102
RTVSPropertyOp20
 70
     1
102
RTVSPropertyOp21
 70
     1
102
RTVSPropertyOp22
 70
     1
102
RTVSPropertyOp23
 70
     1
102
RTVSPropertyOp24
 70
     1
102
RTVSPropertyOp25
 70
     1
102
RTVSPropertyOp26
 70
     1
102
RTVSPropertyOp27
 70
     1
102
RTVSPropertyOp28
 70
     1
102
RTVSPropertyOp29
 70
     1
102
RTVSPropertyOp30
 70
     1
102
RTVSPropertyOp31
 70
     1
102
RTVSPropertyOp32
 70
     1
102
RTVSPropertyOp33
 70
     1
102
RTVSPropertyOp34
 70
     1
102
RTVSPropertyOp35
 70
     1
102
RTVSPropertyOp36
 70
     1
102
RTVSPropertyOp37
 70
     1
102
RTVSPropertyOp38
 70
     1
102
RTVSPropertyOp39
 70
     1
102
RTVSPropertyOp40
 70
     1
102
RTVSPropertyOp41
 70
     1
102
RTVSPropertyOp42
 70
     1
102
RTVSPropertyOp43
 70
     1
102
RTVSPropertyOp44
 70
     1
102
RTVSPropertyOp45
 70
     1
102
RTVSPropertyOp46
 70
     1
102
RTVSPropertyOp47
 70
     1
102
RTVSPropertyOp48
 70
     1
102
RTVSPropertyOp49
 70
     1
102
RTVSPropertyOp50
 70
     1
102
RTVSPropertyOp51
 70
     0
102
RTVSPropertyOp52
 70
     0
102
RTVSPropertyOp53
 70
     1
102
RTVSPropertyOp54
 70
     1
102
RTVSPropertyOp55
 70
     1
102
RTVSPropertyOp56
 70
     1
102
RTVSPropertyOp57
 70
     1
102
RTVSPropertyOp58
 70
     1
102
RTVSPropertyOp59
 70
     1
102
RTVSPropertyOp60
 70
     1
102
RTVSPropertyOp61
 70
     1
102
RTVSPropertyOp62
 70
     1
  0
XRECORD
  5
3462
102
{ACAD_REACTORS
330
3461
102
}
330
3461
100
AcDbXrecord
280
     1
102
RTVSPost2010Prop28
280
     0
102
RTVSPost2010PropOp28
 70
     1
102
RTVSPost2010Prop29
280
     1
102
RTVSPost2010PropOp29
 70
     1
102
RTVSPost2010Prop30
280
     1
102
RTVSPost2010PropOp30
 70
     1
102
RTVSPost2010Prop31
280
     0
102
RTVSPost2010PropOp31
 70
     1
102
RTVSPost2010Prop32
280
     0
102
RTVSPost2010PropOp32
 70
     1
102
RTVSPost2010Prop33
280
     0
102
RTVSPost2010PropOp33
 70
     1
102
RTVSPost2010Prop34
280
     0
102
RTVSPost2010PropOp34
 70
     1
102
RTVSPost2010Prop35
280
     0
102
RTVSPost2010PropOp35
 70
     1
102
RTVSPost2010Prop36
280
     0
102
RTVSPost2010PropOp36
 70
     1
102
RTVSPost2010Prop37
 90
       50
102
RTVSPost2010PropOp37
 70
     1
102
RTVSPost2010Prop38
140
0.0
102
RTVSPost2010PropOp38
 70
     1
102
RTVSPost2010Prop39
140
1.0
102
RTVSPost2010PropOp39
 70
     1
102
RTVSPost2010Prop40
 90
        0
102
RTVSPost2010PropOp40
 70
     1
102
RTVSPost2010Prop41ColorIndex
 90
       18
102
RTVSPost2010Prop41ColorRGB
 90
        0
102
RTVSPost2010PropOp41
 70
     1
102
RTVSPost2010Prop42
 90
       50
102
RTVSPost2010PropOp42
 70
     1
102
RTVSPost2010Prop43
 90
        3
102
RTVSPost2010PropOp43
 70
     1
102
RTVSPost2010Prop44ColorIndex
 90
        5
102
RTVSPost2010Prop44ColorRGB
 90
      255
102
RTVSPost2010PropOp44
 70
     1
102
RTVSPost2010Prop45
280
     0
102
RTVSPost2010PropOp45
 70
     1
102
RTVSPost2010Prop46
 90
       50
102
RTVSPost2010PropOp46
 70
     1
102
RTVSPost2010Prop47
 90
       50
102
RTVSPost2010PropOp47
 70
     1
102
RTVSPost2010Prop48
 90
       50
102
RTVSPost2010PropOp48
 70
     1
102
RTVSPost2010Prop49
280
     0
102
RTVSPost2010PropOp49
 70
     1
102
RTVSPost2010Prop50
 90
       50
102
RTVSPost2010PropOp50
 70
     1
102
RTVSPost2010Prop51ColorIndex
 90
      256
102
RTVSPost2010Prop51ColorRGB
 90
-16777216
102
RTVSPost2010PropOp51
 70
     0
102
RTVSPost2010Prop52
140
1.0
102
RTVSPost2010PropOp52
 70
     0
102
RTVSPost2010Prop53
 90
        2
102
RTVSPost2010PropOp53
 70
     1
102
RTVSPost2010Prop54
  1
strokes_ogs.tif
102
RTVSPost2010PropOp54
 70
     1
102
RTVSPost2010Prop55
280
     0
102
RTVSPost2010PropOp55
 70
     1
102
RTVSPost2010Prop56
140
1.0
102
RTVSPost2010PropOp56
 70
     1
102
RTVSPost2010Prop57
140
1.0
102
RTVSPost2010PropOp57
 70
     1
102
RTVSPropertyOp0
 70
     1
102
RTVSPropertyOp1
 70
     1
102
RTVSPropertyOp2
 70
     1
102
RTVSPropertyOp3
 70
     1
102
RTVSPropertyOp4
 70
     1
102
RTVSPropertyOp5
 70
     1
102
RTVSPropertyOp6
 70
     1
102
RTVSPropertyOp7
 70
     1
102
RTVSPropertyOp8
 70
     1
102
RTVSPropertyOp9
 70
     1
102
RTVSPropertyOp10
 70
     1
102
RTVSPropertyOp11
 70
     1
102
RTVSPropertyOp12
 70
     1
102
RTVSPropertyOp13
 70
     1
102
RTVSPropertyOp14
 70
     1
102
RTVSPropertyOp15
 70
     1
102
RTVSPropertyOp16
 70
     1
102
RTVSPropertyOp17
 70
     1
102
RTVSPropertyOp18
 70
     1
102
RTVSPropertyOp19
 70
     1
102
RTVSPropertyOp20
 70
     1
102
RTVSPropertyOp21
 70
     1
102
RTVSPropertyOp22
 70
     1
102
RTVSPropertyOp23
 70
     1
102
RTVSPropertyOp24
 70
     1
102
RTVSPropertyOp25
 70
     1
102
RTVSPropertyOp26
 70
     1
102
RTVSPropertyOp27
 70
     1
102
RTVSPropertyOp28
 70
     1
102
RTVSPropertyOp29
 70
     1
102
RTVSPropertyOp30
 70
     1
102
RTVSPropertyOp31
 70
     1
102
RTVSPropertyOp32
 70
     1
102
RTVSPropertyOp33
 70
     1
102
RTVSPropertyOp34
 70
     1
102
RTVSPropertyOp35
 70
     1
102
RTVSPropertyOp36
 70
     1
102
RTVSPropertyOp37
 70
     1
102
RTVSPropertyOp38
 70
     1
102
RTVSPropertyOp39
 70
     1
102
RTVSPropertyOp40
 70
     1
102
RTVSPropertyOp41
 70
     1
102
RTVSPropertyOp42
 70
     1
102
RTVSPropertyOp43
 70
     1
102
RTVSPropertyOp44
 70
     1
102
RTVSPropertyOp45
 70
     1
102
RTVSPropertyOp46
 70
     1
102
RTVSPropertyOp47
 70
     1
102
RTVSPropertyOp48
 70
     1
102
RTVSPropertyOp49
 70
     1
102
RTVSPropertyOp50
 70
     1
102
RTVSPropertyOp51
 70
     0
102
RTVSPropertyOp52
 70
     0
102
RTVSPropertyOp53
 70
     1
102
RTVSPropertyOp54
 70
     1
102
RTVSPropertyOp55
 70
     1
102
RTVSPropertyOp56
 70
     1
102
RTVSPropertyOp57
 70
     1
102
RTVSPropertyOp58
 70
     1
102
RTVSPropertyOp59
 70
     1
102
RTVSPropertyOp60
 70
     1
102
RTVSPropertyOp61
 70
     1
102
RTVSPropertyOp62
 70
     1
  0
XRECORD
  5
346A
102
{ACAD_REACTORS
330
3469
102
}
330
3469
100
AcDbXrecord
280
     1
102
RTVSPost2010Prop28
280
     0
102
RTVSPost2010PropOp28
 70
     1
102
RTVSPost2010Prop29
280
     1
102
RTVSPost2010PropOp29
 70
     1
102
RTVSPost2010Prop30
280
     1
102
RTVSPost2010PropOp30
 70
     1
102
RTVSPost2010Prop31
280
     0
102
RTVSPost2010PropOp31
 70
     1
102
RTVSPost2010Prop32
280
     0
102
RTVSPost2010PropOp32
 70
     1
102
RTVSPost2010Prop33
280
     0
102
RTVSPost2010PropOp33
 70
     1
102
RTVSPost2010Prop34
280
     0
102
RTVSPost2010PropOp34
 70
     1
102
RTVSPost2010Prop35
280
     0
102
RTVSPost2010PropOp35
 70
     1
102
RTVSPost2010Prop36
280
     0
102
RTVSPost2010PropOp36
 70
     1
102
RTVSPost2010Prop37
 90
       50
102
RTVSPost2010PropOp37
 70
     1
102
RTVSPost2010Prop38
140
0.0
102
RTVSPost2010PropOp38
 70
     1
102
RTVSPost2010Prop39
140
1.0
102
RTVSPost2010PropOp39
 70
     1
102
RTVSPost2010Prop40
 90
        0
102
RTVSPost2010PropOp40
 70
     1
102
RTVSPost2010Prop41ColorIndex
 90
       18
102
RTVSPost2010Prop41ColorRGB
 90
        0
102
RTVSPost2010PropOp41
 70
     1
102
RTVSPost2010Prop42
 90
       50
102
RTVSPost2010PropOp42
 70
     1
102
RTVSPost2010Prop43
 90
        3
102
RTVSPost2010PropOp43
 70
     1
102
RTVSPost2010Prop44ColorIndex
 90
        5
102
RTVSPost2010Prop44ColorRGB
 90
      255
102
RTVSPost2010PropOp44
 70
     1
102
RTVSPost2010Prop45
280
     0
102
RTVSPost2010PropOp45
 70
     1
102
RTVSPost2010Prop46
 90
       50
102
RTVSPost2010PropOp46
 70
     1
102
RTVSPost2010Prop47
 90
       50
102
RTVSPost2010PropOp47
 70
     1
102
RTVSPost2010Prop48
 90
       50
102
RTVSPost2010PropOp48
 70
     1
102
RTVSPost2010Prop49
280
     0
102
RTVSPost2010PropOp49
 70
     1
102
RTVSPost2010Prop50
 90
       50
102
RTVSPost2010PropOp50
 70
     1
102
RTVSPost2010Prop51ColorIndex
 90
      256
102
RTVSPost2010Prop51ColorRGB
 90
-16777216
102
RTVSPost2010PropOp51
 70
     0
102
RTVSPost2010Prop52
140
1.0
102
RTVSPost2010PropOp52
 70
     0
102
RTVSPost2010Prop53
 90
        2
102
RTVSPost2010PropOp53
 70
     1
102
RTVSPost2010Prop54
  1
strokes_ogs.tif
102
RTVSPost2010PropOp54
 70
     1
102
RTVSPost2010Prop55
280
     0
102
RTVSPost2010PropOp55
 70
     1
102
RTVSPost2010Prop56
140
1.0
102
RTVSPost2010PropOp56
 70
     1
102
RTVSPost2010Prop57
140
1.0
102
RTVSPost2010PropOp57
 70
     1
102
RTVSPropertyOp0
 70
     1
102
RTVSPropertyOp1
 70
     1
102
RTVSPropertyOp2
 70
     1
102
RTVSPropertyOp3
 70
     1
102
RTVSPropertyOp4
 70
     1
102
RTVSPropertyOp5
 70
     1
102
RTVSPropertyOp6
 70
     1
102
RTVSPropertyOp7
 70
     1
102
RTVSPropertyOp8
 70
     1
102
RTVSPropertyOp9
 70
     1
102
RTVSPropertyOp10
 70
     1
102
RTVSPropertyOp11
 70
     1
102
RTVSPropertyOp12
 70
     1
102
RTVSPropertyOp13
 70
     1
102
RTVSPropertyOp14
 70
     1
102
RTVSPropertyOp15
 70
     1
102
RTVSPropertyOp16
 70
     1
102
RTVSPropertyOp17
 70
     1
102
RTVSPropertyOp18
 70
     1
102
RTVSPropertyOp19
 70
     1
102
RTVSPropertyOp20
 70
     1
102
RTVSPropertyOp21
 70
     1
102
RTVSPropertyOp22
 70
     1
102
RTVSPropertyOp23
 70
     1
102
RTVSPropertyOp24
 70
     1
102
RTVSPropertyOp25
 70
     1
102
RTVSPropertyOp26
 70
     1
102
RTVSPropertyOp27
 70
     1
102
RTVSPropertyOp28
 70
     1
102
RTVSPropertyOp29
 70
     1
102
RTVSPropertyOp30
 70
     1
102
RTVSPropertyOp31
 70
     1
102
RTVSPropertyOp32
 70
     1
102
RTVSPropertyOp33
 70
     1
102
RTVSPropertyOp34
 70
     1
102
RTVSPropertyOp35
 70
     1
102
RTVSPropertyOp36
 70
     1
102
RTVSPropertyOp37
 70
     1
102
RTVSPropertyOp38
 70
     1
102
RTVSPropertyOp39
 70
     1
102
RTVSPropertyOp40
 70
     1
102
RTVSPropertyOp41
 70
     1
102
RTVSPropertyOp42
 70
     1
102
RTVSPropertyOp43
 70
     1
102
RTVSPropertyOp44
 70
     1
102
RTVSPropertyOp45
 70
     1
102
RTVSPropertyOp46
 70
     1
102
RTVSPropertyOp47
 70
     1
102
RTVSPropertyOp48
 70
     1
102
RTVSPropertyOp49
 70
     1
102
RTVSPropertyOp50
 70
     1
102
RTVSPropertyOp51
 70
     0
102
RTVSPropertyOp52
 70
     0
102
RTVSPropertyOp53
 70
     1
102
RTVSPropertyOp54
 70
     1
102
RTVSPropertyOp55
 70
     1
102
RTVSPropertyOp56
 70
     1
102
RTVSPropertyOp57
 70
     1
102
RTVSPropertyOp58
 70
     1
102
RTVSPropertyOp59
 70
     1
102
RTVSPropertyOp60
 70
     1
102
RTVSPropertyOp61
 70
     1
102
RTVSPropertyOp62
 70
     1
  0
XRECORD
  5
347E
102
{ACAD_REACTORS
330
347D
102
}
330
347D
100
AcDbXrecord
280
     1
102
RTVSPost2010Prop28
280
     0
102
RTVSPost2010PropOp28
 70
     1
102
RTVSPost2010Prop29
280
     1
102
RTVSPost2010PropOp29
 70
     1
102
RTVSPost2010Prop30
280
     1
102
RTVSPost2010PropOp30
 70
     1
102
RTVSPost2010Prop31
280
     0
102
RTVSPost2010PropOp31
 70
     1
102
RTVSPost2010Prop32
280
     0
102
RTVSPost2010PropOp32
 70
     1
102
RTVSPost2010Prop33
280
     0
102
RTVSPost2010PropOp33
 70
     1
102
RTVSPost2010Prop34
280
     0
102
RTVSPost2010PropOp34
 70
     1
102
RTVSPost2010Prop35
280
     0
102
RTVSPost2010PropOp35
 70
     1
102
RTVSPost2010Prop36
280
     0
102
RTVSPost2010PropOp36
 70
     1
102
RTVSPost2010Prop37
 90
       50
102
RTVSPost2010PropOp37
 70
     1
102
RTVSPost2010Prop38
140
0.0
102
RTVSPost2010PropOp38
 70
     1
102
RTVSPost2010Prop39
140
1.0
102
RTVSPost2010PropOp39
 70
     1
102
RTVSPost2010Prop40
 90
        0
102
RTVSPost2010PropOp40
 70
     1
102
RTVSPost2010Prop41ColorIndex
 90
       18
102
RTVSPost2010Prop41ColorRGB
 90
        0
102
RTVSPost2010PropOp41
 70
     1
102
RTVSPost2010Prop42
 90
       50
102
RTVSPost2010PropOp42
 70
     1
102
RTVSPost2010Prop43
 90
        3
102
RTVSPost2010PropOp43
 70
     1
102
RTVSPost2010Prop44ColorIndex
 90
        5
102
RTVSPost2010Prop44ColorRGB
 90
      255
102
RTVSPost2010PropOp44
 70
     1
102
RTVSPost2010Prop45
280
     0
102
RTVSPost2010PropOp45
 70
     1
102
RTVSPost2010Prop46
 90
       50
102
RTVSPost2010PropOp46
 70
     1
102
RTVSPost2010Prop47
 90
       50
102
RTVSPost2010PropOp47
 70
     1
102
RTVSPost2010Prop48
 90
       50
102
RTVSPost2010PropOp48
 70
     1
102
RTVSPost2010Prop49
280
     0
102
RTVSPost2010PropOp49
 70
     1
102
RTVSPost2010Prop50
 90
       50
102
RTVSPost2010PropOp50
 70
     1
102
RTVSPost2010Prop51ColorIndex
 90
      256
102
RTVSPost2010Prop51ColorRGB
 90
-16777216
102
RTVSPost2010PropOp51
 70
     0
102
RTVSPost2010Prop52
140
1.0
102
RTVSPost2010PropOp52
 70
     0
102
RTVSPost2010Prop53
 90
        2
102
RTVSPost2010PropOp53
 70
     1
102
RTVSPost2010Prop54
  1
strokes_ogs.tif
102
RTVSPost2010PropOp54
 70
     1
102
RTVSPost2010Prop55
280
     0
102
RTVSPost2010PropOp55
 70
     1
102
RTVSPost2010Prop56
140
1.0
102
RTVSPost2010PropOp56
 70
     1
102
RTVSPost2010Prop57
140
1.0
102
RTVSPost2010PropOp57
 70
     1
102
RTVSPropertyOp0
 70
     0
102
RTVSPropertyOp1
 70
     0
102
RTVSPropertyOp2
 70
     0
102
RTVSPropertyOp3
 70
     0
102
RTVSPropertyOp4
 70
     0
102
RTVSPropertyOp5
 70
     0
102
RTVSPropertyOp6
 70
     0
102
RTVSPropertyOp7
 70
     0
102
RTVSPropertyOp8
 70
     0
102
RTVSPropertyOp9
 70
     0
102
RTVSPropertyOp10
 70
     0
102
RTVSPropertyOp11
 70
     0
102
RTVSPropertyOp12
 70
     0
102
RTVSPropertyOp13
 70
     0
102
RTVSPropertyOp14
 70
     2
102
RTVSPropertyOp15
 70
     0
102
RTVSPropertyOp16
 70
     0
102
RTVSPropertyOp17
 70
     0
102
RTVSPropertyOp18
 70
     0
102
RTVSPropertyOp19
 70
     0
102
RTVSPropertyOp20
 70
     0
102
RTVSPropertyOp21
 70
     0
102
RTVSPropertyOp22
 70
     0
102
RTVSPropertyOp23
 70
     0
102
RTVSPropertyOp24
 70
     0
102
RTVSPropertyOp25
 70
     0
102
RTVSPropertyOp26
 70
     0
102
RTVSPropertyOp27
 70
     0
102
RTVSPropertyOp28
 70
     1
102
RTVSPropertyOp29
 70
     1
102
RTVSPropertyOp30
 70
     1
102
RTVSPropertyOp31
 70
     1
102
RTVSPropertyOp32
 70
     1
102
RTVSPropertyOp33
 70
     1
102
RTVSPropertyOp34
 70
     1
102
RTVSPropertyOp35
 70
     1
102
RTVSPropertyOp36
 70
     1
102
RTVSPropertyOp37
 70
     1
102
RTVSPropertyOp38
 70
     1
102
RTVSPropertyOp39
 70
     1
102
RTVSPropertyOp40
 70
     1
102
RTVSPropertyOp41
 70
     1
102
RTVSPropertyOp42
 70
     1
102
RTVSPropertyOp43
 70
     1
102
RTVSPropertyOp44
 70
     1
102
RTVSPropertyOp45
 70
     1
102
RTVSPropertyOp46
 70
     1
102
RTVSPropertyOp47
 70
     1
102
RTVSPropertyOp48
 70
     1
102
RTVSPropertyOp49
 70
     1
102
RTVSPropertyOp50
 70
     1
102
RTVSPropertyOp51
 70
     0
102
RTVSPropertyOp52
 70
     0
102
RTVSPropertyOp53
 70
     1
102
RTVSPropertyOp54
 70
     1
102
RTVSPropertyOp55
 70
     1
102
RTVSPropertyOp56
 70
     1
102
RTVSPropertyOp57
 70
     1
102
RTVSPropertyOp58
 70
     1
102
RTVSPropertyOp59
 70
     1
102
RTVSPropertyOp60
 70
     1
102
RTVSPropertyOp61
 70
     1
102
RTVSPropertyOp62
 70
     1
  0
XRECORD
  5
3476
102
{ACAD_REACTORS
330
3475
102
}
330
3475
100
AcDbXrecord
280
     1
102
RTVSPost2010Prop28
280
     0
102
RTVSPost2010PropOp28
 70
     1
102
RTVSPost2010Prop29
280
     1
102
RTVSPost2010PropOp29
 70
     1
102
RTVSPost2010Prop30
280
     1
102
RTVSPost2010PropOp30
 70
     1
102
RTVSPost2010Prop31
280
     0
102
RTVSPost2010PropOp31
 70
     1
102
RTVSPost2010Prop32
280
     0
102
RTVSPost2010PropOp32
 70
     1
102
RTVSPost2010Prop33
280
     0
102
RTVSPost2010PropOp33
 70
     1
102
RTVSPost2010Prop34
280
     0
102
RTVSPost2010PropOp34
 70
     1
102
RTVSPost2010Prop35
280
     0
102
RTVSPost2010PropOp35
 70
     1
102
RTVSPost2010Prop36
280
     0
102
RTVSPost2010PropOp36
 70
     1
102
RTVSPost2010Prop37
 90
       50
102
RTVSPost2010PropOp37
 70
     1
102
RTVSPost2010Prop38
140
0.0
102
RTVSPost2010PropOp38
 70
     1
102
RTVSPost2010Prop39
140
1.0
102
RTVSPost2010PropOp39
 70
     1
102
RTVSPost2010Prop40
 90
        0
102
RTVSPost2010PropOp40
 70
     1
102
RTVSPost2010Prop41ColorIndex
 90
       18
102
RTVSPost2010Prop41ColorRGB
 90
        0
102
RTVSPost2010PropOp41
 70
     1
102
RTVSPost2010Prop42
 90
       50
102
RTVSPost2010PropOp42
 70
     1
102
RTVSPost2010Prop43
 90
        3
102
RTVSPost2010PropOp43
 70
     1
102
RTVSPost2010Prop44ColorIndex
 90
        5
102
RTVSPost2010Prop44ColorRGB
 90
      255
102
RTVSPost2010PropOp44
 70
     1
102
RTVSPost2010Prop45
280
     0
102
RTVSPost2010PropOp45
 70
     1
102
RTVSPost2010Prop46
 90
       50
102
RTVSPost2010PropOp46
 70
     1
102
RTVSPost2010Prop47
 90
       50
102
RTVSPost2010PropOp47
 70
     1
102
RTVSPost2010Prop48
 90
       50
102
RTVSPost2010PropOp48
 70
     1
102
RTVSPost2010Prop49
280
     0
102
RTVSPost2010PropOp49
 70
     1
102
RTVSPost2010Prop50
 90
       50
102
RTVSPost2010PropOp50
 70
     1
102
RTVSPost2010Prop51ColorIndex
 90
      256
102
RTVSPost2010Prop51ColorRGB
 90
-16777216
102
RTVSPost2010PropOp51
 70
     0
102
RTVSPost2010Prop52
140
1.0
102
RTVSPost2010PropOp52
 70
     0
102
RTVSPost2010Prop53
 90
        2
102
RTVSPost2010PropOp53
 70
     1
102
RTVSPost2010Prop54
  1
strokes_ogs.tif
102
RTVSPost2010PropOp54
 70
     1
102
RTVSPost2010Prop55
280
     0
102
RTVSPost2010PropOp55
 70
     1
102
RTVSPost2010Prop56
140
1.0
102
RTVSPost2010PropOp56
 70
     1
102
RTVSPost2010Prop57
140
1.0
102
RTVSPost2010PropOp57
 70
     1
102
RTVSPropertyOp0
 70
     1
102
RTVSPropertyOp1
 70
     1
102
RTVSPropertyOp2
 70
     1
102
RTVSPropertyOp3
 70
     1
102
RTVSPropertyOp4
 70
     1
102
RTVSPropertyOp5
 70
     1
102
RTVSPropertyOp6
 70
     1
102
RTVSPropertyOp7
 70
     1
102
RTVSPropertyOp8
 70
     1
102
RTVSPropertyOp9
 70
     1
102
RTVSPropertyOp10
 70
     1
102
RTVSPropertyOp11
 70
     1
102
RTVSPropertyOp12
 70
     1
102
RTVSPropertyOp13
 70
     1
102
RTVSPropertyOp14
 70
     1
102
RTVSPropertyOp15
 70
     1
102
RTVSPropertyOp16
 70
     1
102
RTVSPropertyOp17
 70
     1
102
RTVSPropertyOp18
 70
     1
102
RTVSPropertyOp19
 70
     1
102
RTVSPropertyOp20
 70
     1
102
RTVSPropertyOp21
 70
     1
102
RTVSPropertyOp22
 70
     1
102
RTVSPropertyOp23
 70
     1
102
RTVSPropertyOp24
 70
     1
102
RTVSPropertyOp25
 70
     1
102
RTVSPropertyOp26
 70
     1
102
RTVSPropertyOp27
 70
     1
102
RTVSPropertyOp28
 70
     1
102
RTVSPropertyOp29
 70
     1
102
RTVSPropertyOp30
 70
     1
102
RTVSPropertyOp31
 70
     1
102
RTVSPropertyOp32
 70
     1
102
RTVSPropertyOp33
 70
     1
102
RTVSPropertyOp34
 70
     1
102
RTVSPropertyOp35
 70
     1
102
RTVSPropertyOp36
 70
     1
102
RTVSPropertyOp37
 70
     1
102
RTVSPropertyOp38
 70
     1
102
RTVSPropertyOp39
 70
     1
102
RTVSPropertyOp40
 70
     1
102
RTVSPropertyOp41
 70
     1
102
RTVSPropertyOp42
 70
     1
102
RTVSPropertyOp43
 70
     1
102
RTVSPropertyOp44
 70
     1
102
RTVSPropertyOp45
 70
     1
102
RTVSPropertyOp46
 70
     1
102
RTVSPropertyOp47
 70
     1
102
RTVSPropertyOp48
 70
     1
102
RTVSPropertyOp49
 70
     1
102
RTVSPropertyOp50
 70
     1
102
RTVSPropertyOp51
 70
     0
102
RTVSPropertyOp52
 70
     0
102
RTVSPropertyOp53
 70
     1
102
RTVSPropertyOp54
 70
     1
102
RTVSPropertyOp55
 70
     1
102
RTVSPropertyOp56
 70
     1
102
RTVSPropertyOp57
 70
     1
102
RTVSPropertyOp58
 70
     1
102
RTVSPropertyOp59
 70
     1
102
RTVSPropertyOp60
 70
     1
102
RTVSPropertyOp61
 70
     1
102
RTVSPropertyOp62
 70
     1
  0
XRECORD
  5
3480
102
{ACAD_REACTORS
330
347F
102
}
330
347F
100
AcDbXrecord
280
     1
102
RTVSPost2010Prop28
280
     0
102
RTVSPost2010PropOp28
 70
     1
102
RTVSPost2010Prop29
280
     1
102
RTVSPost2010PropOp29
 70
     1
102
RTVSPost2010Prop30
280
     1
102
RTVSPost2010PropOp30
 70
     1
102
RTVSPost2010Prop31
280
     0
102
RTVSPost2010PropOp31
 70
     1
102
RTVSPost2010Prop32
280
     0
102
RTVSPost2010PropOp32
 70
     1
102
RTVSPost2010Prop33
280
     0
102
RTVSPost2010PropOp33
 70
     1
102
RTVSPost2010Prop34
280
     0
102
RTVSPost2010PropOp34
 70
     1
102
RTVSPost2010Prop35
280
     0
102
RTVSPost2010PropOp35
 70
     1
102
RTVSPost2010Prop36
280
     0
102
RTVSPost2010PropOp36
 70
     1
102
RTVSPost2010Prop37
 90
       50
102
RTVSPost2010PropOp37
 70
     1
102
RTVSPost2010Prop38
140
0.0
102
RTVSPost2010PropOp38
 70
     1
102
RTVSPost2010Prop39
140
1.0
102
RTVSPost2010PropOp39
 70
     1
102
RTVSPost2010Prop40
 90
        0
102
RTVSPost2010PropOp40
 70
     1
102
RTVSPost2010Prop41ColorIndex
 90
       18
102
RTVSPost2010Prop41ColorRGB
 90
        0
102
RTVSPost2010PropOp41
 70
     1
102
RTVSPost2010Prop42
 90
       50
102
RTVSPost2010PropOp42
 70
     1
102
RTVSPost2010Prop43
 90
        3
102
RTVSPost2010PropOp43
 70
     1
102
RTVSPost2010Prop44ColorIndex
 90
        5
102
RTVSPost2010Prop44ColorRGB
 90
      255
102
RTVSPost2010PropOp44
 70
     1
102
RTVSPost2010Prop45
280
     0
102
RTVSPost2010PropOp45
 70
     1
102
RTVSPost2010Prop46
 90
       50
102
RTVSPost2010PropOp46
 70
     1
102
RTVSPost2010Prop47
 90
       50
102
RTVSPost2010PropOp47
 70
     1
102
RTVSPost2010Prop48
 90
       50
102
RTVSPost2010PropOp48
 70
     1
102
RTVSPost2010Prop49
280
     0
102
RTVSPost2010PropOp49
 70
     1
102
RTVSPost2010Prop50
 90
       50
102
RTVSPost2010PropOp50
 70
     1
102
RTVSPost2010Prop51ColorIndex
 90
      256
102
RTVSPost2010Prop51ColorRGB
 90
-16777216
102
RTVSPost2010PropOp51
 70
     0
102
RTVSPost2010Prop52
140
1.0
102
RTVSPost2010PropOp52
 70
     0
102
RTVSPost2010Prop53
 90
        2
102
RTVSPost2010PropOp53
 70
     1
102
RTVSPost2010Prop54
  1
strokes_ogs.tif
102
RTVSPost2010PropOp54
 70
     1
102
RTVSPost2010Prop55
280
     0
102
RTVSPost2010PropOp55
 70
     1
102
RTVSPost2010Prop56
140
1.0
102
RTVSPost2010PropOp56
 70
     1
102
RTVSPost2010Prop57
140
1.0
102
RTVSPost2010PropOp57
 70
     1
102
RTVSPropertyOp0
 70
     0
102
RTVSPropertyOp1
 70
     0
102
RTVSPropertyOp2
 70
     0
102
RTVSPropertyOp3
 70
     0
102
RTVSPropertyOp4
 70
     0
102
RTVSPropertyOp5
 70
     0
102
RTVSPropertyOp6
 70
     0
102
RTVSPropertyOp7
 70
     0
102
RTVSPropertyOp8
 70
     0
102
RTVSPropertyOp9
 70
     0
102
RTVSPropertyOp10
 70
     0
102
RTVSPropertyOp11
 70
     0
102
RTVSPropertyOp12
 70
     0
102
RTVSPropertyOp13
 70
     0
102
RTVSPropertyOp14
 70
     2
102
RTVSPropertyOp15
 70
     0
102
RTVSPropertyOp16
 70
     0
102
RTVSPropertyOp17
 70
     0
102
RTVSPropertyOp18
 70
     0
102
RTVSPropertyOp19
 70
     0
102
RTVSPropertyOp20
 70
     0
102
RTVSPropertyOp21
 70
     0
102
RTVSPropertyOp22
 70
     0
102
RTVSPropertyOp23
 70
     0
102
RTVSPropertyOp24
 70
     0
102
RTVSPropertyOp25
 70
     0
102
RTVSPropertyOp26
 70
     0
102
RTVSPropertyOp27
 70
     0
102
RTVSPropertyOp28
 70
     1
102
RTVSPropertyOp29
 70
     1
102
RTVSPropertyOp30
 70
     1
102
RTVSPropertyOp31
 70
     1
102
RTVSPropertyOp32
 70
     1
102
RTVSPropertyOp33
 70
     1
102
RTVSPropertyOp34
 70
     1
102
RTVSPropertyOp35
 70
     1
102
RTVSPropertyOp36
 70
     1
102
RTVSPropertyOp37
 70
     1
102
RTVSPropertyOp38
 70
     1
102
RTVSPropertyOp39
 70
     1
102
RTVSPropertyOp40
 70
     1
102
RTVSPropertyOp41
 70
     1
102
RTVSPropertyOp42
 70
     1
102
RTVSPropertyOp43
 70
     1
102
RTVSPropertyOp44
 70
     1
102
RTVSPropertyOp45
 70
     1
102
RTVSPropertyOp46
 70
     1
102
RTVSPropertyOp47
 70
     1
102
RTVSPropertyOp48
 70
     1
102
RTVSPropertyOp49
 70
     1
102
RTVSPropertyOp50
 70
     1
102
RTVSPropertyOp51
 70
     0
102
RTVSPropertyOp52
 70
     0
102
RTVSPropertyOp53
 70
     1
102
RTVSPropertyOp54
 70
     1
102
RTVSPropertyOp55
 70
     1
102
RTVSPropertyOp56
 70
     1
102
RTVSPropertyOp57
 70
     1
102
RTVSPropertyOp58
 70
     1
102
RTVSPropertyOp59
 70
     1
102
RTVSPropertyOp60
 70
     1
102
RTVSPropertyOp61
 70
     1
102
RTVSPropertyOp62
 70
     1
  0
XRECORD
  5
346E
102
{ACAD_REACTORS
330
346D
102
}
330
346D
100
AcDbXrecord
280
     1
102
RTVSPost2010Prop28
280
     0
102
RTVSPost2010PropOp28
 70
     1
102
RTVSPost2010Prop29
280
     1
102
RTVSPost2010PropOp29
 70
     1
102
RTVSPost2010Prop30
280
     1
102
RTVSPost2010PropOp30
 70
     1
102
RTVSPost2010Prop31
280
     0
102
RTVSPost2010PropOp31
 70
     1
102
RTVSPost2010Prop32
280
     0
102
RTVSPost2010PropOp32
 70
     1
102
RTVSPost2010Prop33
280
     0
102
RTVSPost2010PropOp33
 70
     1
102
RTVSPost2010Prop34
280
     0
102
RTVSPost2010PropOp34
 70
     1
102
RTVSPost2010Prop35
280
     0
102
RTVSPost2010PropOp35
 70
     1
102
RTVSPost2010Prop36
280
     0
102
RTVSPost2010PropOp36
 70
     1
102
RTVSPost2010Prop37
 90
       50
102
RTVSPost2010PropOp37
 70
     1
102
RTVSPost2010Prop38
140
0.0
102
RTVSPost2010PropOp38
 70
     1
102
RTVSPost2010Prop39
140
1.0
102
RTVSPost2010PropOp39
 70
     1
102
RTVSPost2010Prop40
 90
        0
102
RTVSPost2010PropOp40
 70
     1
102
RTVSPost2010Prop41ColorIndex
 90
       18
102
RTVSPost2010Prop41ColorRGB
 90
        0
102
RTVSPost2010PropOp41
 70
     1
102
RTVSPost2010Prop42
 90
       50
102
RTVSPost2010PropOp42
 70
     1
102
RTVSPost2010Prop43
 90
        3
102
RTVSPost2010PropOp43
 70
     1
102
RTVSPost2010Prop44ColorIndex
 90
        5
102
RTVSPost2010Prop44ColorRGB
 90
      255
102
RTVSPost2010PropOp44
 70
     1
102
RTVSPost2010Prop45
280
     0
102
RTVSPost2010PropOp45
 70
     1
102
RTVSPost2010Prop46
 90
       50
102
RTVSPost2010PropOp46
 70
     1
102
RTVSPost2010Prop47
 90
       50
102
RTVSPost2010PropOp47
 70
     1
102
RTVSPost2010Prop48
 90
       50
102
RTVSPost2010PropOp48
 70
     1
102
RTVSPost2010Prop49
280
     0
102
RTVSPost2010PropOp49
 70
     1
102
RTVSPost2010Prop50
 90
       50
102
RTVSPost2010PropOp50
 70
     1
102
RTVSPost2010Prop51ColorIndex
 90
      256
102
RTVSPost2010Prop51ColorRGB
 90
-16777216
102
RTVSPost2010PropOp51
 70
     0
102
RTVSPost2010Prop52
140
1.0
102
RTVSPost2010PropOp52
 70
     0
102
RTVSPost2010Prop53
 90
        2
102
RTVSPost2010PropOp53
 70
     1
102
RTVSPost2010Prop54
  1
strokes_ogs.tif
102
RTVSPost2010PropOp54
 70
     1
102
RTVSPost2010Prop55
280
     0
102
RTVSPost2010PropOp55
 70
     1
102
RTVSPost2010Prop56
140
1.0
102
RTVSPost2010PropOp56
 70
     1
102
RTVSPost2010Prop57
140
1.0
102
RTVSPost2010PropOp57
 70
     1
102
RTVSPropertyOp0
 70
     1
102
RTVSPropertyOp1
 70
     1
102
RTVSPropertyOp2
 70
     1
102
RTVSPropertyOp3
 70
     1
102
RTVSPropertyOp4
 70
     1
102
RTVSPropertyOp5
 70
     1
102
RTVSPropertyOp6
 70
     1
102
RTVSPropertyOp7
 70
     1
102
RTVSPropertyOp8
 70
     1
102
RTVSPropertyOp9
 70
     1
102
RTVSPropertyOp10
 70
     1
102
RTVSPropertyOp11
 70
     1
102
RTVSPropertyOp12
 70
     1
102
RTVSPropertyOp13
 70
     1
102
RTVSPropertyOp14
 70
     1
102
RTVSPropertyOp15
 70
     1
102
RTVSPropertyOp16
 70
     1
102
RTVSPropertyOp17
 70
     1
102
RTVSPropertyOp18
 70
     1
102
RTVSPropertyOp19
 70
     1
102
RTVSPropertyOp20
 70
     1
102
RTVSPropertyOp21
 70
     1
102
RTVSPropertyOp22
 70
     1
102
RTVSPropertyOp23
 70
     1
102
RTVSPropertyOp24
 70
     1
102
RTVSPropertyOp25
 70
     1
102
RTVSPropertyOp26
 70
     1
102
RTVSPropertyOp27
 70
     1
102
RTVSPropertyOp28
 70
     1
102
RTVSPropertyOp29
 70
     1
102
RTVSPropertyOp30
 70
     1
102
RTVSPropertyOp31
 70
     1
102
RTVSPropertyOp32
 70
     1
102
RTVSPropertyOp33
 70
     1
102
RTVSPropertyOp34
 70
     1
102
RTVSPropertyOp35
 70
     1
102
RTVSPropertyOp36
 70
     1
102
RTVSPropertyOp37
 70
     1
102
RTVSPropertyOp38
 70
     1
102
RTVSPropertyOp39
 70
     1
102
RTVSPropertyOp40
 70
     1
102
RTVSPropertyOp41
 70
     1
102
RTVSPropertyOp42
 70
     1
102
RTVSPropertyOp43
 70
     1
102
RTVSPropertyOp44
 70
     1
102
RTVSPropertyOp45
 70
     1
102
RTVSPropertyOp46
 70
     1
102
RTVSPropertyOp47
 70
     1
102
RTVSPropertyOp48
 70
     1
102
RTVSPropertyOp49
 70
     1
102
RTVSPropertyOp50
 70
     1
102
RTVSPropertyOp51
 70
     0
102
RTVSPropertyOp52
 70
     0
102
RTVSPropertyOp53
 70
     1
102
RTVSPropertyOp54
 70
     1
102
RTVSPropertyOp55
 70
     1
102
RTVSPropertyOp56
 70
     1
102
RTVSPropertyOp57
 70
     1
102
RTVSPropertyOp58
 70
     1
102
RTVSPropertyOp59
 70
     1
102
RTVSPropertyOp60
 70
     1
102
RTVSPropertyOp61
 70
     1
102
RTVSPropertyOp62
 70
     1
  0
XRECORD
  5
348C
102
{ACAD_REACTORS
330
348B
102
}
330
348B
100
AcDbXrecord
280
     1
102
RTVSPost2010Prop28
280
     0
102
RTVSPost2010PropOp28
 70
     1
102
RTVSPost2010Prop29
280
     1
102
RTVSPost2010PropOp29
 70
     1
102
RTVSPost2010Prop30
280
     1
102
RTVSPost2010PropOp30
 70
     1
102
RTVSPost2010Prop31
280
     0
102
RTVSPost2010PropOp31
 70
     1
102
RTVSPost2010Prop32
280
     0
102
RTVSPost2010PropOp32
 70
     1
102
RTVSPost2010Prop33
280
     0
102
RTVSPost2010PropOp33
 70
     1
102
RTVSPost2010Prop34
280
     0
102
RTVSPost2010PropOp34
 70
     1
102
RTVSPost2010Prop35
280
     0
102
RTVSPost2010PropOp35
 70
     1
102
RTVSPost2010Prop36
280
     0
102
RTVSPost2010PropOp36
 70
     1
102
RTVSPost2010Prop37
 90
       50
102
RTVSPost2010PropOp37
 70
     1
102
RTVSPost2010Prop38
140
0.0
102
RTVSPost2010PropOp38
 70
     1
102
RTVSPost2010Prop39
140
1.0
102
RTVSPost2010PropOp39
 70
     1
102
RTVSPost2010Prop40
 90
        0
102
RTVSPost2010PropOp40
 70
     1
102
RTVSPost2010Prop41ColorIndex
 90
       18
102
RTVSPost2010Prop41ColorRGB
 90
        0
102
RTVSPost2010PropOp41
 70
     1
102
RTVSPost2010Prop42
 90
       50
102
RTVSPost2010PropOp42
 70
     1
102
RTVSPost2010Prop43
 90
        3
102
RTVSPost2010PropOp43
 70
     1
102
RTVSPost2010Prop44ColorIndex
 90
        5
102
RTVSPost2010Prop44ColorRGB
 90
      255
102
RTVSPost2010PropOp44
 70
     1
102
RTVSPost2010Prop45
280
     0
102
RTVSPost2010PropOp45
 70
     1
102
RTVSPost2010Prop46
 90
       50
102
RTVSPost2010PropOp46
 70
     1
102
RTVSPost2010Prop47
 90
       50
102
RTVSPost2010PropOp47
 70
     1
102
RTVSPost2010Prop48
 90
       50
102
RTVSPost2010PropOp48
 70
     1
102
RTVSPost2010Prop49
280
     0
102
RTVSPost2010PropOp49
 70
     1
102
RTVSPost2010Prop50
 90
       50
102
RTVSPost2010PropOp50
 70
     1
102
RTVSPost2010Prop51ColorIndex
 90
      256
102
RTVSPost2010Prop51ColorRGB
 90
-16777216
102
RTVSPost2010PropOp51
 70
     0
102
RTVSPost2010Prop52
140
1.0
102
RTVSPost2010PropOp52
 70
     0
102
RTVSPost2010Prop53
 90
        2
102
RTVSPost2010PropOp53
 70
     1
102
RTVSPost2010Prop54
  1
strokes_ogs.tif
102
RTVSPost2010PropOp54
 70
     1
102
RTVSPost2010Prop55
280
     0
102
RTVSPost2010PropOp55
 70
     1
102
RTVSPost2010Prop56
140
1.0
102
RTVSPost2010PropOp56
 70
     1
102
RTVSPost2010Prop57
140
1.0
102
RTVSPost2010PropOp57
 70
     1
102
RTVSPropertyOp0
 70
     1
102
RTVSPropertyOp1
 70
     1
102
RTVSPropertyOp2
 70
     1
102
RTVSPropertyOp3
 70
     1
102
RTVSPropertyOp4
 70
     1
102
RTVSPropertyOp5
 70
     1
102
RTVSPropertyOp6
 70
     1
102
RTVSPropertyOp7
 70
     1
102
RTVSPropertyOp8
 70
     1
102
RTVSPropertyOp9
 70
     1
102
RTVSPropertyOp10
 70
     1
102
RTVSPropertyOp11
 70
     1
102
RTVSPropertyOp12
 70
     1
102
RTVSPropertyOp13
 70
     1
102
RTVSPropertyOp14
 70
     1
102
RTVSPropertyOp15
 70
     1
102
RTVSPropertyOp16
 70
     1
102
RTVSPropertyOp17
 70
     1
102
RTVSPropertyOp18
 70
     1
102
RTVSPropertyOp19
 70
     1
102
RTVSPropertyOp20
 70
     1
102
RTVSPropertyOp21
 70
     1
102
RTVSPropertyOp22
 70
     1
102
RTVSPropertyOp23
 70
     1
102
RTVSPropertyOp24
 70
     1
102
RTVSPropertyOp25
 70
     1
102
RTVSPropertyOp26
 70
     1
102
RTVSPropertyOp27
 70
     1
102
RTVSPropertyOp28
 70
     1
102
RTVSPropertyOp29
 70
     1
102
RTVSPropertyOp30
 70
     1
102
RTVSPropertyOp31
 70
     1
102
RTVSPropertyOp32
 70
     1
102
RTVSPropertyOp33
 70
     1
102
RTVSPropertyOp34
 70
     1
102
RTVSPropertyOp35
 70
     1
102
RTVSPropertyOp36
 70
     1
102
RTVSPropertyOp37
 70
     1
102
RTVSPropertyOp38
 70
     1
102
RTVSPropertyOp39
 70
     1
102
RTVSPropertyOp40
 70
     1
102
RTVSPropertyOp41
 70
     1
102
RTVSPropertyOp42
 70
     1
102
RTVSPropertyOp43
 70
     1
102
RTVSPropertyOp44
 70
     1
102
RTVSPropertyOp45
 70
     1
102
RTVSPropertyOp46
 70
     1
102
RTVSPropertyOp47
 70
     1
102
RTVSPropertyOp48
 70
     1
102
RTVSPropertyOp49
 70
     1
102
RTVSPropertyOp50
 70
     1
102
RTVSPropertyOp51
 70
     0
102
RTVSPropertyOp52
 70
     0
102
RTVSPropertyOp53
 70
     1
102
RTVSPropertyOp54
 70
     1
102
RTVSPropertyOp55
 70
     1
102
RTVSPropertyOp56
 70
     1
102
RTVSPropertyOp57
 70
     1
102
RTVSPropertyOp58
 70
     1
102
RTVSPropertyOp59
 70
     1
102
RTVSPropertyOp60
 70
     1
102
RTVSPropertyOp61
 70
     1
102
RTVSPropertyOp62
 70
     1
  0
XRECORD
  5
348A
102
{ACAD_REACTORS
330
3489
102
}
330
3489
100
AcDbXrecord
280
     1
102
RTVSPost2010Prop28
280
     0
102
RTVSPost2010PropOp28
 70
     1
102
RTVSPost2010Prop29
280
     1
102
RTVSPost2010PropOp29
 70
     1
102
RTVSPost2010Prop30
280
     1
102
RTVSPost2010PropOp30
 70
     1
102
RTVSPost2010Prop31
280
     0
102
RTVSPost2010PropOp31
 70
     1
102
RTVSPost2010Prop32
280
     0
102
RTVSPost2010PropOp32
 70
     1
102
RTVSPost2010Prop33
280
     0
102
RTVSPost2010PropOp33
 70
     1
102
RTVSPost2010Prop34
280
     0
102
RTVSPost2010PropOp34
 70
     1
102
RTVSPost2010Prop35
280
     0
102
RTVSPost2010PropOp35
 70
     1
102
RTVSPost2010Prop36
280
     0
102
RTVSPost2010PropOp36
 70
     1
102
RTVSPost2010Prop37
 90
       50
102
RTVSPost2010PropOp37
 70
     1
102
RTVSPost2010Prop38
140
0.0
102
RTVSPost2010PropOp38
 70
     1
102
RTVSPost2010Prop39
140
1.0
102
RTVSPost2010PropOp39
 70
     1
102
RTVSPost2010Prop40
 90
        0
102
RTVSPost2010PropOp40
 70
     1
102
RTVSPost2010Prop41ColorIndex
 90
       18
102
RTVSPost2010Prop41ColorRGB
 90
        0
102
RTVSPost2010PropOp41
 70
     1
102
RTVSPost2010Prop42
 90
       50
102
RTVSPost2010PropOp42
 70
     1
102
RTVSPost2010Prop43
 90
        3
102
RTVSPost2010PropOp43
 70
     1
102
RTVSPost2010Prop44ColorIndex
 90
        5
102
RTVSPost2010Prop44ColorRGB
 90
      255
102
RTVSPost2010PropOp44
 70
     1
102
RTVSPost2010Prop45
280
     0
102
RTVSPost2010PropOp45
 70
     1
102
RTVSPost2010Prop46
 90
       50
102
RTVSPost2010PropOp46
 70
     1
102
RTVSPost2010Prop47
 90
       50
102
RTVSPost2010PropOp47
 70
     1
102
RTVSPost2010Prop48
 90
       50
102
RTVSPost2010PropOp48
 70
     1
102
RTVSPost2010Prop49
280
     0
102
RTVSPost2010PropOp49
 70
     1
102
RTVSPost2010Prop50
 90
       50
102
RTVSPost2010PropOp50
 70
     1
102
RTVSPost2010Prop51ColorIndex
 90
      256
102
RTVSPost2010Prop51ColorRGB
 90
-16777216
102
RTVSPost2010PropOp51
 70
     0
102
RTVSPost2010Prop52
140
1.0
102
RTVSPost2010PropOp52
 70
     0
102
RTVSPost2010Prop53
 90
        2
102
RTVSPost2010PropOp53
 70
     1
102
RTVSPost2010Prop54
  1
strokes_ogs.tif
102
RTVSPost2010PropOp54
 70
     1
102
RTVSPost2010Prop55
280
     0
102
RTVSPost2010PropOp55
 70
     1
102
RTVSPost2010Prop56
140
1.0
102
RTVSPost2010PropOp56
 70
     1
102
RTVSPost2010Prop57
140
1.0
102
RTVSPost2010PropOp57
 70
     1
102
RTVSPropertyOp0
 70
     1
102
RTVSPropertyOp1
 70
     1
102
RTVSPropertyOp2
 70
     1
102
RTVSPropertyOp3
 70
     1
102
RTVSPropertyOp4
 70
     1
102
RTVSPropertyOp5
 70
     1
102
RTVSPropertyOp6
 70
     1
102
RTVSPropertyOp7
 70
     1
102
RTVSPropertyOp8
 70
     1
102
RTVSPropertyOp9
 70
     1
102
RTVSPropertyOp10
 70
     1
102
RTVSPropertyOp11
 70
     1
102
RTVSPropertyOp12
 70
     1
102
RTVSPropertyOp13
 70
     1
102
RTVSPropertyOp14
 70
     1
102
RTVSPropertyOp15
 70
     1
102
RTVSPropertyOp16
 70
     1
102
RTVSPropertyOp17
 70
     1
102
RTVSPropertyOp18
 70
     1
102
RTVSPropertyOp19
 70
     1
102
RTVSPropertyOp20
 70
     1
102
RTVSPropertyOp21
 70
     1
102
RTVSPropertyOp22
 70
     1
102
RTVSPropertyOp23
 70
     1
102
RTVSPropertyOp24
 70
     1
102
RTVSPropertyOp25
 70
     1
102
RTVSPropertyOp26
 70
     1
102
RTVSPropertyOp27
 70
     1
102
RTVSPropertyOp28
 70
     1
102
RTVSPropertyOp29
 70
     1
102
RTVSPropertyOp30
 70
     1
102
RTVSPropertyOp31
 70
     1
102
RTVSPropertyOp32
 70
     1
102
RTVSPropertyOp33
 70
     1
102
RTVSPropertyOp34
 70
     1
102
RTVSPropertyOp35
 70
     1
102
RTVSPropertyOp36
 70
     1
102
RTVSPropertyOp37
 70
     1
102
RTVSPropertyOp38
 70
     1
102
RTVSPropertyOp39
 70
     1
102
RTVSPropertyOp40
 70
     1
102
RTVSPropertyOp41
 70
     1
102
RTVSPropertyOp42
 70
     1
102
RTVSPropertyOp43
 70
     1
102
RTVSPropertyOp44
 70
     1
102
RTVSPropertyOp45
 70
     1
102
RTVSPropertyOp46
 70
     1
102
RTVSPropertyOp47
 70
     1
102
RTVSPropertyOp48
 70
     1
102
RTVSPropertyOp49
 70
     1
102
RTVSPropertyOp50
 70
     1
102
RTVSPropertyOp51
 70
     0
102
RTVSPropertyOp52
 70
     0
102
RTVSPropertyOp53
 70
     1
102
RTVSPropertyOp54
 70
     1
102
RTVSPropertyOp55
 70
     1
102
RTVSPropertyOp56
 70
     1
102
RTVSPropertyOp57
 70
     1
102
RTVSPropertyOp58
 70
     1
102
RTVSPropertyOp59
 70
     1
102
RTVSPropertyOp60
 70
     1
102
RTVSPropertyOp61
 70
     1
102
RTVSPropertyOp62
 70
     1
  0
XRECORD
  5
3484
102
{ACAD_REACTORS
330
3483
102
}
330
3483
100
AcDbXrecord
280
     1
102
RTVSPost2010Prop28
280
     0
102
RTVSPost2010PropOp28
 70
     1
102
RTVSPost2010Prop29
280
     1
102
RTVSPost2010PropOp29
 70
     1
102
RTVSPost2010Prop30
280
     1
102
RTVSPost2010PropOp30
 70
     1
102
RTVSPost2010Prop31
280
     0
102
RTVSPost2010PropOp31
 70
     1
102
RTVSPost2010Prop32
280
     0
102
RTVSPost2010PropOp32
 70
     1
102
RTVSPost2010Prop33
280
     0
102
RTVSPost2010PropOp33
 70
     1
102
RTVSPost2010Prop34
280
     0
102
RTVSPost2010PropOp34
 70
     1
102
RTVSPost2010Prop35
280
     0
102
RTVSPost2010PropOp35
 70
     1
102
RTVSPost2010Prop36
280
     0
102
RTVSPost2010PropOp36
 70
     1
102
RTVSPost2010Prop37
 90
       50
102
RTVSPost2010PropOp37
 70
     1
102
RTVSPost2010Prop38
140
0.0
102
RTVSPost2010PropOp38
 70
     1
102
RTVSPost2010Prop39
140
1.0
102
RTVSPost2010PropOp39
 70
     1
102
RTVSPost2010Prop40
 90
        0
102
RTVSPost2010PropOp40
 70
     1
102
RTVSPost2010Prop41ColorIndex
 90
       18
102
RTVSPost2010Prop41ColorRGB
 90
        0
102
RTVSPost2010PropOp41
 70
     1
102
RTVSPost2010Prop42
 90
       50
102
RTVSPost2010PropOp42
 70
     1
102
RTVSPost2010Prop43
 90
        3
102
RTVSPost2010PropOp43
 70
     1
102
RTVSPost2010Prop44ColorIndex
 90
        5
102
RTVSPost2010Prop44ColorRGB
 90
      255
102
RTVSPost2010PropOp44
 70
     1
102
RTVSPost2010Prop45
280
     0
102
RTVSPost2010PropOp45
 70
     1
102
RTVSPost2010Prop46
 90
       50
102
RTVSPost2010PropOp46
 70
     1
102
RTVSPost2010Prop47
 90
       50
102
RTVSPost2010PropOp47
 70
     1
102
RTVSPost2010Prop48
 90
       50
102
RTVSPost2010PropOp48
 70
     1
102
RTVSPost2010Prop49
280
     0
102
RTVSPost2010PropOp49
 70
     1
102
RTVSPost2010Prop50
 90
       50
102
RTVSPost2010PropOp50
 70
     1
102
RTVSPost2010Prop51ColorIndex
 90
      256
102
RTVSPost2010Prop51ColorRGB
 90
-16777216
102
RTVSPost2010PropOp51
 70
     0
102
RTVSPost2010Prop52
140
1.0
102
RTVSPost2010PropOp52
 70
     0
102
RTVSPost2010Prop53
 90
        2
102
RTVSPost2010PropOp53
 70
     1
102
RTVSPost2010Prop54
  1
strokes_ogs.tif
102
RTVSPost2010PropOp54
 70
     1
102
RTVSPost2010Prop55
280
     0
102
RTVSPost2010PropOp55
 70
     1
102
RTVSPost2010Prop56
140
1.0
102
RTVSPost2010PropOp56
 70
     1
102
RTVSPost2010Prop57
140
1.0
102
RTVSPost2010PropOp57
 70
     1
102
RTVSPropertyOp0
 70
     1
102
RTVSPropertyOp1
 70
     1
102
RTVSPropertyOp2
 70
     1
102
RTVSPropertyOp3
 70
     1
102
RTVSPropertyOp4
 70
     1
102
RTVSPropertyOp5
 70
     1
102
RTVSPropertyOp6
 70
     1
102
RTVSPropertyOp7
 70
     1
102
RTVSPropertyOp8
 70
     1
102
RTVSPropertyOp9
 70
     1
102
RTVSPropertyOp10
 70
     1
102
RTVSPropertyOp11
 70
     1
102
RTVSPropertyOp12
 70
     1
102
RTVSPropertyOp13
 70
     1
102
RTVSPropertyOp14
 70
     1
102
RTVSPropertyOp15
 70
     1
102
RTVSPropertyOp16
 70
     1
102
RTVSPropertyOp17
 70
     1
102
RTVSPropertyOp18
 70
     1
102
RTVSPropertyOp19
 70
     1
102
RTVSPropertyOp20
 70
     1
102
RTVSPropertyOp21
 70
     1
102
RTVSPropertyOp22
 70
     1
102
RTVSPropertyOp23
 70
     1
102
RTVSPropertyOp24
 70
     1
102
RTVSPropertyOp25
 70
     1
102
RTVSPropertyOp26
 70
     1
102
RTVSPropertyOp27
 70
     1
102
RTVSPropertyOp28
 70
     1
102
RTVSPropertyOp29
 70
     1
102
RTVSPropertyOp30
 70
     1
102
RTVSPropertyOp31
 70
     1
102
RTVSPropertyOp32
 70
     1
102
RTVSPropertyOp33
 70
     1
102
RTVSPropertyOp34
 70
     1
102
RTVSPropertyOp35
 70
     1
102
RTVSPropertyOp36
 70
     1
102
RTVSPropertyOp37
 70
     1
102
RTVSPropertyOp38
 70
     1
102
RTVSPropertyOp39
 70
     1
102
RTVSPropertyOp40
 70
     1
102
RTVSPropertyOp41
 70
     1
102
RTVSPropertyOp42
 70
     1
102
RTVSPropertyOp43
 70
     1
102
RTVSPropertyOp44
 70
     1
102
RTVSPropertyOp45
 70
     1
102
RTVSPropertyOp46
 70
     1
102
RTVSPropertyOp47
 70
     1
102
RTVSPropertyOp48
 70
     1
102
RTVSPropertyOp49
 70
     1
102
RTVSPropertyOp50
 70
     1
102
RTVSPropertyOp51
 70
     0
102
RTVSPropertyOp52
 70
     0
102
RTVSPropertyOp53
 70
     1
102
RTVSPropertyOp54
 70
     1
102
RTVSPropertyOp55
 70
     1
102
RTVSPropertyOp56
 70
     1
102
RTVSPropertyOp57
 70
     1
102
RTVSPropertyOp58
 70
     1
102
RTVSPropertyOp59
 70
     1
102
RTVSPropertyOp60
 70
     1
102
RTVSPropertyOp61
 70
     1
102
RTVSPropertyOp62
 70
     1
  0
XRECORD
  5
3486
102
{ACAD_REACTORS
330
3485
102
}
330
3485
100
AcDbXrecord
280
     1
102
RTVSPost2010Prop28
280
     0
102
RTVSPost2010PropOp28
 70
     1
102
RTVSPost2010Prop29
280
     1
102
RTVSPost2010PropOp29
 70
     1
102
RTVSPost2010Prop30
280
     1
102
RTVSPost2010PropOp30
 70
     1
102
RTVSPost2010Prop31
280
     0
102
RTVSPost2010PropOp31
 70
     1
102
RTVSPost2010Prop32
280
     0
102
RTVSPost2010PropOp32
 70
     1
102
RTVSPost2010Prop33
280
     0
102
RTVSPost2010PropOp33
 70
     1
102
RTVSPost2010Prop34
280
     0
102
RTVSPost2010PropOp34
 70
     1
102
RTVSPost2010Prop35
280
     0
102
RTVSPost2010PropOp35
 70
     1
102
RTVSPost2010Prop36
280
     0
102
RTVSPost2010PropOp36
 70
     1
102
RTVSPost2010Prop37
 90
       50
102
RTVSPost2010PropOp37
 70
     1
102
RTVSPost2010Prop38
140
0.0
102
RTVSPost2010PropOp38
 70
     1
102
RTVSPost2010Prop39
140
1.0
102
RTVSPost2010PropOp39
 70
     1
102
RTVSPost2010Prop40
 90
        0
102
RTVSPost2010PropOp40
 70
     1
102
RTVSPost2010Prop41ColorIndex
 90
       18
102
RTVSPost2010Prop41ColorRGB
 90
        0
102
RTVSPost2010PropOp41
 70
     1
102
RTVSPost2010Prop42
 90
       50
102
RTVSPost2010PropOp42
 70
     1
102
RTVSPost2010Prop43
 90
        3
102
RTVSPost2010PropOp43
 70
     1
102
RTVSPost2010Prop44ColorIndex
 90
        5
102
RTVSPost2010Prop44ColorRGB
 90
      255
102
RTVSPost2010PropOp44
 70
     1
102
RTVSPost2010Prop45
280
     0
102
RTVSPost2010PropOp45
 70
     1
102
RTVSPost2010Prop46
 90
       50
102
RTVSPost2010PropOp46
 70
     1
102
RTVSPost2010Prop47
 90
       50
102
RTVSPost2010PropOp47
 70
     1
102
RTVSPost2010Prop48
 90
       50
102
RTVSPost2010PropOp48
 70
     1
102
RTVSPost2010Prop49
280
     0
102
RTVSPost2010PropOp49
 70
     1
102
RTVSPost2010Prop50
 90
       50
102
RTVSPost2010PropOp50
 70
     1
102
RTVSPost2010Prop51ColorIndex
 90
      256
102
RTVSPost2010Prop51ColorRGB
 90
-16777216
102
RTVSPost2010PropOp51
 70
     0
102
RTVSPost2010Prop52
140
1.0
102
RTVSPost2010PropOp52
 70
     0
102
RTVSPost2010Prop53
 90
        2
102
RTVSPost2010PropOp53
 70
     1
102
RTVSPost2010Prop54
  1
strokes_ogs.tif
102
RTVSPost2010PropOp54
 70
     1
102
RTVSPost2010Prop55
280
     0
102
RTVSPost2010PropOp55
 70
     1
102
RTVSPost2010Prop56
140
1.0
102
RTVSPost2010PropOp56
 70
     1
102
RTVSPost2010Prop57
140
1.0
102
RTVSPost2010PropOp57
 70
     1
102
RTVSPropertyOp0
 70
     1
102
RTVSPropertyOp1
 70
     1
102
RTVSPropertyOp2
 70
     1
102
RTVSPropertyOp3
 70
     1
102
RTVSPropertyOp4
 70
     1
102
RTVSPropertyOp5
 70
     1
102
RTVSPropertyOp6
 70
     1
102
RTVSPropertyOp7
 70
     1
102
RTVSPropertyOp8
 70
     1
102
RTVSPropertyOp9
 70
     1
102
RTVSPropertyOp10
 70
     1
102
RTVSPropertyOp11
 70
     1
102
RTVSPropertyOp12
 70
     1
102
RTVSPropertyOp13
 70
     1
102
RTVSPropertyOp14
 70
     1
102
RTVSPropertyOp15
 70
     1
102
RTVSPropertyOp16
 70
     1
102
RTVSPropertyOp17
 70
     1
102
RTVSPropertyOp18
 70
     1
102
RTVSPropertyOp19
 70
     1
102
RTVSPropertyOp20
 70
     1
102
RTVSPropertyOp21
 70
     1
102
RTVSPropertyOp22
 70
     1
102
RTVSPropertyOp23
 70
     1
102
RTVSPropertyOp24
 70
     1
102
RTVSPropertyOp25
 70
     1
102
RTVSPropertyOp26
 70
     1
102
RTVSPropertyOp27
 70
     1
102
RTVSPropertyOp28
 70
     1
102
RTVSPropertyOp29
 70
     1
102
RTVSPropertyOp30
 70
     1
102
RTVSPropertyOp31
 70
     1
102
RTVSPropertyOp32
 70
     1
102
RTVSPropertyOp33
 70
     1
102
RTVSPropertyOp34
 70
     1
102
RTVSPropertyOp35
 70
     1
102
RTVSPropertyOp36
 70
     1
102
RTVSPropertyOp37
 70
     1
102
RTVSPropertyOp38
 70
     1
102
RTVSPropertyOp39
 70
     1
102
RTVSPropertyOp40
 70
     1
102
RTVSPropertyOp41
 70
     1
102
RTVSPropertyOp42
 70
     1
102
RTVSPropertyOp43
 70
     1
102
RTVSPropertyOp44
 70
     1
102
RTVSPropertyOp45
 70
     1
102
RTVSPropertyOp46
 70
     1
102
RTVSPropertyOp47
 70
     1
102
RTVSPropertyOp48
 70
     1
102
RTVSPropertyOp49
 70
     1
102
RTVSPropertyOp50
 70
     1
102
RTVSPropertyOp51
 70
     0
102
RTVSPropertyOp52
 70
     0
102
RTVSPropertyOp53
 70
     1
102
RTVSPropertyOp54
 70
     1
102
RTVSPropertyOp55
 70
     1
102
RTVSPropertyOp56
 70
     1
102
RTVSPropertyOp57
 70
     1
102
RTVSPropertyOp58
 70
     1
102
RTVSPropertyOp59
 70
     1
102
RTVSPropertyOp60
 70
     1
102
RTVSPropertyOp61
 70
     1
102
RTVSPropertyOp62
 70
     1
  0
XRECORD
  5
3474
102
{ACAD_REACTORS
330
3473
102
}
330
3473
100
AcDbXrecord
280
     1
102
RTVSPost2010Prop28
280
     0
102
RTVSPost2010PropOp28
 70
     1
102
RTVSPost2010Prop29
280
     1
102
RTVSPost2010PropOp29
 70
     1
102
RTVSPost2010Prop30
280
     1
102
RTVSPost2010PropOp30
 70
     1
102
RTVSPost2010Prop31
280
     0
102
RTVSPost2010PropOp31
 70
     1
102
RTVSPost2010Prop32
280
     0
102
RTVSPost2010PropOp32
 70
     1
102
RTVSPost2010Prop33
280
     0
102
RTVSPost2010PropOp33
 70
     1
102
RTVSPost2010Prop34
280
     0
102
RTVSPost2010PropOp34
 70
     1
102
RTVSPost2010Prop35
280
     0
102
RTVSPost2010PropOp35
 70
     1
102
RTVSPost2010Prop36
280
     0
102
RTVSPost2010PropOp36
 70
     1
102
RTVSPost2010Prop37
 90
       50
102
RTVSPost2010PropOp37
 70
     1
102
RTVSPost2010Prop38
140
0.0
102
RTVSPost2010PropOp38
 70
     1
102
RTVSPost2010Prop39
140
1.0
102
RTVSPost2010PropOp39
 70
     1
102
RTVSPost2010Prop40
 90
        0
102
RTVSPost2010PropOp40
 70
     1
102
RTVSPost2010Prop41ColorIndex
 90
       18
102
RTVSPost2010Prop41ColorRGB
 90
        0
102
RTVSPost2010PropOp41
 70
     1
102
RTVSPost2010Prop42
 90
       50
102
RTVSPost2010PropOp42
 70
     1
102
RTVSPost2010Prop43
 90
        3
102
RTVSPost2010PropOp43
 70
     1
102
RTVSPost2010Prop44ColorIndex
 90
        5
102
RTVSPost2010Prop44ColorRGB
 90
      255
102
RTVSPost2010PropOp44
 70
     1
102
RTVSPost2010Prop45
280
     0
102
RTVSPost2010PropOp45
 70
     1
102
RTVSPost2010Prop46
 90
       50
102
RTVSPost2010PropOp46
 70
     1
102
RTVSPost2010Prop47
 90
       50
102
RTVSPost2010PropOp47
 70
     1
102
RTVSPost2010Prop48
 90
       50
102
RTVSPost2010PropOp48
 70
     1
102
RTVSPost2010Prop49
280
     0
102
RTVSPost2010PropOp49
 70
     1
102
RTVSPost2010Prop50
 90
       50
102
RTVSPost2010PropOp50
 70
     1
102
RTVSPost2010Prop51ColorIndex
 90
      256
102
RTVSPost2010Prop51ColorRGB
 90
-16777216
102
RTVSPost2010PropOp51
 70
     0
102
RTVSPost2010Prop52
140
1.0
102
RTVSPost2010PropOp52
 70
     0
102
RTVSPost2010Prop53
 90
        2
102
RTVSPost2010PropOp53
 70
     1
102
RTVSPost2010Prop54
  1
strokes_ogs.tif
102
RTVSPost2010PropOp54
 70
     1
102
RTVSPost2010Prop55
280
     0
102
RTVSPost2010PropOp55
 70
     1
102
RTVSPost2010Prop56
140
1.0
102
RTVSPost2010PropOp56
 70
     1
102
RTVSPost2010Prop57
140
1.0
102
RTVSPost2010PropOp57
 70
     1
102
RTVSPropertyOp0
 70
     1
102
RTVSPropertyOp1
 70
     1
102
RTVSPropertyOp2
 70
     1
102
RTVSPropertyOp3
 70
     1
102
RTVSPropertyOp4
 70
     1
102
RTVSPropertyOp5
 70
     1
102
RTVSPropertyOp6
 70
     1
102
RTVSPropertyOp7
 70
     1
102
RTVSPropertyOp8
 70
     1
102
RTVSPropertyOp9
 70
     1
102
RTVSPropertyOp10
 70
     1
102
RTVSPropertyOp11
 70
     1
102
RTVSPropertyOp12
 70
     1
102
RTVSPropertyOp13
 70
     1
102
RTVSPropertyOp14
 70
     1
102
RTVSPropertyOp15
 70
     1
102
RTVSPropertyOp16
 70
     1
102
RTVSPropertyOp17
 70
     1
102
RTVSPropertyOp18
 70
     1
102
RTVSPropertyOp19
 70
     1
102
RTVSPropertyOp20
 70
     1
102
RTVSPropertyOp21
 70
     1
102
RTVSPropertyOp22
 70
     1
102
RTVSPropertyOp23
 70
     1
102
RTVSPropertyOp24
 70
     1
102
RTVSPropertyOp25
 70
     1
102
RTVSPropertyOp26
 70
     1
102
RTVSPropertyOp27
 70
     1
102
RTVSPropertyOp28
 70
     1
102
RTVSPropertyOp29
 70
     1
102
RTVSPropertyOp30
 70
     1
102
RTVSPropertyOp31
 70
     1
102
RTVSPropertyOp32
 70
     1
102
RTVSPropertyOp33
 70
     1
102
RTVSPropertyOp34
 70
     1
102
RTVSPropertyOp35
 70
     1
102
RTVSPropertyOp36
 70
     1
102
RTVSPropertyOp37
 70
     1
102
RTVSPropertyOp38
 70
     1
102
RTVSPropertyOp39
 70
     1
102
RTVSPropertyOp40
 70
     1
102
RTVSPropertyOp41
 70
     1
102
RTVSPropertyOp42
 70
     1
102
RTVSPropertyOp43
 70
     1
102
RTVSPropertyOp44
 70
     1
102
RTVSPropertyOp45
 70
     1
102
RTVSPropertyOp46
 70
     1
102
RTVSPropertyOp47
 70
     1
102
RTVSPropertyOp48
 70
     1
102
RTVSPropertyOp49
 70
     1
102
RTVSPropertyOp50
 70
     1
102
RTVSPropertyOp51
 70
     0
102
RTVSPropertyOp52
 70
     0
102
RTVSPropertyOp53
 70
     1
102
RTVSPropertyOp54
 70
     1
102
RTVSPropertyOp55
 70
     1
102
RTVSPropertyOp56
 70
     1
102
RTVSPropertyOp57
 70
     1
102
RTVSPropertyOp58
 70
     1
102
RTVSPropertyOp59
 70
     1
102
RTVSPropertyOp60
 70
     1
102
RTVSPropertyOp61
 70
     1
102
RTVSPropertyOp62
 70
     1
  0
XRECORD
  5
3468
102
{ACAD_REACTORS
330
3467
102
}
330
3467
100
AcDbXrecord
280
     1
102
RTVSPost2010Prop28
280
     0
102
RTVSPost2010PropOp28
 70
     1
102
RTVSPost2010Prop29
280
     1
102
RTVSPost2010PropOp29
 70
     1
102
RTVSPost2010Prop30
280
     1
102
RTVSPost2010PropOp30
 70
     1
102
RTVSPost2010Prop31
280
     0
102
RTVSPost2010PropOp31
 70
     1
102
RTVSPost2010Prop32
280
     0
102
RTVSPost2010PropOp32
 70
     1
102
RTVSPost2010Prop33
280
     0
102
RTVSPost2010PropOp33
 70
     1
102
RTVSPost2010Prop34
280
     0
102
RTVSPost2010PropOp34
 70
     1
102
RTVSPost2010Prop35
280
     0
102
RTVSPost2010PropOp35
 70
     1
102
RTVSPost2010Prop36
280
     0
102
RTVSPost2010PropOp36
 70
     1
102
RTVSPost2010Prop37
 90
       50
102
RTVSPost2010PropOp37
 70
     1
102
RTVSPost2010Prop38
140
0.0
102
RTVSPost2010PropOp38
 70
     1
102
RTVSPost2010Prop39
140
1.0
102
RTVSPost2010PropOp39
 70
     1
102
RTVSPost2010Prop40
 90
        0
102
RTVSPost2010PropOp40
 70
     1
102
RTVSPost2010Prop41ColorIndex
 90
       18
102
RTVSPost2010Prop41ColorRGB
 90
        0
102
RTVSPost2010PropOp41
 70
     1
102
RTVSPost2010Prop42
 90
       50
102
RTVSPost2010PropOp42
 70
     1
102
RTVSPost2010Prop43
 90
        3
102
RTVSPost2010PropOp43
 70
     1
102
RTVSPost2010Prop44ColorIndex
 90
        5
102
RTVSPost2010Prop44ColorRGB
 90
      255
102
RTVSPost2010PropOp44
 70
     1
102
RTVSPost2010Prop45
280
     0
102
RTVSPost2010PropOp45
 70
     1
102
RTVSPost2010Prop46
 90
       50
102
RTVSPost2010PropOp46
 70
     1
102
RTVSPost2010Prop47
 90
       50
102
RTVSPost2010PropOp47
 70
     1
102
RTVSPost2010Prop48
 90
       50
102
RTVSPost2010PropOp48
 70
     1
102
RTVSPost2010Prop49
280
     0
102
RTVSPost2010PropOp49
 70
     1
102
RTVSPost2010Prop50
 90
       50
102
RTVSPost2010PropOp50
 70
     1
102
RTVSPost2010Prop51ColorIndex
 90
      256
102
RTVSPost2010Prop51ColorRGB
 90
-16777216
102
RTVSPost2010PropOp51
 70
     0
102
RTVSPost2010Prop52
140
1.0
102
RTVSPost2010PropOp52
 70
     0
102
RTVSPost2010Prop53
 90
        2
102
RTVSPost2010PropOp53
 70
     1
102
RTVSPost2010Prop54
  1
strokes_ogs.tif
102
RTVSPost2010PropOp54
 70
     1
102
RTVSPost2010Prop55
280
     0
102
RTVSPost2010PropOp55
 70
     1
102
RTVSPost2010Prop56
140
1.0
102
RTVSPost2010PropOp56
 70
     1
102
RTVSPost2010Prop57
140
1.0
102
RTVSPost2010PropOp57
 70
     1
102
RTVSPropertyOp0
 70
     1
102
RTVSPropertyOp1
 70
     1
102
RTVSPropertyOp2
 70
     1
102
RTVSPropertyOp3
 70
     1
102
RTVSPropertyOp4
 70
     1
102
RTVSPropertyOp5
 70
     1
102
RTVSPropertyOp6
 70
     1
102
RTVSPropertyOp7
 70
     1
102
RTVSPropertyOp8
 70
     1
102
RTVSPropertyOp9
 70
     1
102
RTVSPropertyOp10
 70
     1
102
RTVSPropertyOp11
 70
     1
102
RTVSPropertyOp12
 70
     1
102
RTVSPropertyOp13
 70
     1
102
RTVSPropertyOp14
 70
     1
102
RTVSPropertyOp15
 70
     1
102
RTVSPropertyOp16
 70
     1
102
RTVSPropertyOp17
 70
     1
102
RTVSPropertyOp18
 70
     1
102
RTVSPropertyOp19
 70
     1
102
RTVSPropertyOp20
 70
     1
102
RTVSPropertyOp21
 70
     1
102
RTVSPropertyOp22
 70
     1
102
RTVSPropertyOp23
 70
     1
102
RTVSPropertyOp24
 70
     1
102
RTVSPropertyOp25
 70
     1
102
RTVSPropertyOp26
 70
     1
102
RTVSPropertyOp27
 70
     1
102
RTVSPropertyOp28
 70
     1
102
RTVSPropertyOp29
 70
     1
102
RTVSPropertyOp30
 70
     1
102
RTVSPropertyOp31
 70
     1
102
RTVSPropertyOp32
 70
     1
102
RTVSPropertyOp33
 70
     1
102
RTVSPropertyOp34
 70
     1
102
RTVSPropertyOp35
 70
     1
102
RTVSPropertyOp36
 70
     1
102
RTVSPropertyOp37
 70
     1
102
RTVSPropertyOp38
 70
     1
102
RTVSPropertyOp39
 70
     1
102
RTVSPropertyOp40
 70
     1
102
RTVSPropertyOp41
 70
     1
102
RTVSPropertyOp42
 70
     1
102
RTVSPropertyOp43
 70
     1
102
RTVSPropertyOp44
 70
     1
102
RTVSPropertyOp45
 70
     1
102
RTVSPropertyOp46
 70
     1
102
RTVSPropertyOp47
 70
     1
102
RTVSPropertyOp48
 70
     1
102
RTVSPropertyOp49
 70
     1
102
RTVSPropertyOp50
 70
     1
102
RTVSPropertyOp51
 70
     0
102
RTVSPropertyOp52
 70
     0
102
RTVSPropertyOp53
 70
     1
102
RTVSPropertyOp54
 70
     1
102
RTVSPropertyOp55
 70
     1
102
RTVSPropertyOp56
 70
     1
102
RTVSPropertyOp57
 70
     1
102
RTVSPropertyOp58
 70
     1
102
RTVSPropertyOp59
 70
     1
102
RTVSPropertyOp60
 70
     1
102
RTVSPropertyOp61
 70
     1
102
RTVSPropertyOp62
 70
     1
  0
XRECORD
  5
3488
102
{ACAD_REACTORS
330
3487
102
}
330
3487
100
AcDbXrecord
280
     1
102
RTVSPost2010Prop28
280
     0
102
RTVSPost2010PropOp28
 70
     1
102
RTVSPost2010Prop29
280
     1
102
RTVSPost2010PropOp29
 70
     1
102
RTVSPost2010Prop30
280
     1
102
RTVSPost2010PropOp30
 70
     1
102
RTVSPost2010Prop31
280
     0
102
RTVSPost2010PropOp31
 70
     1
102
RTVSPost2010Prop32
280
     0
102
RTVSPost2010PropOp32
 70
     1
102
RTVSPost2010Prop33
280
     0
102
RTVSPost2010PropOp33
 70
     1
102
RTVSPost2010Prop34
280
     0
102
RTVSPost2010PropOp34
 70
     1
102
RTVSPost2010Prop35
280
     0
102
RTVSPost2010PropOp35
 70
     1
102
RTVSPost2010Prop36
280
     0
102
RTVSPost2010PropOp36
 70
     1
102
RTVSPost2010Prop37
 90
       50
102
RTVSPost2010PropOp37
 70
     1
102
RTVSPost2010Prop38
140
0.0
102
RTVSPost2010PropOp38
 70
     1
102
RTVSPost2010Prop39
140
1.0
102
RTVSPost2010PropOp39
 70
     1
102
RTVSPost2010Prop40
 90
        0
102
RTVSPost2010PropOp40
 70
     1
102
RTVSPost2010Prop41ColorIndex
 90
       18
102
RTVSPost2010Prop41ColorRGB
 90
        0
102
RTVSPost2010PropOp41
 70
     1
102
RTVSPost2010Prop42
 90
       50
102
RTVSPost2010PropOp42
 70
     1
102
RTVSPost2010Prop43
 90
        3
102
RTVSPost2010PropOp43
 70
     1
102
RTVSPost2010Prop44ColorIndex
 90
        5
102
RTVSPost2010Prop44ColorRGB
 90
      255
102
RTVSPost2010PropOp44
 70
     1
102
RTVSPost2010Prop45
280
     0
102
RTVSPost2010PropOp45
 70
     1
102
RTVSPost2010Prop46
 90
       50
102
RTVSPost2010PropOp46
 70
     1
102
RTVSPost2010Prop47
 90
       50
102
RTVSPost2010PropOp47
 70
     1
102
RTVSPost2010Prop48
 90
       50
102
RTVSPost2010PropOp48
 70
     1
102
RTVSPost2010Prop49
280
     0
102
RTVSPost2010PropOp49
 70
     1
102
RTVSPost2010Prop50
 90
       50
102
RTVSPost2010PropOp50
 70
     1
102
RTVSPost2010Prop51ColorIndex
 90
      256
102
RTVSPost2010Prop51ColorRGB
 90
-16777216
102
RTVSPost2010PropOp51
 70
     0
102
RTVSPost2010Prop52
140
1.0
102
RTVSPost2010PropOp52
 70
     0
102
RTVSPost2010Prop53
 90
        2
102
RTVSPost2010PropOp53
 70
     1
102
RTVSPost2010Prop54
  1
strokes_ogs.tif
102
RTVSPost2010PropOp54
 70
     1
102
RTVSPost2010Prop55
280
     0
102
RTVSPost2010PropOp55
 70
     1
102
RTVSPost2010Prop56
140
1.0
102
RTVSPost2010PropOp56
 70
     1
102
RTVSPost2010Prop57
140
1.0
102
RTVSPost2010PropOp57
 70
     1
102
RTVSPropertyOp0
 70
     1
102
RTVSPropertyOp1
 70
     1
102
RTVSPropertyOp2
 70
     1
102
RTVSPropertyOp3
 70
     1
102
RTVSPropertyOp4
 70
     1
102
RTVSPropertyOp5
 70
     1
102
RTVSPropertyOp6
 70
     1
102
RTVSPropertyOp7
 70
     1
102
RTVSPropertyOp8
 70
     1
102
RTVSPropertyOp9
 70
     1
102
RTVSPropertyOp10
 70
     1
102
RTVSPropertyOp11
 70
     1
102
RTVSPropertyOp12
 70
     1
102
RTVSPropertyOp13
 70
     1
102
RTVSPropertyOp14
 70
     1
102
RTVSPropertyOp15
 70
     1
102
RTVSPropertyOp16
 70
     1
102
RTVSPropertyOp17
 70
     1
102
RTVSPropertyOp18
 70
     1
102
RTVSPropertyOp19
 70
     1
102
RTVSPropertyOp20
 70
     1
102
RTVSPropertyOp21
 70
     1
102
RTVSPropertyOp22
 70
     1
102
RTVSPropertyOp23
 70
     1
102
RTVSPropertyOp24
 70
     1
102
RTVSPropertyOp25
 70
     1
102
RTVSPropertyOp26
 70
     1
102
RTVSPropertyOp27
 70
     1
102
RTVSPropertyOp28
 70
     1
102
RTVSPropertyOp29
 70
     1
102
RTVSPropertyOp30
 70
     1
102
RTVSPropertyOp31
 70
     1
102
RTVSPropertyOp32
 70
     1
102
RTVSPropertyOp33
 70
     1
102
RTVSPropertyOp34
 70
     1
102
RTVSPropertyOp35
 70
     1
102
RTVSPropertyOp36
 70
     1
102
RTVSPropertyOp37
 70
     1
102
RTVSPropertyOp38
 70
     1
102
RTVSPropertyOp39
 70
     1
102
RTVSPropertyOp40
 70
     1
102
RTVSPropertyOp41
 70
     1
102
RTVSPropertyOp42
 70
     1
102
RTVSPropertyOp43
 70
     1
102
RTVSPropertyOp44
 70
     1
102
RTVSPropertyOp45
 70
     1
102
RTVSPropertyOp46
 70
     1
102
RTVSPropertyOp47
 70
     1
102
RTVSPropertyOp48
 70
     1
102
RTVSPropertyOp49
 70
     1
102
RTVSPropertyOp50
 70
     1
102
RTVSPropertyOp51
 70
     0
102
RTVSPropertyOp52
 70
     0
102
RTVSPropertyOp53
 70
     1
102
RTVSPropertyOp54
 70
     1
102
RTVSPropertyOp55
 70
     1
102
RTVSPropertyOp56
 70
     1
102
RTVSPropertyOp57
 70
     1
102
RTVSPropertyOp58
 70
     1
102
RTVSPropertyOp59
 70
     1
102
RTVSPropertyOp60
 70
     1
102
RTVSPropertyOp61
 70
     1
102
RTVSPropertyOp62
 70
     1
  0
ENDSEC
  0
EOF
