  0
SECTION
  2
HEADER
  9
$ACADVER
  1
AC1015
  9
$ACADMAINTVER
 70
    18
  9
$DWGCODEPAGE
  3
ANSI_1252
  9
$INSBASE
 10
0.0
 20
0.0
 30
0.0
  9
$EXTMIN
 10
-179.0075675898784
 20
-284.4059597225929
 30
-0.0015258207003583
  9
$EXTMAX
 10
195.1318366536077
 20
351.504685203201
 30
0.0000000349246037
  9
$LIMMIN
 10
0.0
 20
0.0
  9
$LIMMAX
 10
420.0
 20
297.0
  9
$ORTHOMODE
 70
     0
  9
$REGENMODE
 70
     1
  9
$FILLMODE
 70
     1
  9
$QTEXTMODE
 70
     0
  9
$MIRRTEXT
 70
     0
  9
$LTSCALE
 40
1.0
  9
$ATTMODE
 70
     1
  9
$TEXTSIZE
 40
2.5
  9
$TRACEWID
 40
1.0
  9
$TEXTSTYLE
  7
Standard
  9
$CLAYER
  8
0
  9
$CELTYPE
  6
ByLayer
  9
$CECOLOR
 62
   256
  9
$CELTSCALE
 40
1.0
  9
$DISPSILH
 70
     0
  9
$DIMSCALE
 40
1.0
  9
$DIMASZ
 40
2.5
  9
$DIMEXO
 40
0.625
  9
$DIMDLI
 40
3.75
  9
$DIMRND
 40
0.0
  9
$DIMDLE
 40
0.0
  9
$DIMEXE
 40
1.25
  9
$DIMTP
 40
0.0
  9
$DIMTM
 40
0.0
  9
$DIMTXT
 40
2.5
  9
$DIMCEN
 40
2.5
  9
$DIMTSZ
 40
0.0
  9
$DIMTOL
 70
     0
  9
$DIMLIM
 70
     0
  9
$DIMTIH
 70
     0
  9
$DIMTOH
 70
     0
  9
$DIMSE1
 70
     0
  9
$DIMSE2
 70
     0
  9
$DIMTAD
 70
     1
  9
$DIMZIN
 70
     8
  9
$DIMBLK
  1

  9
$DIMASO
 70
     1
  9
$DIMSHO
 70
     1
  9
$DIMPOST
  1

  9
$DIMAPOST
  1

  9
$DIMALT
 70
     0
  9
$DIMALTD
 70
     3
  9
$DIMALTF
 40
0.03937007874016
  9
$DIMLFAC
 40
1.0
  9
$DIMTOFL
 70
     1
  9
$DIMTVP
 40
0.0
  9
$DIMTIX
 70
     0
  9
$DIMSOXD
 70
     0
  9
$DIMSAH
 70
     0
  9
$DIMBLK1
  1

  9
$DIMBLK2
  1

  9
$DIMSTYLE
  2
ISO-25
  9
$DIMCLRD
 70
     0
  9
$DIMCLRE
 70
     0
  9
$DIMCLRT
 70
     0
  9
$DIMTFAC
 40
1.0
  9
$DIMGAP
 40
0.625
  9
$DIMJUST
 70
     0
  9
$DIMSD1
 70
     0
  9
$DIMSD2
 70
     0
  9
$DIMTOLJ
 70
     0
  9
$DIMTZIN
 70
     8
  9
$DIMALTZ
 70
     0
  9
$DIMALTTZ
 70
     0
  9
$DIMUPT
 70
     0
  9
$DIMDEC
 70
     2
  9
$DIMTDEC
 70
     2
  9
$DIMALTU
 70
     2
  9
$DIMALTTD
 70
     3
  9
$DIMTXSTY
  7
Standard
  9
$DIMAUNIT
 70
     0
  9
$DIMADEC
 70
     0
  9
$DIMALTRND
 40
0.0
  9
$DIMAZIN
 70
     0
  9
$DIMDSEP
 70
    44
  9
$DIMATFIT
 70
     3
  9
$DIMFRAC
 70
     0
  9
$DIMLDRBLK
  1

  9
$DIMLUNIT
 70
     2
  9
$DIMLWD
 70
    -2
  9
$DIMLWE
 70
    -2
  9
$DIMTMOVE
 70
     0
  9
$LUNITS
 70
     2
  9
$LUPREC
 70
     4
  9
$SKETCHINC
 40
1.0
  9
$FILLETRAD
 40
0.0
  9
$AUNITS
 70
     0
  9
$AUPREC
 70
     0
  9
$MENU
  1
.
  9
$ELEVATION
 40
0.0
  9
$PELEVATION
 40
0.0
  9
$THICKNESS
 40
0.0
  9
$LIMCHECK
 70
     0
  9
$CHAMFERA
 40
0.0
  9
$CHAMFERB
 40
0.0
  9
$CHAMFERC
 40
0.0
  9
$CHAMFERD
 40
0.0
  9
$SKPOLY
 70
     0
  9
$TDCREATE
 40
2460572.688854167
  9
$TDUCREATE
 40
2460572.397187500
  9
$TDUPDATE
 40
2460573.369432871
  9
$TDUUPDATE
 40
2460573.077766204
  9
$TDINDWG
 40
0.6788194444
  9
$TDUSRTIMER
 40
0.6788194444
  9
$USRTIMER
 70
     1
  9
$ANGBASE
 50
0.0
  9
$ANGDIR
 70
     0
  9
$PDMODE
 70
     0
  9
$PDSIZE
 40
0.0
  9
$PLINEWID
 40
0.0
  9
$SPLFRAME
 70
     0
  9
$SPLINETYPE
 70
     6
  9
$SPLINESEGS
 70
     8
  9
$HANDSEED
  5
28AA
  9
$SURFTAB1
 70
     6
  9
$SURFTAB2
 70
     6
  9
$SURFTYPE
 70
     6
  9
$SURFU
 70
     6
  9
$SURFV
 70
     6
  9
$UCSBASE
  2

  9
$UCSNAME
  2

  9
$UCSORG
 10
0.0
 20
0.0
 30
0.0
  9
$UCSXDIR
 10
1.0
 20
0.0
 30
0.0
  9
$UCSYDIR
 10
0.0
 20
1.0
 30
0.0
  9
$UCSORTHOREF
  2

  9
$UCSORTHOVIEW
 70
     0
  9
$UCSORGTOP
 10
0.0
 20
0.0
 30
0.0
  9
$UCSORGBOTTOM
 10
0.0
 20
0.0
 30
0.0
  9
$UCSORGLEFT
 10
0.0
 20
0.0
 30
0.0
  9
$UCSORGRIGHT
 10
0.0
 20
0.0
 30
0.0
  9
$UCSORGFRONT
 10
0.0
 20
0.0
 30
0.0
  9
$UCSORGBACK
 10
0.0
 20
0.0
 30
0.0
  9
$PUCSBASE
  2

  9
$PUCSNAME
  2

  9
$PUCSORG
 10
0.0
 20
0.0
 30
0.0
  9
$PUCSXDIR
 10
1.0
 20
0.0
 30
0.0
  9
$PUCSYDIR
 10
0.0
 20
1.0
 30
0.0
  9
$PUCSORTHOREF
  2

  9
$PUCSORTHOVIEW
 70
     0
  9
$PUCSORGTOP
 10
0.0
 20
0.0
 30
0.0
  9
$PUCSORGBOTTOM
 10
0.0
 20
0.0
 30
0.0
  9
$PUCSORGLEFT
 10
0.0
 20
0.0
 30
0.0
  9
$PUCSORGRIGHT
 10
0.0
 20
0.0
 30
0.0
  9
$PUCSORGFRONT
 10
0.0
 20
0.0
 30
0.0
  9
$PUCSORGBACK
 10
0.0
 20
0.0
 30
0.0
  9
$USERI1
 70
     0
  9
$USERI2
 70
     0
  9
$USERI3
 70
     0
  9
$USERI4
 70
     0
  9
$USERI5
 70
     0
  9
$USERR1
 40
0.0
  9
$USERR2
 40
0.0
  9
$USERR3
 40
0.0
  9
$USERR4
 40
0.0
  9
$USERR5
 40
0.0
  9
$WORLDVIEW
 70
     1
  9
$SHADEDGE
 70
     3
  9
$SHADEDIF
 70
    70
  9
$TILEMODE
 70
     1
  9
$MAXACTVP
 70
    48
  9
$PINSBASE
 10
0.0
 20
0.0
 30
0.0
  9
$PLIMCHECK
 70
     0
  9
$PEXTMIN
 10
0.0
 20
0.0
 30
0.0
  9
$PEXTMAX
 10
0.0
 20
0.0
 30
0.0
  9
$PLIMMIN
 10
0.0
 20
0.0
  9
$PLIMMAX
 10
12.0
 20
9.0
  9
$UNITMODE
 70
     0
  9
$VISRETAIN
 70
     1
  9
$PLINEGEN
 70
     0
  9
$PSLTSCALE
 70
     1
  9
$TREEDEPTH
 70
  3020
  9
$CMLSTYLE
  2
Standard
  9
$CMLJUST
 70
     0
  9
$CMLSCALE
 40
20.0
  9
$PROXYGRAPHICS
 70
     1
  9
$MEASUREMENT
 70
     1
  9
$CELWEIGHT
370
    -1
  9
$ENDCAPS
280
     0
  9
$JOINSTYLE
280
     0
  9
$LWDISPLAY
290
     0
  9
$INSUNITS
 70
     4
  9
$HYPERLINKBASE
  1

  9
$STYLESHEET
  1

  9
$XEDIT
290
     1
  9
$CEPSNTYPE
380
     0
  9
$PSTYLEMODE
290
     1
  9
$FINGERPRINTGUID
  2
{0174FB10-CBEE-A049-BD77-4D56BD155670}
  9
$VERSIONGUID
  2
{7DC32152-C9B4-124F-B29D-3DCF644B3484}
  9
$EXTNAMES
290
     1
  9
$PSVPSCALE
 40
0.0
  9
$OLESTARTUP
290
     0
  0
ENDSEC
  0
SECTION
  2
CLASSES
  0
CLASS
  1
ACDBDICTIONARYWDFLT
  2
AcDbDictionaryWithDefault
  3
ObjectDBX Classes
 90
        0
280
     0
281
     0
  0
CLASS
  1
ACDBPLACEHOLDER
  2
AcDbPlaceHolder
  3
ObjectDBX Classes
 90
        0
280
     0
281
     0
  0
CLASS
  1
LAYOUT
  2
AcDbLayout
  3
ObjectDBX Classes
 90
        0
280
     0
281
     0
  0
CLASS
  1
DICTIONARYVAR
  2
AcDbDictionaryVar
  3
ObjectDBX Classes
 90
        0
280
     0
281
     0
  0
CLASS
  1
TABLESTYLE
  2
AcDbTableStyle
  3
ObjectDBX Classes
 90
     4095
280
     0
281
     0
  0
CLASS
  1
MATERIAL
  2
AcDbMaterial
  3
ObjectDBX Classes
 90
     1153
280
     0
281
     0
  0
CLASS
  1
VISUALSTYLE
  2
AcDbVisualStyle
  3
ObjectDBX Classes
 90
     4095
280
     0
281
     0
  0
CLASS
  1
SCALE
  2
AcDbScale
  3
ObjectDBX Classes
 90
     1153
280
     0
281
     0
  0
CLASS
  1
MLEADERSTYLE
  2
AcDbMLeaderStyle
  3
ACDB_MLEADERSTYLE_CLASS
 90
     4095
280
     0
281
     0
  0
CLASS
  1
CELLSTYLEMAP
  2
AcDbCellStyleMap
  3
ObjectDBX Classes
 90
     1152
280
     0
281
     0
  0
CLASS
  1
EXACXREFPANELOBJECT
  2
ExAcXREFPanelObject
  3
EXAC_ESW
 90
    33793
280
     0
281
     0
  0
CLASS
  1
NPOCOLLECTION
  2
AcDbImpNonPersistentObjectsCollection
  3
ObjectDBX Classes
 90
    33921
280
     0
281
     0
  0
CLASS
  1
LAYER_INDEX
  2
AcDbLayerIndex
  3
ObjectDBX Classes
 90
    32768
280
     0
281
     0
  0
CLASS
  1
SPATIAL_INDEX
  2
AcDbSpatialIndex
  3
ObjectDBX Classes
 90
    32768
280
     0
281
     0
  0
CLASS
  1
IDBUFFER
  2
AcDbIdBuffer
  3
ObjectDBX Classes
 90
    32768
280
     0
281
     0
  0
CLASS
  1
ACDBSECTIONVIEWSTYLE
  2
AcDbSectionViewStyle
  3
ObjectDBX Classes
 90
     1025
280
     0
281
     0
  0
CLASS
  1
ACDBDETAILVIEWSTYLE
  2
AcDbDetailViewStyle
  3
ObjectDBX Classes
 90
     1025
280
     0
281
     0
  0
CLASS
  1
XRECORD
  2
AcDbXrecord
  3
ObjectDBX Classes
 90
        0
280
     0
281
     0
  0
ENDSEC
  0
SECTION
  2
TABLES
  0
TABLE
  2
VPORT
  5
8
102
{ACAD_XDICTIONARY
360
27B8
102
}
330
0
100
AcDbSymbolTable
 70
     1
  0
VPORT
  5
EA
330
8
100
AcDbSymbolTableRecord
100
AcDbViewportTableRecord
  2
*Active
 70
     0
 10
0.0
 20
0.0
 11
1.0
 21
1.0
 12
8.062134531864614
 22
33.54936274030405
 13
0.0
 23
0.0
 14
10.0
 24
10.0
 15
10.0
 25
10.0
 16
0.0
 26
0.0
 36
1.0
 17
0.0
 27
0.0
 37
0.0
 40
676.2333425472786
 41
0.9846153846153846
 42
50.0
 43
0.0
 44
0.0
 50
0.0
 51
0.0
 71
     0
 72
  1000
 73
     1
 74
     3
 75
     0
 76
     1
 77
     0
 78
     0
281
     0
 65
     1
110
0.0
120
0.0
130
0.0
111
1.0
121
0.0
131
0.0
112
0.0
122
1.0
132
0.0
 79
     0
146
0.0
1001
ACAD_NAV_VCDISPLAY
1070
     3
  0
ENDTAB
  0
TABLE
  2
LTYPE
  5
5
330
0
100
AcDbSymbolTable
 70
     1
  0
LTYPE
  5
14
330
5
100
AcDbSymbolTableRecord
100
AcDbLinetypeTableRecord
  2
ByBlock
 70
     0
  3

 72
    65
 73
     0
 40
0.0
  0
LTYPE
  5
15
330
5
100
AcDbSymbolTableRecord
100
AcDbLinetypeTableRecord
  2
ByLayer
 70
     0
  3

 72
    65
 73
     0
 40
0.0
  0
LTYPE
  5
16
330
5
100
AcDbSymbolTableRecord
100
AcDbLinetypeTableRecord
  2
Continuous
 70
     0
  3
Solid line
 72
    65
 73
     0
 40
0.0
  0
ENDTAB
  0
TABLE
  2
LAYER
  5
2
102
{ACAD_XDICTIONARY
360
1FF
102
}
330
0
100
AcDbSymbolTable
 70
     1
  0
LAYER
  5
10
102
{ACAD_XDICTIONARY
360
13C
102
}
330
2
100
AcDbSymbolTableRecord
100
AcDbLayerTableRecord
  2
0
 70
     0
 62
     7
  6
Continuous
370
    -3
390
F
  0
ENDTAB
  0
TABLE
  2
STYLE
  5
3
330
0
100
AcDbSymbolTable
 70
     1
  0
STYLE
  5
11
330
3
100
AcDbSymbolTableRecord
100
AcDbTextStyleTableRecord
  2
Standard
 70
     0
 40
0.0
 41
1.0
 50
0.0
 71
     0
 42
2.5
  3
arial.ttf
  4

1001
ACAD
1000
Arial
1071
       34
  0
ENDTAB
  0
TABLE
  2
VIEW
  5
6
330
0
100
AcDbSymbolTable
 70
     0
  0
ENDTAB
  0
TABLE
  2
UCS
  5
7
330
0
100
AcDbSymbolTable
 70
     0
  0
ENDTAB
  0
TABLE
  2
APPID
  5
9
330
0
100
AcDbSymbolTable
 70
     8
  0
APPID
  5
12
330
9
100
AcDbSymbolTableRecord
100
AcDbRegAppTableRecord
  2
ACAD
 70
     0
  0
APPID
  5
9E
330
9
100
AcDbSymbolTableRecord
100
AcDbRegAppTableRecord
  2
ACAD_PSEXT
 70
     0
  0
APPID
  5
133
330
9
100
AcDbSymbolTableRecord
100
AcDbRegAppTableRecord
  2
AcadAnnoPO
 70
     0
  0
APPID
  5
134
330
9
100
AcDbSymbolTableRecord
100
AcDbRegAppTableRecord
  2
AcadAnnotative
 70
     0
  0
APPID
  5
135
330
9
100
AcDbSymbolTableRecord
100
AcDbRegAppTableRecord
  2
ACAD_DSTYLE_DIMJAG
 70
     0
  0
APPID
  5
136
330
9
100
AcDbSymbolTableRecord
100
AcDbRegAppTableRecord
  2
ACAD_DSTYLE_DIMTALN
 70
     0
  0
APPID
  5
165
330
9
100
AcDbSymbolTableRecord
100
AcDbRegAppTableRecord
  2
ACAD_MLEADERVER
 70
     0
  0
APPID
  5
217
330
9
100
AcDbSymbolTableRecord
100
AcDbRegAppTableRecord
  2
ACAD_NAV_VCDISPLAY
 70
     0
  0
ENDTAB
  0
TABLE
  2
DIMSTYLE
  5
A
330
0
100
AcDbSymbolTable
 70
     1
100
AcDbDimStyleTable
 71
     0
  0
DIMSTYLE
105
27
330
A
100
AcDbSymbolTableRecord
100
AcDbDimStyleTableRecord
  2
ISO-25
 70
     0
 41
2.5
 42
0.625
 43
3.75
 44
1.25
 73
     0
 74
     0
 77
     1
 78
     8
140
2.5
141
2.5
143
0.03937007874016
147
0.625
171
     3
172
     1
271
     2
272
     2
274
     3
278
    44
283
     0
284
     8
340
11
  0
ENDTAB
  0
TABLE
  2
BLOCK_RECORD
  5
1
330
0
100
AcDbSymbolTable
 70
     7
  0
BLOCK_RECORD
  5
1F
102
{ACAD_XDICTIONARY
360
1CE
102
}
330
1
100
AcDbSymbolTableRecord
100
AcDbBlockTableRecord
  2
*Model_Space
340
22
  0
BLOCK_RECORD
  5
D2
102
{ACAD_XDICTIONARY
360
276B
102
}
330
1
100
AcDbSymbolTableRecord
100
AcDbBlockTableRecord
  2
*Paper_Space
340
D3
  0
BLOCK_RECORD
  5
D6
102
{ACAD_XDICTIONARY
360
276D
102
}
330
1
100
AcDbSymbolTableRecord
100
AcDbBlockTableRecord
  2
*Paper_Space0
340
D7
  0
BLOCK_RECORD
  5
25A5
330
1
100
AcDbSymbolTableRecord
100
AcDbBlockTableRecord
  2
AKR205X3L-Front
340
0
102
{BLKREFS
331
2761
102
}
  0
BLOCK_RECORD
  5
25FB
330
1
100
AcDbSymbolTableRecord
100
AcDbBlockTableRecord
  2
AKR205X3L-Left
340
0
102
{BLKREFS
331
2762
102
}
  0
BLOCK_RECORD
  5
261F
330
1
100
AcDbSymbolTableRecord
100
AcDbBlockTableRecord
  2
AKR205X3L-Right
340
0
102
{BLKREFS
331
2763
102
}
  0
BLOCK_RECORD
  5
2646
330
1
100
AcDbSymbolTableRecord
100
AcDbBlockTableRecord
  2
AKR205X3L-Top
340
0
102
{BLKREFS
331
2764
102
}
  0
BLOCK_RECORD
  5
268D
330
1
100
AcDbSymbolTableRecord
100
AcDbBlockTableRecord
  2
AKR205X3L-Bottom
340
0
102
{BLKREFS
331
2765
102
}
  0
BLOCK_RECORD
  5
26BF
330
1
100
AcDbSymbolTableRecord
100
AcDbBlockTableRecord
  2
AKR205X3L-ISO
340
0
102
{BLKREFS
331
2766
102
}
  0
ENDTAB
  0
ENDSEC
  0
SECTION
  2
BLOCKS
  0
BLOCK
  5
20
330
1F
100
AcDbEntity
  8
0
100
AcDbBlockBegin
  2
*Model_Space
 70
     0
 10
0.0
 20
0.0
 30
0.0
  3
*Model_Space
  1

  0
ENDBLK
  5
21
330
1F
100
AcDbEntity
  8
0
100
AcDbBlockEnd
  0
BLOCK
  5
D4
330
D2
100
AcDbEntity
 67
     1
  8
0
100
AcDbBlockBegin
  2
*Paper_Space
 70
     0
 10
0.0
 20
0.0
 30
0.0
  3
*Paper_Space
  1

  0
ENDBLK
  5
D5
330
D2
100
AcDbEntity
 67
     1
  8
0
100
AcDbBlockEnd
  0
BLOCK
  5
D8
330
D6
100
AcDbEntity
 67
     1
  8
0
100
AcDbBlockBegin
  2
*Paper_Space0
 70
     0
 10
0.0
 20
0.0
 30
0.0
  3
*Paper_Space0
  1

  0
ENDBLK
  5
D9
330
D6
100
AcDbEntity
 67
     1
  8
0
100
AcDbBlockEnd
  0
BLOCK
  5
25A6
330
25A5
100
AcDbEntity
  8
0
100
AcDbBlockBegin
  2
AKR205X3L-Front
 70
     0
 10
0.0
 20
0.0
 30
0.0
  3
AKR205X3L-Front
  1

  0
CIRCLE
  5
25A8
330
25A5
100
AcDbEntity
  8
0
100
AcDbCircle
 10
22.50000000000001
 20
130.0
 30
0.0
 40
2.6
  0
CIRCLE
  5
25A9
330
25A5
100
AcDbEntity
  8
0
100
AcDbCircle
 10
22.50000000000002
 20
156.0
 30
0.0
 40
2.600000000000004
  0
CIRCLE
  5
25AA
330
25A5
100
AcDbEntity
  8
0
100
AcDbCircle
 10
-22.5
 20
156.0
 30
0.0
 40
2.600000000000001
  0
CIRCLE
  5
25AB
330
25A5
100
AcDbEntity
  8
0
100
AcDbCircle
 10
-11.29999999999999
 20
176.0
 30
0.0
 40
2.6
  0
CIRCLE
  5
25AC
330
25A5
100
AcDbEntity
  8
0
100
AcDbCircle
 10
0.0000000000000162
 20
196.0
 30
0.0
 40
2.600000000000001
  0
CIRCLE
  5
25AD
330
25A5
100
AcDbEntity
  8
0
100
AcDbCircle
 10
-22.49999999999999
 20
196.0
 30
0.0
 40
2.600000000000001
  0
CIRCLE
  5
25AE
330
25A5
100
AcDbEntity
  8
0
100
AcDbCircle
 10
22.50000000000002
 20
196.0
 30
0.0
 40
2.600000000000002
  0
CIRCLE
  5
25AF
330
25A5
100
AcDbEntity
  8
0
100
AcDbCircle
 10
11.30000000000001
 20
176.0
 30
0.0
 40
2.599999999999999
  0
CIRCLE
  5
25B0
330
25A5
100
AcDbEntity
  8
0
100
AcDbCircle
 10
0.0000000000000118
 20
156.0
 30
0.0
 40
2.600000000000002
  0
CIRCLE
  5
25B1
330
25A5
100
AcDbEntity
  8
0
100
AcDbCircle
 10
-22.5
 20
130.0
 30
0.0
 40
2.6
  0
CIRCLE
  5
25B2
330
25A5
100
AcDbEntity
  8
0
100
AcDbCircle
 10
0.0000000000000078
 20
120.0
 30
0.0
 40
2.600000000000003
  0
CIRCLE
  5
25B3
330
25A5
100
AcDbEntity
  8
0
100
AcDbCircle
 10
0.0000000000000148
 20
183.0
 30
0.0
 40
6.75
  0
CIRCLE
  5
25B4
330
25A5
100
AcDbEntity
  8
0
100
AcDbCircle
 10
0.0000000000000056
 20
100.0
 30
0.0
 40
6.750000000000005
  0
CIRCLE
  5
25B5
330
25A5
100
AcDbEntity
  8
0
100
AcDbCircle
 10
-22.5
 20
87.0
 30
0.0
 40
2.600000000000007
  0
CIRCLE
  5
25B6
330
25A5
100
AcDbEntity
  8
0
100
AcDbCircle
 10
22.50000000000001
 20
87.0
 30
0.0
 40
2.600000000000001
  0
CIRCLE
  5
25B7
330
25A5
100
AcDbEntity
  8
0
100
AcDbCircle
 10
-0.0000000000000011
 20
39.99999999999997
 30
0.0
 40
2.6
  0
CIRCLE
  5
25B8
330
25A5
100
AcDbEntity
  8
0
100
AcDbCircle
 10
14.0
 20
49.99999999999997
 30
0.0
 40
2.6
  0
CIRCLE
  5
25B9
330
25A5
100
AcDbEntity
  8
0
100
AcDbCircle
 10
-14.0
 20
49.99999999999997
 30
0.0
 40
2.6
  0
CIRCLE
  5
25BA
330
25A5
100
AcDbEntity
  8
0
100
AcDbCircle
 10
0.0000000000000011
 20
59.99999999999999
 30
0.0
 40
2.6
  0
CIRCLE
  5
25BB
330
25A5
100
AcDbEntity
  8
0
100
AcDbCircle
 10
20.00000000000001
 20
68.99999999999998
 30
0.0
 40
2.6
  0
CIRCLE
  5
25BC
330
25A5
100
AcDbEntity
  8
0
100
AcDbCircle
 10
-20.0
 20
68.99999999999998
 30
0.0
 40
2.6
  0
CIRCLE
  5
25BD
330
25A5
100
AcDbEntity
  8
0
100
AcDbCircle
 10
0.0000000000000031
 20
77.99999999999998
 30
0.0
 40
2.6
  0
LINE
  5
25BE
330
25A5
100
AcDbEntity
  8
0
100
AcDbLine
 10
32.50000000000003
 20
71.49999999999995
 30
0.0
 11
32.50000000000003
 21
198.0
 31
0.0
  0
LINE
  5
25BF
330
25A5
100
AcDbEntity
  8
0
100
AcDbLine
 10
-32.50000000000001
 20
71.49999999999995
 30
0.0
 11
-32.5
 21
198.0
 31
0.0
  0
LINE
  5
25C0
330
25A5
100
AcDbEntity
  8
0
100
AcDbLine
 10
19.40049474616514
 20
14.78494715841453
 30
0.0
 11
22.88089344101218
 21
9.483549287033961
 31
0.0
  0
ELLIPSE
  5
25C1
330
25A5
100
AcDbEntity
  8
0
100
AcDbEllipse
 10
21.84265019811887
 20
29.55706345359767
 30
0.0
 11
-2.149316260459678
 21
-14.99707715516457
 31
0.0
210
0.0
220
0.0
230
1.0
 40
0.1377659927417799
 41
4.906663367072862
 42
6.128393843468898
  0
LINE
  5
25C2
330
25A5
100
AcDbEntity
  8
0
100
AcDbLine
 10
22.88089344101218
 20
57.01806215511447
 30
0.0
 11
19.40049474616513
 21
26.9523407885937
 31
0.0
  0
LINE
  5
25C3
330
25A5
100
AcDbEntity
  8
0
100
AcDbLine
 10
-19.40049474616516
 20
26.95234078859371
 30
0.0
 11
-22.88089344101219
 21
57.01806215511447
 31
0.0
  0
ELLIPSE
  5
25C4
330
25A5
100
AcDbEntity
  8
0
100
AcDbEllipse
 10
-21.8426501981189
 20
29.55706345359767
 30
0.0
 11
-2.149316260459889
 21
14.99707715516454
 31
0.0
210
0.0
220
0.0
230
1.0
 40
0.1377659927417808
 41
3.296384117292445
 42
4.518114593693587
  0
LINE
  5
25C5
330
25A5
100
AcDbEntity
  8
0
100
AcDbLine
 10
-22.88089344101226
 20
9.483549287033962
 30
0.0
 11
-19.40049474616518
 21
14.78494715841454
 31
0.0
  0
LINE
  5
25C6
330
25A5
100
AcDbEntity
  8
0
100
AcDbLine
 10
-25.50000000000004
 20
2.999999999999962
 30
0.0
 11
25.49999999999997
 21
2.999999999999956
 31
0.0
  0
SPLINE
  5
25C7
330
25A5
100
AcDbEntity
  8
0
100
AcDbSpline
210
0.0
220
0.0
230
1.0
 70
     8
 71
     3
 72
    20
 73
    16
 74
     0
 42
0.000000001
 43
0.0000000001
 40
-1.0
 40
-1.0
 40
-1.0
 40
-1.0
 40
-0.8557507846680591
 40
-0.8557507846680591
 40
-0.8557507846680591
 40
-0.4725410755554584
 40
-0.4725410755554584
 40
-0.4725410755554584
 40
-0.2262668722300742
 40
-0.2262668722300742
 40
-0.2262668722300742
 40
-0.0545088760467883
 40
-0.0545088760467883
 40
-0.0545088760467883
 40
0.0
 40
0.0
 40
0.0
 40
0.0
 10
-32.50000000000001
 20
71.49999999999993
 30
0.0
 10
-32.49596368058211
 20
70.51422263201944
 30
0.0
 10
-32.37910965910375
 20
69.6075548200319
 30
0.0
 10
-32.16692343470051
 20
68.7957910374817
 30
0.0
 10
-31.60323356544087
 20
66.63927488407757
 30
0.0
 10
-30.41855420422399
 20
65.09164757619962
 30
0.0
 10
-29.21981211985065
 20
63.5266274802225
 30
0.0
 10
-28.44942649338702
 20
62.5208490039477
 30
0.0
 10
-27.67221333328638
 20
61.51295505187045
 30
0.0
 10
-27.0545465590071
 20
60.34589916497183
 30
0.0
 10
-26.6237697824438
 20
59.53196421822966
 30
0.0
 10
-26.26601864945578
 20
58.62483513659345
 30
0.0
 10
-26.05086466152629
 20
57.60015142181813
 30
0.0
 10
-25.98258369458659
 20
57.27495923957906
 30
0.0
 10
-25.93039957561583
 20
56.93850065070593
 30
0.0
 10
-25.89060973843285
 20
56.59507411448338
 30
0.0
  0
LINE
  5
25C8
330
25A5
100
AcDbEntity
  8
0
100
AcDbLine
 10
-25.17482914754177
 20
56.69567051616519
 30
0.0
 11
-25.89060973854643
 21
56.59507411444163
 31
0.0
  0
LINE
  5
25C9
330
25A5
100
AcDbEntity
  8
0
100
AcDbLine
 10
-22.88089344101223
 20
57.01806215511448
 30
0.0
 11
-25.17482914754177
 21
56.69567051616519
 31
0.0
  0
SPLINE
  5
25CA
330
25A5
100
AcDbEntity
  8
0
100
AcDbSpline
210
0.0
220
0.0
230
1.0
 70
     8
 71
     3
 72
    20
 73
    16
 74
     0
 42
0.000000001
 43
0.0000000001
 40
-1.0
 40
-1.0
 40
-1.0
 40
-1.0
 40
-0.9088430650619825
 40
-0.9088430650619825
 40
-0.9088430650619825
 40
-0.5823514910988213
 40
-0.5823514910988213
 40
-0.5823514910988213
 40
-0.2911757455494106
 40
-0.2911757455494106
 40
-0.2911757455494106
 40
-0.0929891979470578
 40
-0.0929891979470578
 40
-0.0929891979470578
 40
0.0
 40
0.0
 40
0.0
 40
0.0
 10
-22.88089344101221
 20
57.01806215511452
 30
0.0
 10
-22.95109662338824
 20
57.57958427956336
 30
0.0
 10
-23.07530094603353
 20
58.14396964148397
 30
0.0
 10
-23.26467875113131
 20
58.65029855632063
 30
0.0
 10
-23.94296239134041
 20
60.46378783676311
 30
0.0
 10
-25.33818934915263
 20
61.82576217276981
 30
0.0
 10
-26.83234240725741
 20
63.11905892730158
 30
0.0
 10
-28.16487643065514
 20
64.27246280277161
 30
0.0
 10
-29.57344291859683
 20
65.36239284429594
 30
0.0
 10
-30.66060035163396
 20
66.67307671724376
 30
0.0
 10
-31.40056575619511
 20
67.56518368613803
 30
0.0
 10
-31.98637480260425
 20
68.56096430390344
 30
0.0
 10
-32.2844615912606
 20
69.7237637117277
 30
0.0
 10
-32.42432401750046
 20
70.26934960347976
 30
0.0
 10
-32.49448814716
 20
70.86258538920635
 30
0.0
 10
-32.50000000000151
 20
71.5000000000629
 30
0.0
  0
LINE
  5
25CB
330
25A5
100
AcDbEntity
  8
0
100
AcDbLine
 10
-22.34380262810206
 20
57.09354534627185
 30
0.0
 11
-22.8808934410122
 21
57.01806215511448
 31
0.0
  0
LINE
  5
25CC
330
25A5
100
AcDbEntity
  8
0
100
AcDbLine
 10
-19.40135808271013
 20
57.50707895874675
 30
0.0
 11
-22.34380262810206
 21
57.09354534627185
 31
0.0
  0
SPLINE
  5
25CD
330
25A5
100
AcDbEntity
  8
0
100
AcDbSpline
210
0.0
220
0.0
230
1.0
 70
     8
 71
     2
 72
     6
 73
     3
 74
     0
 42
0.000000001
 43
0.0000000001
 40
0.0
 40
0.0
 40
0.0
 40
1.0
 40
1.0
 40
1.0
 10
-19.40135808271013
 20
57.50707895874673
 30
0.0
 10
-20.85646379032763
 20
67.86069405359663
 30
0.0
 10
-32.50000000000001
 20
71.49999999999991
 30
0.0
  0
SPLINE
  5
25CE
330
25A5
100
AcDbEntity
  8
0
100
AcDbSpline
210
0.0
220
0.0
230
1.0
 70
     8
 71
     3
 72
    20
 73
    16
 74
     0
 42
0.000000001
 43
0.0000000001
 40
-1.0
 40
-1.0
 40
-1.0
 40
-1.0
 40
-0.8565140843592502
 40
-0.8565140843592502
 40
-0.8565140843592502
 40
-0.5402558541866665
 40
-0.5402558541866665
 40
-0.5402558541866665
 40
-0.2701279270933332
 40
-0.2701279270933332
 40
-0.2701279270933332
 40
-0.085254916808621
 40
-0.085254916808621
 40
-0.085254916808621
 40
0.0
 40
0.0
 40
0.0
 40
0.0
 10
22.88089344101224
 20
57.01806215511448
 30
0.0
 10
22.98563906630086
 20
57.92230508726885
 30
0.0
 10
23.25108945202203
 20
58.75125606593299
 30
0.0
 10
23.645004430411
 20
59.49063806021857
 30
0.0
 10
24.51323496960679
 20
61.12031467265835
 30
0.0
 10
25.94709485150713
 20
62.37298809431376
 30
0.0
 10
27.41482735370791
 20
63.61722483981937
 30
0.0
 10
28.66847232013503
 20
64.67997376083046
 30
0.0
 10
29.92402793114615
 20
65.70892477043385
 30
0.0
 10
30.88879741843597
 20
66.95682341165706
 30
0.0
 10
31.54907657307694
 20
67.81087349383693
 30
0.0
 10
32.05964361544057
 20
68.76547766487494
 30
0.0
 10
32.31762450953236
 20
69.85892594188763
 30
0.0
 10
32.43659341489144
 20
70.36317392133948
 30
0.0
 10
32.49484871723274
 20
70.90289999941724
 30
0.0
 10
32.50000000000151
 20
71.50000000006288
 30
0.0
  0
SPLINE
  5
25CF
330
25A5
100
AcDbEntity
  8
0
100
AcDbSpline
210
0.0
220
0.0
230
1.0
 70
     8
 71
     2
 72
     6
 73
     3
 74
     0
 42
0.000000001
 43
0.0000000001
 40
0.0
 40
0.0
 40
0.0
 40
1.0
 40
1.0
 40
1.0
 10
19.40135808271013
 20
57.50707895874673
 30
0.0
 10
20.85646379032763
 20
67.86069405359663
 30
0.0
 10
32.50000000000002
 20
71.49999999999991
 30
0.0
  0
LINE
  5
25D0
330
25A5
100
AcDbEntity
  8
0
100
AcDbLine
 10
22.34380262810205
 20
57.09354534627187
 30
0.0
 11
19.40135808271013
 21
57.50707895874673
 31
0.0
  0
LINE
  5
25D1
330
25A5
100
AcDbEntity
  8
0
100
AcDbLine
 10
22.88089344101218
 20
57.01806215511448
 30
0.0
 11
22.34380262810205
 21
57.09354534627185
 31
0.0
  0
SPLINE
  5
25D2
330
25A5
100
AcDbEntity
  8
0
100
AcDbSpline
210
0.0
220
0.0
230
1.0
 70
     8
 71
     3
 72
    20
 73
    16
 74
     0
 42
0.000000001
 43
0.0000000001
 40
-1.0
 40
-1.0
 40
-1.0
 40
-1.0
 40
-0.8557507846680591
 40
-0.8557507846680591
 40
-0.8557507846680591
 40
-0.4725410755554584
 40
-0.4725410755554584
 40
-0.4725410755554584
 40
-0.2262668722300742
 40
-0.2262668722300742
 40
-0.2262668722300742
 40
-0.0545088760467883
 40
-0.0545088760467883
 40
-0.0545088760467883
 40
0.0
 40
0.0
 40
0.0
 40
0.0
 10
32.50000000000002
 20
71.49999999999993
 30
0.0
 10
32.49596368058212
 20
70.51422263201944
 30
0.0
 10
32.37910965910375
 20
69.6075548200319
 30
0.0
 10
32.16692343470052
 20
68.7957910374817
 30
0.0
 10
31.60323356544088
 20
66.63927488407757
 30
0.0
 10
30.41855420422401
 20
65.09164757619962
 30
0.0
 10
29.21981211985066
 20
63.5266274802225
 30
0.0
 10
28.44942649338703
 20
62.5208490039477
 30
0.0
 10
27.67221333328639
 20
61.51295505187045
 30
0.0
 10
27.05454655900711
 20
60.34589916497183
 30
0.0
 10
26.6237697824438
 20
59.53196421822966
 30
0.0
 10
26.26601864945578
 20
58.62483513659345
 30
0.0
 10
26.05086466152629
 20
57.60015142181813
 30
0.0
 10
25.98258369458659
 20
57.27495923957906
 30
0.0
 10
25.93039957561583
 20
56.93850065070593
 30
0.0
 10
25.89060973843285
 20
56.59507411448338
 30
0.0
  0
LINE
  5
25D3
330
25A5
100
AcDbEntity
  8
0
100
AcDbLine
 10
25.89060973854643
 20
56.59507411444163
 30
0.0
 11
25.17482914754177
 21
56.69567051616518
 31
0.0
  0
LINE
  5
25D4
330
25A5
100
AcDbEntity
  8
0
100
AcDbLine
 10
24.95106001327294
 20
56.72711921707596
 30
0.0
 11
22.88089344101224
 21
57.01806215511447
 31
0.0
  0
LINE
  5
25D5
330
25A5
100
AcDbEntity
  8
0
100
AcDbLine
 10
25.17482914754177
 20
56.69567051616518
 30
0.0
 11
24.95106001327294
 21
56.72711921707596
 31
0.0
  0
SPLINE
  5
25D6
330
25A5
100
AcDbEntity
  8
0
100
AcDbSpline
210
0.0
220
0.0
230
1.0
 70
     8
 71
     3
 72
    14
 73
    10
 74
     0
 42
0.000000001
 43
0.0000000001
 40
-0.4328643671700878
 40
-0.4328643671700878
 40
-0.4328643671700878
 40
-0.4328643671700878
 40
-0.2262668722300742
 40
-0.2262668722300742
 40
-0.2262668722300742
 40
-0.0545088760467883
 40
-0.0545088760467883
 40
-0.0545088760467883
 40
0.0
 40
0.0
 40
0.0
 40
0.0
 10
28.84763067519089
 20
5.25851827107437
 30
0.0
 10
28.20313734939404
 20
6.188104257277662
 30
0.0
 10
27.57270236481503
 20
7.09710709546781
 30
0.0
 10
27.05454655900707
 20
7.846564790687145
 30
0.0
 10
26.62376978244378
 20
8.469637940690212
 30
0.0
 10
26.26601864945576
 20
8.989941880005426
 30
0.0
 10
26.05086466152626
 20
9.312718229929485
 30
0.0
 10
25.98258369458656
 20
9.415154078273165
 30
0.0
 10
25.93039957561579
 20
9.494468906984485
 30
0.0
 10
25.89060973843281
 20
9.558133491115095
 30
0.0
  0
SPLINE
  5
25D7
330
25A5
100
AcDbEntity
  8
0
100
AcDbSpline
210
0.0
220
0.0
230
1.0
 70
     8
 71
     3
 72
    20
 73
    16
 74
     0
 42
0.000000001
 43
0.0000000001
 40
-1.0
 40
-1.0
 40
-1.0
 40
-1.0
 40
-0.8565140843592502
 40
-0.8565140843592502
 40
-0.8565140843592502
 40
-0.5402558541866665
 40
-0.5402558541866665
 40
-0.5402558541866665
 40
-0.2701279270933332
 40
-0.2701279270933332
 40
-0.2701279270933332
 40
-0.085254916808621
 40
-0.085254916808621
 40
-0.085254916808621
 40
0.0
 40
0.0
 40
0.0
 40
0.0
 10
22.88089344101221
 20
9.483549287033985
 30
0.0
 10
22.98563906630083
 20
9.320092462344165
 30
0.0
 10
23.251089452022
 20
9.072461725055342
 30
0.0
 10
23.64500443041097
 20
8.763930907758194
 30
0.0
 10
24.51323496960676
 20
8.083896147577275
 30
0.0
 10
25.94709485150709
 20
7.123035516976845
 30
0.0
 10
27.41482735370788
 20
6.1739602748573
 30
0.0
 10
28.66847232013499
 20
5.363319781266184
 30
0.0
 10
29.92402793114612
 20
4.579673909831294
 30
0.0
 10
30.88879741843593
 20
3.984753324043112
 30
0.0
 10
31.54907657307691
 20
3.577595275786205
 30
0.0
 10
32.05964361544054
 20
3.265340377930282
 30
0.0
 10
32.31762450953232
 20
3.108560584063503
 30
0.0
 10
32.43659341489139
 20
3.036260964650154
 30
0.0
 10
32.4948487172327
 20
2.999954352938652
 30
0.0
 10
32.50000000000147
 20
2.99999999989202
 30
0.0
  0
LINE
  5
25D8
330
25A5
100
AcDbEntity
  8
0
100
AcDbLine
 10
22.34380262810205
 20
5.586466387525074
 30
0.0
 11
22.88089344101219
 21
9.483549287033962
 31
0.0
  0
ELLIPSE
  5
25D9
330
25A5
100
AcDbEntity
  8
0
100
AcDbEllipse
 10
19.40135808271008
 20
5.99999999999996
 30
0.0
 11
0.0000000000000197
 21
-3.0
 31
0.0
210
0.0
220
0.0
230
1.0
 40
0.9902680687415704
 41
0.0000000000000001
 42
1.432511480600922
  0
LINE
  5
25DA
330
25A5
100
AcDbEntity
  8
0
100
AcDbLine
 10
25.17482914755659
 20
9.540395631335908
 30
0.0
 11
25.8906097385464
 21
9.558133491121591
 31
0.0
  0
LINE
  5
25DB
330
25A5
100
AcDbEntity
  8
0
100
AcDbLine
 10
24.951060013261
 20
9.534850376856443
 30
0.0
 11
25.17482914755659
 21
9.540395631335908
 31
0.0
  0
LINE
  5
25DC
330
25A5
100
AcDbEntity
  8
0
100
AcDbLine
 10
22.8808934410122
 20
9.483549287033959
 30
0.0
 11
24.951060013261
 21
9.534850376856443
 31
0.0
  0
SPLINE
  5
25DD
330
25A5
100
AcDbEntity
  8
0
100
AcDbSpline
210
0.0
220
0.0
230
1.0
 70
     8
 71
     3
 72
    14
 73
    10
 74
     0
 42
0.000000001
 43
0.0000000001
 40
-0.4328643671700874
 40
-0.4328643671700874
 40
-0.4328643671700874
 40
-0.4328643671700874
 40
-0.2262668722300742
 40
-0.2262668722300742
 40
-0.2262668722300742
 40
-0.0545088760467883
 40
-0.0545088760467883
 40
-0.0545088760467883
 40
0.0
 40
0.0
 40
0.0
 40
0.0
 10
-28.84763067519096
 20
5.258518271074381
 30
0.0
 10
-28.2031373493941
 20
6.188104257277671
 30
0.0
 10
-27.5727023648151
 20
7.097107095467817
 30
0.0
 10
-27.05454655900713
 20
7.846564790687152
 30
0.0
 10
-26.62376978244383
 20
8.469637940690219
 30
0.0
 10
-26.26601864945581
 20
8.989941880005433
 30
0.0
 10
-26.05086466152633
 20
9.31271822992949
 30
0.0
 10
-25.98258369458662
 20
9.41515407827317
 30
0.0
 10
-25.93039957561585
 20
9.49446890698449
 30
0.0
 10
-25.89060973843288
 20
9.5581334911151
 30
0.0
  0
SPLINE
  5
25DE
330
25A5
100
AcDbEntity
  8
0
100
AcDbSpline
210
0.0
220
0.0
230
1.0
 70
     8
 71
     3
 72
    20
 73
    16
 74
     0
 42
0.000000001
 43
0.0000000001
 40
-1.0
 40
-1.0
 40
-1.0
 40
-1.0
 40
-0.8565140843592502
 40
-0.8565140843592502
 40
-0.8565140843592502
 40
-0.5402558541866665
 40
-0.5402558541866665
 40
-0.5402558541866665
 40
-0.2701279270933332
 40
-0.2701279270933332
 40
-0.2701279270933332
 40
-0.085254916808621
 40
-0.085254916808621
 40
-0.085254916808621
 40
0.0
 40
0.0
 40
0.0
 40
0.0
 10
-22.88089344101227
 20
9.483549287033991
 30
0.0
 10
-22.98563906630089
 20
9.32009246234417
 30
0.0
 10
-23.25108945202206
 20
9.072461725055346
 30
0.0
 10
-23.64500443041103
 20
8.763930907758197
 30
0.0
 10
-24.51323496960681
 20
8.083896147577281
 30
0.0
 10
-25.94709485150716
 20
7.123035516976851
 30
0.0
 10
-27.41482735370794
 20
6.173960274857305
 30
0.0
 10
-28.66847232013505
 20
5.36331978126619
 30
0.0
 10
-29.92402793114618
 20
4.579673909831301
 30
0.0
 10
-30.88879741843599
 20
3.984753324043119
 30
0.0
 10
-31.54907657307696
 20
3.577595275786211
 30
0.0
 10
-32.05964361544059
 20
3.265340377930288
 30
0.0
 10
-32.31762450953239
 20
3.108560584063511
 30
0.0
 10
-32.43659341489148
 20
3.036260964650161
 30
0.0
 10
-32.49484871723278
 20
2.999954352938659
 30
0.0
 10
-32.50000000000155
 20
2.999999999892027
 30
0.0
  0
ELLIPSE
  5
25DF
330
25A5
100
AcDbEntity
  8
0
100
AcDbEllipse
 10
-19.40135808271016
 20
5.999999999999964
 30
0.0
 11
-0.0000000000000033
 21
-3.0
 31
0.0
210
0.0
220
0.0
230
1.0
 40
0.9902680687415704
 41
4.850673826578658
 42
6.283185307179586
  0
LINE
  5
25E0
330
25A5
100
AcDbEntity
  8
0
100
AcDbLine
 10
-22.88089344101227
 20
9.483549287033964
 30
0.0
 11
-22.34380262810213
 21
5.586466387525077
 31
0.0
  0
LINE
  5
25E1
330
25A5
100
AcDbEntity
  8
0
100
AcDbLine
 10
-25.89060973854647
 20
9.558133491121594
 30
0.0
 11
-25.17482914755666
 21
9.540395631335909
 31
0.0
  0
LINE
  5
25E2
330
25A5
100
AcDbEntity
  8
0
100
AcDbLine
 10
-24.95106001326107
 20
9.534850376856446
 30
0.0
 11
-22.88089344101226
 21
9.483549287033962
 31
0.0
  0
LINE
  5
25E3
330
25A5
100
AcDbEntity
  8
0
100
AcDbLine
 10
-25.17482914755666
 20
9.540395631335909
 30
0.0
 11
-24.95106001326107
 21
9.534850376856446
 31
0.0
  0
LINE
  5
25E4
330
25A5
100
AcDbEntity
  8
0
100
AcDbLine
 10
25.49999999999997
 20
0.0
 30
0.0
 11
32.49999999999997
 21
0.0
 31
0.0
  0
LINE
  5
25E5
330
25A5
100
AcDbEntity
  8
0
100
AcDbLine
 10
-32.50000000000005
 20
0.0
 30
0.0
 11
-25.50000000000004
 21
0.0
 31
0.0
  0
LINE
  5
25E6
330
25A5
100
AcDbEntity
  8
0
100
AcDbLine
 10
25.50000000000002
 20
205.0
 30
0.0
 11
32.50000000000003
 21
198.0
 31
0.0
  0
LINE
  5
25E7
330
25A5
100
AcDbEntity
  8
0
100
AcDbLine
 10
-32.5
 20
198.0
 30
0.0
 11
-25.49999999999999
 21
205.0
 31
0.0
  0
LINE
  5
25E8
330
25A5
100
AcDbEntity
  8
0
100
AcDbLine
 10
-25.50000000000004
 20
2.999999999999962
 30
0.0
 11
-32.50000000000005
 21
2.999999999999963
 31
0.0
  0
LINE
  5
25E9
330
25A5
100
AcDbEntity
  8
0
100
AcDbLine
 10
32.49999999999997
 20
2.999999999999955
 30
0.0
 11
25.49999999999997
 21
2.999999999999956
 31
0.0
  0
LINE
  5
25EA
330
25A5
100
AcDbEntity
  8
0
100
AcDbLine
 10
25.49999999999997
 20
2.999999999999956
 30
0.0
 11
25.49999999999997
 21
0.0
 31
0.0
  0
LINE
  5
25EB
330
25A5
100
AcDbEntity
  8
0
100
AcDbLine
 10
-25.50000000000004
 20
0.0
 30
0.0
 11
-25.50000000000004
 21
2.999999999999962
 31
0.0
  0
LINE
  5
25EC
330
25A5
100
AcDbEntity
  8
0
100
AcDbLine
 10
-25.50000000000004
 20
0.0
 30
0.0
 11
25.49999999999997
 21
0.0
 31
0.0
  0
LINE
  5
25ED
330
25A5
100
AcDbEntity
  8
0
100
AcDbLine
 10
-25.89060973854647
 20
9.558133491121598
 30
0.0
 11
-22.45917600970658
 21
14.78494715841454
 31
0.0
  0
ELLIPSE
  5
25EE
330
25A5
100
AcDbEntity
  8
0
100
AcDbEllipse
 10
-24.9013314616603
 20
29.55706345359767
 30
0.0
 11
-2.149316260459889
 21
14.99707715516454
 31
0.0
210
0.0
220
0.0
230
1.0
 40
0.1377659927417808
 41
3.296384117292447
 42
4.518114593693587
  0
LINE
  5
25EF
330
25A5
100
AcDbEntity
  8
0
100
AcDbLine
 10
-22.45917600970656
 20
26.95234078859371
 30
0.0
 11
-25.89060973854639
 21
56.59507411444163
 31
0.0
  0
LINE
  5
25F0
330
25A5
100
AcDbEntity
  8
0
100
AcDbLine
 10
25.50000000000002
 20
205.0
 30
0.0
 11
-25.49999999999999
 21
205.0
 31
0.0
  0
LINE
  5
25F1
330
25A5
100
AcDbEntity
  8
0
100
AcDbLine
 10
-13.14629605568258
 20
12.99999999999998
 30
0.0
 11
-19.40135808271008
 21
57.50707895874673
 31
0.0
  0
LINE
  5
25F2
330
25A5
100
AcDbEntity
  8
0
100
AcDbLine
 10
19.40135808271008
 20
57.50707895874673
 30
0.0
 11
13.14629605568256
 21
12.99999999999997
 31
0.0
  0
ELLIPSE
  5
25F3
330
25A5
100
AcDbEntity
  8
0
100
AcDbEllipse
 10
14.13008189859931
 20
12.99999999999997
 30
0.0
 11
-0.9932598611245541
 21
-9.999531768717298
 31
0.0
210
0.0
220
0.0
230
1.0
 40
0.0974265314997313
 41
4.722066117737844
 42
6.292862444532752
  0
ELLIPSE
  5
25F4
330
25A5
100
AcDbEntity
  8
0
100
AcDbEllipse
 10
-14.13008189859933
 20
12.99999999999997
 30
0.0
 11
-0.9932598611246548
 21
9.999531768717288
 31
0.0
210
0.0
220
0.0
230
1.0
 40
0.0974265314997323
 41
3.131915516220281
 42
4.702711843026083
  0
LINE
  5
25F5
330
25A5
100
AcDbEntity
  8
0
100
AcDbLine
 10
10.83625022171782
 20
7.956249513453889
 30
0.0
 11
-11.04959833269754
 21
7.956249513453895
 31
0.0
  0
LINE
  5
25F6
330
25A5
100
AcDbEntity
  8
0
100
AcDbLine
 10
22.45917600970654
 20
14.78494715841453
 30
0.0
 11
25.89060973854639
 21
9.558133491121592
 31
0.0
  0
LINE
  5
25F7
330
25A5
100
AcDbEntity
  8
0
100
AcDbLine
 10
25.89060973854639
 20
56.59507411444163
 30
0.0
 11
22.45917600970654
 21
26.9523407885937
 31
0.0
  0
ELLIPSE
  5
25F8
330
25A5
100
AcDbEntity
  8
0
100
AcDbEllipse
 10
24.90133146166027
 20
29.55706345359767
 30
0.0
 11
-2.149316260459678
 21
-14.99707715516457
 31
0.0
210
0.0
220
0.0
230
1.0
 40
0.1377659927417799
 41
4.906663367072862
 42
6.128393843468898
  0
LINE
  5
25F9
330
25A5
100
AcDbEntity
  8
0
100
AcDbLine
 10
32.49999999999997
 20
0.0
 30
0.0
 11
32.49999999999997
 21
2.999999999999955
 31
0.0
  0
LINE
  5
25FA
330
25A5
100
AcDbEntity
  8
0
100
AcDbLine
 10
-32.50000000000005
 20
2.999999999999963
 30
0.0
 11
-32.50000000000005
 21
0.0
 31
0.0
  0
ENDBLK
  5
25A7
330
25A5
100
AcDbEntity
  8
0
100
AcDbBlockEnd
  0
BLOCK
  5
25FC
330
25FB
100
AcDbEntity
  8
0
100
AcDbBlockBegin
  2
AKR205X3L-Left
 70
     0
 10
0.0
 20
0.0
 30
0.0
  3
AKR205X3L-Left
  1

  0
ELLIPSE
  5
25FE
330
25FB
100
AcDbEntity
  8
0
100
AcDbEllipse
 10
5.999999999999995
 20
57.50707895874673
 30
0.0
 11
-6.000000000000003
 21
-0.0000000000000011
 31
0.0
210
0.0
220
0.0
230
1.0
 40
0.139173100960066
 41
0.0
 42
1.432511480600928
  0
LINE
  5
25FF
330
25FB
100
AcDbEntity
  8
0
100
AcDbLine
 10
9.558133491121624
 20
56.59507411444161
 30
0.0
 11
5.17293277505022
 21
56.68001173379696
 31
0.0
  0
SPLINE
  5
2600
330
25FB
100
AcDbEntity
  8
0
100
AcDbSpline
210
0.0
220
0.0
230
1.0
 70
     8
 71
     3
 72
    20
 73
    16
 74
     0
 42
0.000000001
 43
0.0000000001
 40
-1.0
 40
-1.0
 40
-1.0
 40
-1.0
 40
-0.8557507846680591
 40
-0.8557507846680591
 40
-0.8557507846680591
 40
-0.4725410755554584
 40
-0.4725410755554584
 40
-0.4725410755554584
 40
-0.2262668722300742
 40
-0.2262668722300742
 40
-0.2262668722300742
 40
-0.0545088760467883
 40
-0.0545088760467883
 40
-0.0545088760467883
 40
0.0
 40
0.0
 40
0.0
 40
0.0
 10
-0.0000000000000212
 20
71.49999999999993
 30
0.0
 10
-0.0000078262250717
 20
70.51422263201944
 30
0.0
 10
0.1669297411130521
 20
69.6075548200319
 30
0.0
 10
0.4742787332328171
 20
68.7957910374817
 30
0.0
 10
1.290776192822024
 20
66.63927488407757
 30
0.0
 10
2.99223789463979
 20
65.09164757619962
 30
0.0
 10
4.721648724147891
 20
63.5266274802225
 30
0.0
 10
5.833074828788292
 20
62.5208490039477
 30
0.0
 10
6.953174980371164
 20
61.51295505187045
 30
0.0
 10
7.846564790687171
 20
60.34589916497183
 30
0.0
 10
8.46963794069024
 20
59.53196421822966
 30
0.0
 10
8.989941880005453
 20
58.62483513659345
 30
0.0
 10
9.312718229929512
 20
57.60015142181813
 30
0.0
 10
9.415154078273189
 20
57.27495923957906
 30
0.0
 10
9.494468906984511
 20
56.93850065070593
 30
0.0
 10
9.558133491115121
 20
56.59507411448338
 30
0.0
  0
LINE
  5
2601
330
25FB
100
AcDbEntity
  8
0
100
AcDbLine
 10
0.0
 20
57.50707895874673
 30
0.0
 11
0.0
 21
71.49999999999991
 31
0.0
  0
LINE
  5
2602
330
25FB
100
AcDbEntity
  8
0
100
AcDbLine
 10
9.540395631335549
 20
56.69567051616519
 30
0.0
 11
9.558133491121601
 21
56.59507411444163
 31
0.0
  0
LINE
  5
2603
330
25FB
100
AcDbEntity
  8
0
100
AcDbLine
 10
9.483549287033968
 20
57.01806215511448
 30
0.0
 11
9.540395631335549
 21
56.69567051616519
 31
0.0
  0
SPLINE
  5
2604
330
25FB
100
AcDbEntity
  8
0
100
AcDbSpline
210
0.0
220
0.0
230
1.0
 70
     8
 71
     3
 72
    20
 73
    16
 74
     0
 42
0.000000001
 43
0.0000000001
 40
-1.0
 40
-1.0
 40
-1.0
 40
-1.0
 40
-0.9088430650619825
 40
-0.9088430650619825
 40
-0.9088430650619825
 40
-0.5823514910988213
 40
-0.5823514910988213
 40
-0.5823514910988213
 40
-0.2911757455494106
 40
-0.2911757455494106
 40
-0.2911757455494106
 40
-0.0929891979470578
 40
-0.0929891979470578
 40
-0.0929891979470578
 40
0.0
 40
0.0
 40
0.0
 40
0.0
 10
9.483549287034016
 20
57.01806215511452
 30
0.0
 10
9.381169593259174
 20
57.57958427956336
 30
0.0
 10
9.242772734436293
 20
58.14396964148397
 30
0.0
 10
9.075441588598874
 20
58.65029855632063
 30
0.0
 10
8.476121205408443
 20
60.46378783676311
 30
0.0
 10
7.529947235283154
 20
61.82576217276981
 30
0.0
 10
6.552968196346863
 20
63.11905892730158
 30
0.0
 10
5.681666690475476
 20
64.27246280277161
 30
0.0
 10
4.797133478950915
 20
65.36239284429594
 30
0.0
 10
4.125019842467759
 20
66.67307671724376
 30
0.0
 10
3.667550828488859
 20
67.56518368613803
 30
0.0
 10
3.313074295099347
 20
68.56096430390344
 30
0.0
 10
3.127679985988247
 20
69.7237637117277
 30
0.0
 10
3.040692910847405
 20
70.26934960347976
 30
0.0
 10
3.002604749032493
 20
70.86258538920635
 30
0.0
 10
2.999999999891819
 20
71.5000000000629
 30
0.0
  0
ELLIPSE
  5
2605
330
25FB
100
AcDbEntity
  8
0
100
AcDbEllipse
 10
57.50707895874676
 20
5.999999999999962
 30
0.0
 11
0.0000000000000006
 21
-6.000000000000001
 31
0.0
210
0.0
220
0.0
230
1.0
 40
0.1391731009600662
 41
4.85067382657872
 42
6.283185307179711
  0
LINE
  5
2606
330
25FB
100
AcDbEntity
  8
0
100
AcDbLine
 10
57.50707895874676
 20
0.0
 30
0.0
 11
71.49999999999993
 21
0.0
 31
0.0
  0
SPLINE
  5
2607
330
25FB
100
AcDbEntity
  8
0
100
AcDbSpline
210
0.0
220
0.0
230
1.0
 70
     8
 71
     3
 72
    20
 73
    16
 74
     0
 42
0.000000001
 43
0.0000000001
 40
-1.0
 40
-1.0
 40
-1.0
 40
-1.0
 40
-0.8557507846680591
 40
-0.8557507846680591
 40
-0.8557507846680591
 40
-0.4725410755554584
 40
-0.4725410755554584
 40
-0.4725410755554584
 40
-0.2262668722300742
 40
-0.2262668722300742
 40
-0.2262668722300742
 40
-0.0545088760467883
 40
-0.0545088760467883
 40
-0.0545088760467883
 40
0.0
 40
0.0
 40
0.0
 40
0.0
 10
71.49999999999995
 20
-0.0000000000000379
 30
0.0
 10
70.51422263201946
 20
-0.0000078262250883
 30
0.0
 10
69.6075548200319
 20
0.1669297411130355
 30
0.0
 10
68.79579103748172
 20
0.4742787332328004
 30
0.0
 10
66.63927488407759
 20
1.290776192822007
 30
0.0
 10
65.09164757619965
 20
2.992237894639773
 30
0.0
 10
63.52662748022251
 20
4.721648724147872
 30
0.0
 10
62.52084900394771
 20
5.833074828788273
 30
0.0
 10
61.51295505187047
 20
6.953174980371146
 30
0.0
 10
60.34589916497186
 20
7.846564790687152
 30
0.0
 10
59.53196421822969
 20
8.469637940690219
 30
0.0
 10
58.62483513659348
 20
8.989941880005432
 30
0.0
 10
57.60015142181813
 20
9.31271822992949
 30
0.0
 10
57.27495923957907
 20
9.41515407827317
 30
0.0
 10
56.93850065070595
 20
9.49446890698449
 30
0.0
 10
56.59507411448339
 20
9.5581334911151
 30
0.0
  0
LINE
  5
2608
330
25FB
100
AcDbEntity
  8
0
100
AcDbLine
 10
56.68001173379697
 20
5.17293277505019
 30
0.0
 11
56.59507411444163
 21
9.5581334911216
 31
0.0
  0
SPLINE
  5
2609
330
25FB
100
AcDbEntity
  8
0
100
AcDbSpline
210
0.0
220
0.0
230
1.0
 70
     8
 71
     3
 72
    20
 73
    16
 74
     0
 42
0.000000001
 43
0.0000000001
 40
-1.0
 40
-1.0
 40
-1.0
 40
-1.0
 40
-0.8565140843592502
 40
-0.8565140843592502
 40
-0.8565140843592502
 40
-0.5402558541866665
 40
-0.5402558541866665
 40
-0.5402558541866665
 40
-0.2701279270933332
 40
-0.2701279270933332
 40
-0.2701279270933332
 40
-0.085254916808621
 40
-0.085254916808621
 40
-0.085254916808621
 40
0.0
 40
0.0
 40
0.0
 40
0.0
 10
57.01806215511449
 20
9.483549287033991
 30
0.0
 10
57.92230508726888
 20
9.32009246234417
 30
0.0
 10
58.751256065933
 20
9.072461725055346
 30
0.0
 10
59.4906380602186
 20
8.763930907758197
 30
0.0
 10
61.12031467265836
 20
8.083896147577281
 30
0.0
 10
62.37298809431377
 20
7.123035516976851
 30
0.0
 10
63.61722483981939
 20
6.173960274857305
 30
0.0
 10
64.67997376083047
 20
5.36331978126619
 30
0.0
 10
65.70892477043386
 20
4.579673909831301
 30
0.0
 10
66.95682341165708
 20
3.984753324043118
 30
0.0
 10
67.81087349383695
 20
3.577595275786211
 30
0.0
 10
68.76547766487495
 20
3.265340377930288
 30
0.0
 10
69.85892594188765
 20
3.10856058406351
 30
0.0
 10
70.36317392133949
 20
3.036260964650161
 30
0.0
 10
70.90289999941726
 20
2.999954352938658
 30
0.0
 10
71.5000000000629
 20
2.999999999892027
 30
0.0
  0
LINE
  5
260A
330
25FB
100
AcDbEntity
  8
0
100
AcDbLine
 10
56.59507411444164
 20
9.558133491121594
 30
0.0
 11
56.69567051616311
 21
9.540395631335909
 31
0.0
  0
LINE
  5
260B
330
25FB
100
AcDbEntity
  8
0
100
AcDbLine
 10
56.72711921707765
 20
9.534850376856446
 30
0.0
 11
57.01806215511449
 21
9.483549287033962
 31
0.0
  0
LINE
  5
260C
330
25FB
100
AcDbEntity
  8
0
100
AcDbLine
 10
56.69567051616311
 20
9.540395631335909
 30
0.0
 11
56.72711921707765
 21
9.534850376856446
 31
0.0
  0
LINE
  5
260D
330
25FB
100
AcDbEntity
  8
0
100
AcDbLine
 10
0.0
 20
57.50707895874676
 30
0.0
 11
0.0
 21
9.999999999999973
 31
0.0
  0
ARC
  5
260E
330
25FB
100
AcDbEntity
  8
0
100
AcDbCircle
 10
9.999999999999994
 20
9.999999999999966
 30
0.0
 40
10.0
100
AcDbArc
 50
180.0
 51
270.0
  0
LINE
  5
260F
330
25FB
100
AcDbEntity
  8
0
100
AcDbLine
 10
9.999999999999992
 20
0.0
 30
0.0
 11
57.50707895874676
 21
0.0
 31
0.0
  0
LINE
  5
2610
330
25FB
100
AcDbEntity
  8
0
100
AcDbLine
 10
0.0
 20
198.0
 30
0.0
 11
0.0
 21
71.49999999999995
 31
0.0
  0
LINE
  5
2611
330
25FB
100
AcDbEntity
  8
0
100
AcDbLine
 10
0.0
 20
205.0
 30
0.0
 11
0.0
 21
198.0
 31
0.0
  0
LINE
  5
2612
330
25FB
100
AcDbEntity
  8
0
100
AcDbLine
 10
77.99999999999998
 20
0.0
 30
0.0
 11
85.00000000000001
 21
0.0
 31
0.0
  0
LINE
  5
2613
330
25FB
100
AcDbEntity
  8
0
100
AcDbLine
 10
2.999999999999994
 20
198.0
 30
0.0
 11
2.999999999999997
 21
205.0
 31
0.0
  0
LINE
  5
2614
330
25FB
100
AcDbEntity
  8
0
100
AcDbLine
 10
85.00000000000001
 20
2.999999999999962
 30
0.0
 11
77.99999999999998
 21
2.999999999999963
 31
0.0
  0
LINE
  5
2615
330
25FB
100
AcDbEntity
  8
0
100
AcDbLine
 10
85.00000000000001
 20
0.0
 30
0.0
 11
85.00000000000001
 21
2.999999999999962
 31
0.0
  0
LINE
  5
2616
330
25FB
100
AcDbEntity
  8
0
100
AcDbLine
 10
0.0
 20
198.0
 30
0.0
 11
2.999999999999994
 21
198.0
 31
0.0
  0
LINE
  5
2617
330
25FB
100
AcDbEntity
  8
0
100
AcDbLine
 10
71.49999999999993
 20
0.0
 30
0.0
 11
77.99999999999998
 21
0.0
 31
0.0
  0
LINE
  5
2618
330
25FB
100
AcDbEntity
  8
0
100
AcDbLine
 10
71.49999999999993
 20
2.999999999999963
 30
0.0
 11
77.99999999999998
 21
2.999999999999963
 31
0.0
  0
LINE
  5
2619
330
25FB
100
AcDbEntity
  8
0
100
AcDbLine
 10
77.99999999999998
 20
2.999999999999963
 30
0.0
 11
77.99999999999998
 21
0.0
 31
0.0
  0
LINE
  5
261A
330
25FB
100
AcDbEntity
  8
0
100
AcDbLine
 10
56.59507411444166
 20
9.558133491121598
 30
0.0
 11
26.95234078859373
 21
14.78494715841454
 31
0.0
  0
ARC
  5
261B
330
25FB
100
AcDbEntity
  8
0
100
AcDbCircle
 10
29.55706345359767
 20
29.55706345359767
 30
0.0
 40
15.0
100
AcDbArc
 50
190.0
 51
260.0
  0
LINE
  5
261C
330
25FB
100
AcDbEntity
  8
0
100
AcDbLine
 10
14.78494715841455
 20
26.95234078859371
 30
0.0
 11
9.558133491121603
 21
56.59507411444163
 31
0.0
  0
LINE
  5
261D
330
25FB
100
AcDbEntity
  8
0
100
AcDbLine
 10
2.999999999999986
 20
71.49999999999995
 30
0.0
 11
2.999999999999994
 21
198.0
 31
0.0
  0
LINE
  5
261E
330
25FB
100
AcDbEntity
  8
0
100
AcDbLine
 10
2.999999999999997
 20
205.0
 30
0.0
 11
0.0
 21
205.0
 31
0.0
  0
ENDBLK
  5
25FD
330
25FB
100
AcDbEntity
  8
0
100
AcDbBlockEnd
  0
BLOCK
  5
2620
330
261F
100
AcDbEntity
  8
0
100
AcDbBlockBegin
  2
AKR205X3L-Right
 70
     0
 10
0.0
 20
0.0
 30
0.0
  3
AKR205X3L-Right
  1

  0
SPLINE
  5
2622
330
261F
100
AcDbEntity
  8
0
100
AcDbSpline
210
0.0
220
0.0
230
1.0
 70
     8
 71
     3
 72
    14
 73
    10
 74
     0
 42
0.000000001
 43
0.0000000001
 40
-0.997789871105153
 40
-0.997789871105153
 40
-0.997789871105153
 40
-0.997789871105153
 40
-0.9088430650619825
 40
-0.9088430650619825
 40
-0.9088430650619825
 40
-0.5823514910988213
 40
-0.5823514910988213
 40
-0.5823514910988213
 40
-0.3934879730315305
 40
-0.3934879730315305
 40
-0.3934879730315305
 40
-0.3934879730315305
 10
-9.476039186718978
 20
57.05890918398083
 30
0.0
 10
-9.374441632895857
 20
57.60691755731383
 30
0.0
 10
-9.238715737558605
 20
58.15624574714435
 30
0.0
 10
-9.075441588598874
 20
58.65029855632063
 30
0.0
 10
-8.476121205408443
 20
60.46378783676311
 30
0.0
 10
-7.529947235283154
 20
61.82576217276981
 30
0.0
 10
-6.552968196346863
 20
63.11905892730158
 30
0.0
 10
-5.987821304095585
 20
63.86718413004706
 30
0.0
 10
-5.417107663489505
 20
64.58860507636845
 30
0.0
 10
-4.902403978710181
 20
65.36088304939602
 30
0.0
  0
SPLINE
  5
2623
330
261F
100
AcDbEntity
  8
0
100
AcDbSpline
210
0.0
220
0.0
230
1.0
 70
     8
 71
     3
 72
     8
 73
     4
 74
     0
 42
0.000000001
 43
0.0000000001
 40
-0.0207443243060441
 40
-0.0207443243060441
 40
-0.0207443243060441
 40
-0.0207443243060441
 40
0.0
 40
0.0
 40
0.0
 40
0.0
 10
-3.007189778399342
 20
71.08004495829814
 30
0.0
 10
-3.002928022202985
 20
71.217805674029
 30
0.0
 10
-3.00058107556623
 20
71.35780353319427
 30
0.0
 10
-2.999999999891819
 20
71.5000000000629
 30
0.0
  0
SPLINE
  5
2624
330
261F
100
AcDbEntity
  8
0
100
AcDbSpline
210
0.0
220
0.0
230
1.0
 70
     8
 71
     3
 72
    20
 73
    16
 74
     0
 42
0.000000001
 43
0.0000000001
 40
-1.0
 40
-1.0
 40
-1.0
 40
-1.0
 40
-0.8565140843592502
 40
-0.8565140843592502
 40
-0.8565140843592502
 40
-0.5402558541866665
 40
-0.5402558541866665
 40
-0.5402558541866665
 40
-0.2701279270933332
 40
-0.2701279270933332
 40
-0.2701279270933332
 40
-0.085254916808621
 40
-0.085254916808621
 40
-0.085254916808621
 40
0.0
 40
0.0
 40
0.0
 40
0.0
 10
-9.483549287034033
 20
57.01806215511448
 30
0.0
 10
-9.320092462344213
 20
57.92230508726885
 30
0.0
 10
-9.07246172505539
 20
58.75125606593299
 30
0.0
 10
-8.763930907758242
 20
59.49063806021857
 30
0.0
 10
-8.083896147577323
 20
61.12031467265835
 30
0.0
 10
-7.123035516976893
 20
62.37298809431376
 30
0.0
 10
-6.17396027485735
 20
63.61722483981937
 30
0.0
 10
-5.363319781266236
 20
64.67997376083046
 30
0.0
 10
-4.579673909831345
 20
65.70892477043385
 30
0.0
 10
-3.984753324043164
 20
66.95682341165706
 30
0.0
 10
-3.577595275786257
 20
67.81087349383693
 30
0.0
 10
-3.265340377930335
 20
68.76547766487494
 30
0.0
 10
-3.108560584063555
 20
69.85892594188763
 30
0.0
 10
-3.036260964650206
 20
70.36317392133948
 30
0.0
 10
-2.999954352938704
 20
70.90289999941724
 30
0.0
 10
-2.999999999892072
 20
71.50000000006288
 30
0.0
  0
ELLIPSE
  5
2625
330
261F
100
AcDbEntity
  8
0
100
AcDbEllipse
 10
-6.000000000000013
 20
57.50707895874673
 30
0.0
 11
6.000000000000001
 21
-0.0000000000000095
 31
0.0
210
0.0
220
0.0
230
1.0
 40
0.1391731009600659
 41
4.850673826579095
 42
6.28318530718044
  0
LINE
  5
2626
330
261F
100
AcDbEntity
  8
0
100
AcDbLine
 10
0.0
 20
57.50707895874673
 30
0.0
 11
0.0
 21
71.49999999999991
 31
0.0
  0
SPLINE
  5
2627
330
261F
100
AcDbEntity
  8
0
100
AcDbSpline
210
0.0
220
0.0
230
1.0
 70
     8
 71
     3
 72
    20
 73
    16
 74
     0
 42
0.000000001
 43
0.0000000001
 40
-1.0
 40
-1.0
 40
-1.0
 40
-1.0
 40
-0.8557507846680591
 40
-0.8557507846680591
 40
-0.8557507846680591
 40
-0.4725410755554584
 40
-0.4725410755554584
 40
-0.4725410755554584
 40
-0.2262668722300742
 40
-0.2262668722300742
 40
-0.2262668722300742
 40
-0.0545088760467883
 40
-0.0545088760467883
 40
-0.0545088760467883
 40
0.0
 40
0.0
 40
0.0
 40
0.0
 10
-0.000000000000008
 20
71.49999999999993
 30
0.0
 10
0.0000078262250425
 20
70.51422263201944
 30
0.0
 10
-0.1669297411130812
 20
69.6075548200319
 30
0.0
 10
-0.474278733232846
 20
68.7957910374817
 30
0.0
 10
-1.290776192822052
 20
66.63927488407757
 30
0.0
 10
-2.992237894639817
 20
65.09164757619962
 30
0.0
 10
-4.721648724147917
 20
63.5266274802225
 30
0.0
 10
-5.833074828788319
 20
62.5208490039477
 30
0.0
 10
-6.953174980371191
 20
61.51295505187045
 30
0.0
 10
-7.846564790687196
 20
60.34589916497183
 30
0.0
 10
-8.469637940690262
 20
59.53196421822966
 30
0.0
 10
-8.989941880005474
 20
58.62483513659345
 30
0.0
 10
-9.312718229929533
 20
57.60015142181813
 30
0.0
 10
-9.415154078273213
 20
57.27495923957906
 30
0.0
 10
-9.494468906984533
 20
56.93850065070593
 30
0.0
 10
-9.558133491115142
 20
56.59507411448338
 30
0.0
  0
LINE
  5
2628
330
261F
100
AcDbEntity
  8
0
100
AcDbLine
 10
-5.172932775050242
 20
56.68001173379696
 30
0.0
 11
-9.558133491121648
 21
56.59507411444161
 31
0.0
  0
LINE
  5
2629
330
261F
100
AcDbEntity
  8
0
100
AcDbLine
 10
-9.558133491121624
 20
56.59507411444163
 30
0.0
 11
-9.540395631335572
 21
56.69567051616518
 31
0.0
  0
LINE
  5
262A
330
261F
100
AcDbEntity
  8
0
100
AcDbLine
 10
-9.534850376856772
 20
56.72711921707596
 30
0.0
 11
-9.483549287033991
 21
57.01806215511447
 31
0.0
  0
LINE
  5
262B
330
261F
100
AcDbEntity
  8
0
100
AcDbLine
 10
-9.540395631335572
 20
56.69567051616518
 30
0.0
 11
-9.534850376856772
 21
56.72711921707596
 31
0.0
  0
ELLIPSE
  5
262C
330
261F
100
AcDbEntity
  8
0
100
AcDbEllipse
 10
-57.50707895874676
 20
5.999999999999959
 30
0.0
 11
0.000000000000001
 21
-6.000000000000001
 31
0.0
210
0.0
220
0.0
230
1.0
 40
0.1391731009600658
 41
0.0
 42
1.432511480600929
  0
LINE
  5
262D
330
261F
100
AcDbEntity
  8
0
100
AcDbLine
 10
-56.59507411444167
 20
9.558133491121596
 30
0.0
 11
-56.68001173379701
 21
5.172932775050186
 31
0.0
  0
SPLINE
  5
262E
330
261F
100
AcDbEntity
  8
0
100
AcDbSpline
210
0.0
220
0.0
230
1.0
 70
     8
 71
     3
 72
    20
 73
    16
 74
     0
 42
0.000000001
 43
0.0000000001
 40
-1.0
 40
-1.0
 40
-1.0
 40
-1.0
 40
-0.8557507846680591
 40
-0.8557507846680591
 40
-0.8557507846680591
 40
-0.4725410755554584
 40
-0.4725410755554584
 40
-0.4725410755554584
 40
-0.2262668722300742
 40
-0.2262668722300742
 40
-0.2262668722300742
 40
-0.0545088760467883
 40
-0.0545088760467883
 40
-0.0545088760467883
 40
0.0
 40
0.0
 40
0.0
 40
0.0
 10
-71.49999999999997
 20
-0.0000000000000452
 30
0.0
 10
-70.51422263201949
 20
-0.0000078262250957
 30
0.0
 10
-69.60755482003195
 20
0.1669297411130281
 30
0.0
 10
-68.79579103748176
 20
0.4742787332327931
 30
0.0
 10
-66.63927488407764
 20
1.290776192822
 30
0.0
 10
-65.09164757619967
 20
2.992237894639766
 30
0.0
 10
-63.52662748022255
 20
4.721648724147866
 30
0.0
 10
-62.52084900394774
 20
5.833074828788267
 30
0.0
 10
-61.5129550518705
 20
6.953174980371139
 30
0.0
 10
-60.34589916497189
 20
7.846564790687145
 30
0.0
 10
-59.53196421822973
 20
8.469637940690212
 30
0.0
 10
-58.6248351365935
 20
8.989941880005426
 30
0.0
 10
-57.60015142181817
 20
9.312718229929485
 30
0.0
 10
-57.27495923957911
 20
9.415154078273165
 30
0.0
 10
-56.93850065070598
 20
9.494468906984485
 30
0.0
 10
-56.59507411448342
 20
9.558133491115095
 30
0.0
  0
LINE
  5
262F
330
261F
100
AcDbEntity
  8
0
100
AcDbLine
 10
-57.50707895874676
 20
0.0
 30
0.0
 11
-71.49999999999997
 21
0.0
 31
0.0
  0
SPLINE
  5
2630
330
261F
100
AcDbEntity
  8
0
100
AcDbSpline
210
0.0
220
0.0
230
1.0
 70
     8
 71
     3
 72
    20
 73
    16
 74
     0
 42
0.000000001
 43
0.0000000001
 40
-1.0
 40
-1.0
 40
-1.0
 40
-1.0
 40
-0.8565140843592502
 40
-0.8565140843592502
 40
-0.8565140843592502
 40
-0.5402558541866665
 40
-0.5402558541866665
 40
-0.5402558541866665
 40
-0.2701279270933332
 40
-0.2701279270933332
 40
-0.2701279270933332
 40
-0.085254916808621
 40
-0.085254916808621
 40
-0.085254916808621
 40
0.0
 40
0.0
 40
0.0
 40
0.0
 10
-57.01806215511453
 20
9.483549287033985
 30
0.0
 10
-57.92230508726891
 20
9.320092462344165
 30
0.0
 10
-58.75125606593304
 20
9.07246172505534
 30
0.0
 10
-59.49063806021863
 20
8.763930907758192
 30
0.0
 10
-61.1203146726584
 20
8.083896147577275
 30
0.0
 10
-62.3729880943138
 20
7.123035516976844
 30
0.0
 10
-63.61722483981942
 20
6.173960274857299
 30
0.0
 10
-64.67997376083051
 20
5.363319781266183
 30
0.0
 10
-65.7089247704339
 20
4.579673909831294
 30
0.0
 10
-66.95682341165713
 20
3.984753324043111
 30
0.0
 10
-67.810873493837
 20
3.577595275786204
 30
0.0
 10
-68.76547766487499
 20
3.265340377930281
 30
0.0
 10
-69.85892594188768
 20
3.108560584063503
 30
0.0
 10
-70.36317392133954
 20
3.036260964650153
 30
0.0
 10
-70.9028999994173
 20
2.999954352938651
 30
0.0
 10
-71.50000000006293
 20
2.999999999892019
 30
0.0
  0
LINE
  5
2631
330
261F
100
AcDbEntity
  8
0
100
AcDbLine
 10
-56.69567051616315
 20
9.540395631335908
 30
0.0
 11
-56.59507411444168
 21
9.558133491121591
 31
0.0
  0
LINE
  5
2632
330
261F
100
AcDbEntity
  8
0
100
AcDbLine
 10
-56.72711921707769
 20
9.534850376856443
 30
0.0
 11
-56.69567051616315
 21
9.540395631335908
 31
0.0
  0
LINE
  5
2633
330
261F
100
AcDbEntity
  8
0
100
AcDbLine
 10
-57.01806215511453
 20
9.483549287033959
 30
0.0
 11
-56.72711921707769
 21
9.534850376856443
 31
0.0
  0
LINE
  5
2634
330
261F
100
AcDbEntity
  8
0
100
AcDbLine
 10
0.0
 20
9.999999999999962
 30
0.0
 11
0.0
 21
57.50707895874676
 31
0.0
  0
ARC
  5
2635
330
261F
100
AcDbEntity
  8
0
100
AcDbCircle
 10
-10.0
 20
9.999999999999964
 30
0.0
 40
10.0
100
AcDbArc
 50
270.0
 51
0.0
  0
LINE
  5
2636
330
261F
100
AcDbEntity
  8
0
100
AcDbLine
 10
-57.50707895874676
 20
0.0
 30
0.0
 11
-10.00000000000001
 21
0.0
 31
0.0
  0
LINE
  5
2637
330
261F
100
AcDbEntity
  8
0
100
AcDbLine
 10
0.0
 20
198.0
 30
0.0
 11
0.0
 21
205.0
 31
0.0
  0
LINE
  5
2638
330
261F
100
AcDbEntity
  8
0
100
AcDbLine
 10
-85.00000000000001
 20
0.0
 30
0.0
 11
-78.00000000000003
 21
0.0
 31
0.0
  0
LINE
  5
2639
330
261F
100
AcDbEntity
  8
0
100
AcDbLine
 10
-3.000000000000019
 20
205.0
 30
0.0
 11
-3.000000000000023
 21
198.0
 31
0.0
  0
LINE
  5
263A
330
261F
100
AcDbEntity
  8
0
100
AcDbLine
 10
-78.00000000000003
 20
2.999999999999955
 30
0.0
 11
-85.00000000000001
 21
2.999999999999955
 31
0.0
  0
LINE
  5
263B
330
261F
100
AcDbEntity
  8
0
100
AcDbLine
 10
-85.00000000000001
 20
2.999999999999955
 30
0.0
 11
-85.00000000000001
 21
0.0
 31
0.0
  0
LINE
  5
263C
330
261F
100
AcDbEntity
  8
0
100
AcDbLine
 10
-3.000000000000023
 20
198.0
 30
0.0
 11
0.0
 21
198.0
 31
0.0
  0
LINE
  5
263D
330
261F
100
AcDbEntity
  8
0
100
AcDbLine
 10
0.0
 20
71.49999999999995
 30
0.0
 11
0.0
 21
198.0
 31
0.0
  0
LINE
  5
263E
330
261F
100
AcDbEntity
  8
0
100
AcDbLine
 10
-78.00000000000003
 20
0.0
 30
0.0
 11
-71.49999999999995
 21
0.0
 31
0.0
  0
LINE
  5
263F
330
261F
100
AcDbEntity
  8
0
100
AcDbLine
 10
-78.00000000000003
 20
2.999999999999955
 30
0.0
 11
-71.49999999999995
 21
2.999999999999955
 31
0.0
  0
LINE
  5
2640
330
261F
100
AcDbEntity
  8
0
100
AcDbLine
 10
-78.00000000000003
 20
0.0
 30
0.0
 11
-78.00000000000003
 21
2.999999999999955
 31
0.0
  0
LINE
  5
2641
330
261F
100
AcDbEntity
  8
0
100
AcDbLine
 10
-3.000000000000015
 20
71.49999999999995
 30
0.0
 11
-3.000000000000023
 21
198.0
 31
0.0
  0
LINE
  5
2642
330
261F
100
AcDbEntity
  8
0
100
AcDbLine
 10
-26.95234078859375
 20
14.78494715841453
 30
0.0
 11
-56.59507411444167
 21
9.558133491121592
 31
0.0
  0
LINE
  5
2643
330
261F
100
AcDbEntity
  8
0
100
AcDbLine
 10
-9.558133491121621
 20
56.59507411444163
 30
0.0
 11
-14.78494715841456
 21
26.9523407885937
 31
0.0
  0
ARC
  5
2644
330
261F
100
AcDbEntity
  8
0
100
AcDbCircle
 10
-29.55706345359768
 20
29.55706345359767
 30
0.0
 40
15.0
100
AcDbArc
 50
279.9999999999999
 51
350.0
  0
LINE
  5
2645
330
261F
100
AcDbEntity
  8
0
100
AcDbLine
 10
0.0
 20
205.0
 30
0.0
 11
-3.000000000000019
 21
205.0
 31
0.0
  0
ENDBLK
  5
2621
330
261F
100
AcDbEntity
  8
0
100
AcDbBlockEnd
  0
BLOCK
  5
2647
330
2646
100
AcDbEntity
  8
0
100
AcDbBlockBegin
  2
AKR205X3L-Top
 70
     0
 10
0.0
 20
0.0
 30
0.0
  3
AKR205X3L-Top
  1

  0
ARC
  5
2649
330
2646
100
AcDbEntity
  8
0
100
AcDbCircle
 10
-0.0000000000011333
 20
-24.95000000000028
 30
0.0
 40
6.749999999999998
100
AcDbArc
 50
0.0
 51
180.0
  0
LINE
  5
264A
330
2646
100
AcDbEntity
  8
0
100
AcDbLine
 10
6.750000000001103
 20
-24.95000000000028
 30
0.0
 11
6.750000000001098
 21
-36.45000000000027
 31
0.0
  0
ARC
  5
264B
330
2646
100
AcDbEntity
  8
0
100
AcDbCircle
 10
-0.0000000000011384
 20
-36.45000000000027
 30
0.0
 40
6.749999999999998
100
AcDbArc
 50
180.0
 51
0.0
  0
LINE
  5
264C
330
2646
100
AcDbEntity
  8
0
100
AcDbLine
 10
-6.750000000001138
 20
-36.45000000000027
 30
0.0
 11
-6.750000000001134
 21
-24.95000000000028
 31
0.0
  0
CIRCLE
  5
264D
330
2646
100
AcDbEntity
  8
0
100
AcDbCircle
 10
-0.0000000000000327
 20
-65.00000000000001
 30
0.0
 40
5.5
  0
CIRCLE
  5
264E
330
2646
100
AcDbEntity
  8
0
100
AcDbCircle
 10
-22.50000000000004
 20
-74.99999999999999
 30
0.0
 40
2.6
  0
CIRCLE
  5
264F
330
2646
100
AcDbEntity
  8
0
100
AcDbCircle
 10
22.49999999999996
 20
-75.00000000000003
 30
0.0
 40
2.6
  0
LINE
  5
2650
330
2646
100
AcDbEntity
  8
0
100
AcDbLine
 10
19.40049474616514
 20
-26.95234078859375
 30
0.0
 11
22.88089344101218
 21
-57.01806215511452
 31
0.0
  0
ELLIPSE
  5
2651
330
2646
100
AcDbEntity
  8
0
100
AcDbEllipse
 10
21.84265019811886
 20
-29.55706345359769
 30
0.0
 11
2.149316260459894
 21
-14.99707715516453
 31
0.0
210
0.0
220
0.0
230
1.0
 40
0.1377659927417797
 41
3.296384117292438
 42
4.518114593693584
  0
LINE
  5
2652
330
2646
100
AcDbEntity
  8
0
100
AcDbLine
 10
22.88089344101217
 20
-9.483549287034
 30
0.0
 11
19.40049474616513
 21
-14.78494715841457
 31
0.0
  0
LINE
  5
2653
330
2646
100
AcDbEntity
  8
0
100
AcDbLine
 10
-19.40049474616515
 20
-14.78494715841456
 30
0.0
 11
-22.88089344101219
 21
-9.483549287033977
 31
0.0
  0
ELLIPSE
  5
2654
330
2646
100
AcDbEntity
  8
0
100
AcDbEllipse
 10
-21.8426501981189
 20
-29.55706345359767
 30
0.0
 11
2.149316260459697
 21
14.99707715516456
 31
0.0
210
0.0
220
0.0
230
0.9999999999999998
 40
0.1377659927417794
 41
4.906663367072859
 42
6.128393843468889
  0
LINE
  5
2655
330
2646
100
AcDbEntity
  8
0
100
AcDbLine
 10
-22.88089344101226
 20
-57.01806215511449
 30
0.0
 11
-19.40049474616517
 21
-26.95234078859373
 31
0.0
  0
LINE
  5
2656
330
2646
100
AcDbEntity
  8
0
100
AcDbLine
 10
-25.50000000000004
 20
-85.0
 30
0.0
 11
25.49999999999996
 21
-85.0
 31
0.0
  0
SPLINE
  5
2657
330
2646
100
AcDbEntity
  8
0
100
AcDbSpline
210
0.0
220
0.0
230
1.0
 70
     8
 71
     3
 72
    14
 73
    10
 74
     0
 42
0.000000001
 43
0.0000000001
 40
-0.4328643671700882
 40
-0.4328643671700882
 40
-0.4328643671700882
 40
-0.4328643671700882
 40
-0.2262668722300742
 40
-0.2262668722300742
 40
-0.2262668722300742
 40
-0.0545088760467883
 40
-0.0545088760467883
 40
-0.0545088760467883
 40
0.0
 40
0.0
 40
0.0
 40
0.0
 10
-28.84763067519092
 20
-5.258518271074396
 30
0.0
 10
-28.20313734939406
 20
-6.188104257277688
 30
0.0
 10
-27.57270236481505
 20
-7.097107095467839
 30
0.0
 10
-27.05454655900709
 20
-7.846564790687179
 30
0.0
 10
-26.6237697824438
 20
-8.469637940690246
 30
0.0
 10
-26.26601864945578
 20
-8.98994188000546
 30
0.0
 10
-26.05086466152629
 20
-9.312718229929519
 30
0.0
 10
-25.98258369458659
 20
-9.415154078273197
 30
0.0
 10
-25.93039957561582
 20
-9.494468906984517
 30
0.0
 10
-25.89060973843285
 20
-9.558133491115127
 30
0.0
  0
LINE
  5
2658
330
2646
100
AcDbEntity
  8
0
100
AcDbLine
 10
-25.17482914754177
 20
-9.540395631335554
 30
0.0
 11
-25.89060973854643
 21
-9.558133491121607
 31
0.0
  0
LINE
  5
2659
330
2646
100
AcDbEntity
  8
0
100
AcDbLine
 10
-22.88089344101223
 20
-9.483549287033973
 30
0.0
 11
-25.17482914754177
 21
-9.540395631335554
 31
0.0
  0
SPLINE
  5
265A
330
2646
100
AcDbEntity
  8
0
100
AcDbSpline
210
0.0
220
0.0
230
1.0
 70
     8
 71
     3
 72
    20
 73
    16
 74
     0
 42
0.000000001
 43
0.0000000001
 40
-1.0
 40
-1.0
 40
-1.0
 40
-1.0
 40
-0.9088430650619825
 40
-0.9088430650619825
 40
-0.9088430650619825
 40
-0.5823514910988213
 40
-0.5823514910988213
 40
-0.5823514910988213
 40
-0.2911757455494106
 40
-0.2911757455494106
 40
-0.2911757455494106
 40
-0.0929891979470578
 40
-0.0929891979470578
 40
-0.0929891979470578
 40
0.0
 40
0.0
 40
0.0
 40
0.0
 10
-22.88089344101221
 20
-9.483549287034021
 30
0.0
 10
-22.95109662338823
 20
-9.38116959325918
 30
0.0
 10
-23.07530094603353
 20
-9.2427727344363
 30
0.0
 10
-23.26467875113131
 20
-9.075441588598881
 30
0.0
 10
-23.9429623913404
 20
-8.476121205408448
 30
0.0
 10
-25.33818934915263
 20
-7.52994723528316
 30
0.0
 10
-26.8323424072574
 20
-6.552968196346871
 30
0.0
 10
-28.16487643065514
 20
-5.681666690475482
 30
0.0
 10
-29.57344291859683
 20
-4.797133478950923
 30
0.0
 10
-30.66060035163395
 20
-4.125019842467767
 30
0.0
 10
-31.4005657561951
 20
-3.667550828488867
 30
0.0
 10
-31.98637480260424
 20
-3.313074295099355
 30
0.0
 10
-32.28446159126059
 20
-3.127679985988256
 30
0.0
 10
-32.42432401750046
 20
-3.040692910847413
 30
0.0
 10
-32.49448814715999
 20
-3.002604749032502
 30
0.0
 10
-32.5000000000015
 20
-2.999999999891827
 30
0.0
  0
LINE
  5
265B
330
2646
100
AcDbEntity
  8
0
100
AcDbLine
 10
-22.34380262810205
 20
-5.586466387525112
 30
0.0
 11
-22.88089344101219
 21
-9.483549287033994
 31
0.0
  0
ELLIPSE
  5
265C
330
2646
100
AcDbEntity
  8
0
100
AcDbEllipse
 10
-19.40135808271008
 20
-6.0
 30
0.0
 11
-0.0000000000000437
 21
3.0
 31
0.0
210
0.0
220
0.0
230
1.0
 40
0.9902680687415703
 41
0.0000000000000002
 42
1.432511480600913
  0
SPLINE
  5
265D
330
2646
100
AcDbEntity
  8
0
100
AcDbSpline
210
0.0
220
0.0
230
1.0
 70
     8
 71
     3
 72
    20
 73
    16
 74
     0
 42
0.000000001
 43
0.0000000001
 40
-1.0
 40
-1.0
 40
-1.0
 40
-1.0
 40
-0.8565140843592502
 40
-0.8565140843592502
 40
-0.8565140843592502
 40
-0.5402558541866665
 40
-0.5402558541866665
 40
-0.5402558541866665
 40
-0.2701279270933332
 40
-0.2701279270933332
 40
-0.2701279270933332
 40
-0.085254916808621
 40
-0.085254916808621
 40
-0.085254916808621
 40
0.0
 40
0.0
 40
0.0
 40
0.0
 10
22.88089344101223
 20
-9.483549287034039
 30
0.0
 10
22.98563906630086
 20
-9.32009246234422
 30
0.0
 10
23.25108945202202
 20
-9.072461725055395
 30
0.0
 10
23.645004430411
 20
-8.763930907758247
 30
0.0
 10
24.51323496960679
 20
-8.08389614757733
 30
0.0
 10
25.94709485150712
 20
-7.123035516976901
 30
0.0
 10
27.41482735370791
 20
-6.173960274857356
 30
0.0
 10
28.66847232013502
 20
-5.363319781266242
 30
0.0
 10
29.92402793114615
 20
-4.579673909831353
 30
0.0
 10
30.88879741843595
 20
-3.98475332404317
 30
0.0
 10
31.54907657307693
 20
-3.577595275786265
 30
0.0
 10
32.05964361544056
 20
-3.265340377930343
 30
0.0
 10
32.31762450953235
 20
-3.108560584063564
 30
0.0
 10
32.43659341489143
 20
-3.036260964650214
 30
0.0
 10
32.49484871723274
 20
-2.999954352938712
 30
0.0
 10
32.50000000000151
 20
-2.99999999989208
 30
0.0
  0
ELLIPSE
  5
265E
330
2646
100
AcDbEntity
  8
0
100
AcDbEllipse
 10
19.40135808271007
 20
-6.000000000000018
 30
0.0
 11
0.0000000000000083
 21
3.0
 31
0.0
210
0.0
220
0.0
230
1.0
 40
0.9902680687415708
 41
4.850673826578659
 42
6.283185307179568
  0
LINE
  5
265F
330
2646
100
AcDbEntity
  8
0
100
AcDbLine
 10
22.88089344101218
 20
-9.483549287034019
 30
0.0
 11
22.34380262810204
 21
-5.586466387525131
 31
0.0
  0
SPLINE
  5
2660
330
2646
100
AcDbEntity
  8
0
100
AcDbSpline
210
0.0
220
0.0
230
1.0
 70
     8
 71
     3
 72
    14
 73
    10
 74
     0
 42
0.000000001
 43
0.0000000001
 40
-0.432864367170088
 40
-0.432864367170088
 40
-0.432864367170088
 40
-0.432864367170088
 40
-0.2262668722300742
 40
-0.2262668722300742
 40
-0.2262668722300742
 40
-0.0545088760467883
 40
-0.0545088760467883
 40
-0.0545088760467883
 40
0.0
 40
0.0
 40
0.0
 40
0.0
 10
28.84763067519093
 20
-5.258518271074425
 30
0.0
 10
28.20313734939406
 20
-6.188104257277718
 30
0.0
 10
27.57270236481506
 20
-7.097107095467867
 30
0.0
 10
27.0545465590071
 20
-7.846564790687201
 30
0.0
 10
26.6237697824438
 20
-8.469637940690269
 30
0.0
 10
26.26601864945578
 20
-8.989941880005481
 30
0.0
 10
26.05086466152629
 20
-9.31271822992954
 30
0.0
 10
25.98258369458659
 20
-9.415154078273218
 30
0.0
 10
25.93039957561582
 20
-9.49446890698454
 30
0.0
 10
25.89060973843285
 20
-9.55813349111515
 30
0.0
  0
LINE
  5
2661
330
2646
100
AcDbEntity
  8
0
100
AcDbLine
 10
25.89060973854643
 20
-9.55813349112163
 30
0.0
 11
25.17482914754176
 21
-9.540395631335577
 31
0.0
  0
LINE
  5
2662
330
2646
100
AcDbEntity
  8
0
100
AcDbLine
 10
24.95106001327293
 20
-9.534850376856777
 30
0.0
 11
22.88089344101223
 21
-9.483549287033998
 31
0.0
  0
LINE
  5
2663
330
2646
100
AcDbEntity
  8
0
100
AcDbLine
 10
25.17482914754176
 20
-9.540395631335577
 30
0.0
 11
24.95106001327293
 21
-9.534850376856777
 31
0.0
  0
SPLINE
  5
2664
330
2646
100
AcDbEntity
  8
0
100
AcDbSpline
210
0.0
220
0.0
230
1.0
 70
     8
 71
     3
 72
    20
 73
    16
 74
     0
 42
0.000000001
 43
0.0000000001
 40
-1.0
 40
-1.0
 40
-1.0
 40
-1.0
 40
-0.8557507846680591
 40
-0.8557507846680591
 40
-0.8557507846680591
 40
-0.4725410755554584
 40
-0.4725410755554584
 40
-0.4725410755554584
 40
-0.2262668722300742
 40
-0.2262668722300742
 40
-0.2262668722300742
 40
-0.0545088760467883
 40
-0.0545088760467883
 40
-0.0545088760467883
 40
0.0
 40
0.0
 40
0.0
 40
0.0
 10
32.49999999999996
 20
-71.49999999999997
 30
0.0
 10
32.49596368058206
 20
-70.51422263201948
 30
0.0
 10
32.37910965910371
 20
-69.60755482003193
 30
0.0
 10
32.16692343470047
 20
-68.79579103748175
 30
0.0
 10
31.60323356544084
 20
-66.63927488407762
 30
0.0
 10
30.41855420422396
 20
-65.09164757619967
 30
0.0
 10
29.21981211985062
 20
-63.52662748022254
 30
0.0
 10
28.44942649338699
 20
-62.52084900394773
 30
0.0
 10
27.67221333328635
 20
-61.5129550518705
 30
0.0
 10
27.05454655900707
 20
-60.34589916497188
 30
0.0
 10
26.62376978244377
 20
-59.53196421822973
 30
0.0
 10
26.26601864945575
 20
-58.6248351365935
 30
0.0
 10
26.05086466152626
 20
-57.60015142181817
 30
0.0
 10
25.98258369458656
 20
-57.27495923957911
 30
0.0
 10
25.93039957561579
 20
-56.93850065070598
 30
0.0
 10
25.89060973843281
 20
-56.59507411448342
 30
0.0
  0
SPLINE
  5
2665
330
2646
100
AcDbEntity
  8
0
100
AcDbSpline
210
0.0
220
0.0
230
1.0
 70
     8
 71
     3
 72
    20
 73
    16
 74
     0
 42
0.000000001
 43
0.0000000001
 40
-1.0
 40
-1.0
 40
-1.0
 40
-1.0
 40
-0.8565140843592502
 40
-0.8565140843592502
 40
-0.8565140843592502
 40
-0.5402558541866665
 40
-0.5402558541866665
 40
-0.5402558541866665
 40
-0.2701279270933332
 40
-0.2701279270933332
 40
-0.2701279270933332
 40
-0.085254916808621
 40
-0.085254916808621
 40
-0.085254916808621
 40
0.0
 40
0.0
 40
0.0
 40
0.0
 10
22.8808934410122
 20
-57.01806215511453
 30
0.0
 10
22.98563906630082
 20
-57.92230508726891
 30
0.0
 10
23.25108945202199
 20
-58.75125606593304
 30
0.0
 10
23.64500443041097
 20
-59.49063806021863
 30
0.0
 10
24.51323496960675
 20
-61.1203146726584
 30
0.0
 10
25.94709485150709
 20
-62.37298809431379
 30
0.0
 10
27.41482735370787
 20
-63.61722483981942
 30
0.0
 10
28.66847232013499
 20
-64.67997376083051
 30
0.0
 10
29.92402793114611
 20
-65.7089247704339
 30
0.0
 10
30.88879741843592
 20
-66.95682341165711
 30
0.0
 10
31.54907657307689
 20
-67.81087349383698
 30
0.0
 10
32.05964361544052
 20
-68.76547766487497
 30
0.0
 10
32.31762450953232
 20
-69.85892594188768
 30
0.0
 10
32.43659341489138
 20
-70.36317392133952
 30
0.0
 10
32.49484871723269
 20
-70.90289999941728
 30
0.0
 10
32.50000000000146
 20
-71.50000000006293
 30
0.0
  0
LINE
  5
2666
330
2646
100
AcDbEntity
  8
0
100
AcDbLine
 10
22.34380262810205
 20
-57.09354534627191
 30
0.0
 11
22.88089344101219
 21
-57.01806215511453
 31
0.0
  0
LINE
  5
2667
330
2646
100
AcDbEntity
  8
0
100
AcDbLine
 10
19.4013580827101
 20
-57.50707895874676
 30
0.0
 11
22.34380262810205
 21
-57.09354534627188
 31
0.0
  0
SPLINE
  5
2668
330
2646
100
AcDbEntity
  8
0
100
AcDbSpline
210
0.0
220
0.0
230
1.0
 70
     8
 71
     2
 72
     6
 73
     3
 74
     0
 42
0.000000001
 43
0.0000000001
 40
0.0
 40
0.0
 40
0.0
 40
1.0
 40
1.0
 40
1.0
 10
19.4013580827101
 20
-57.50707895874676
 30
0.0
 10
20.85646379032759
 20
-67.86069405359667
 30
0.0
 10
32.49999999999996
 20
-71.49999999999995
 30
0.0
  0
LINE
  5
2669
330
2646
100
AcDbEntity
  8
0
100
AcDbLine
 10
25.17482914755659
 20
-56.69567051616315
 30
0.0
 11
25.89060973854639
 21
-56.59507411444168
 31
0.0
  0
LINE
  5
266A
330
2646
100
AcDbEntity
  8
0
100
AcDbLine
 10
24.95106001326099
 20
-56.72711921707769
 30
0.0
 11
25.17482914755659
 21
-56.69567051616315
 31
0.0
  0
LINE
  5
266B
330
2646
100
AcDbEntity
  8
0
100
AcDbLine
 10
22.8808934410122
 20
-57.01806215511453
 30
0.0
 11
24.95106001326099
 21
-56.72711921707769
 31
0.0
  0
SPLINE
  5
266C
330
2646
100
AcDbEntity
  8
0
100
AcDbSpline
210
0.0
220
0.0
230
1.0
 70
     8
 71
     3
 72
    20
 73
    16
 74
     0
 42
0.000000001
 43
0.0000000001
 40
-1.0
 40
-1.0
 40
-1.0
 40
-1.0
 40
-0.8557507846680591
 40
-0.8557507846680591
 40
-0.8557507846680591
 40
-0.4725410755554584
 40
-0.4725410755554584
 40
-0.4725410755554584
 40
-0.2262668722300742
 40
-0.2262668722300742
 40
-0.2262668722300742
 40
-0.0545088760467883
 40
-0.0545088760467883
 40
-0.0545088760467883
 40
0.0
 40
0.0
 40
0.0
 40
0.0
 10
-32.50000000000004
 20
-71.49999999999993
 30
0.0
 10
-32.49596368058214
 20
-70.51422263201946
 30
0.0
 10
-32.37910965910378
 20
-69.6075548200319
 30
0.0
 10
-32.16692343470054
 20
-68.79579103748172
 30
0.0
 10
-31.6032335654409
 20
-66.63927488407759
 30
0.0
 10
-30.41855420422403
 20
-65.09164757619963
 30
0.0
 10
-29.21981211985068
 20
-63.5266274802225
 30
0.0
 10
-28.44942649338705
 20
-62.5208490039477
 30
0.0
 10
-27.67221333328641
 20
-61.51295505187047
 30
0.0
 10
-27.05454655900713
 20
-60.34589916497184
 30
0.0
 10
-26.62376978244383
 20
-59.53196421822969
 30
0.0
 10
-26.26601864945581
 20
-58.62483513659348
 30
0.0
 10
-26.05086466152632
 20
-57.60015142181813
 30
0.0
 10
-25.98258369458662
 20
-57.27495923957907
 30
0.0
 10
-25.93039957561585
 20
-56.93850065070595
 30
0.0
 10
-25.89060973843287
 20
-56.59507411448339
 30
0.0
  0
SPLINE
  5
266D
330
2646
100
AcDbEntity
  8
0
100
AcDbSpline
210
0.0
220
0.0
230
1.0
 70
     8
 71
     3
 72
    20
 73
    16
 74
     0
 42
0.000000001
 43
0.0000000001
 40
-1.0
 40
-1.0
 40
-1.0
 40
-1.0
 40
-0.8565140843592502
 40
-0.8565140843592502
 40
-0.8565140843592502
 40
-0.5402558541866665
 40
-0.5402558541866665
 40
-0.5402558541866665
 40
-0.2701279270933332
 40
-0.2701279270933332
 40
-0.2701279270933332
 40
-0.085254916808621
 40
-0.085254916808621
 40
-0.085254916808621
 40
0.0
 40
0.0
 40
0.0
 40
0.0
 10
-22.88089344101226
 20
-57.01806215511449
 30
0.0
 10
-22.98563906630088
 20
-57.92230508726888
 30
0.0
 10
-23.25108945202206
 20
-58.751256065933
 30
0.0
 10
-23.64500443041103
 20
-59.4906380602186
 30
0.0
 10
-24.51323496960681
 20
-61.12031467265836
 30
0.0
 10
-25.94709485150715
 20
-62.37298809431376
 30
0.0
 10
-27.41482735370793
 20
-63.61722483981939
 30
0.0
 10
-28.66847232013505
 20
-64.67997376083046
 30
0.0
 10
-29.92402793114618
 20
-65.70892477043385
 30
0.0
 10
-30.88879741843598
 20
-66.95682341165708
 30
0.0
 10
-31.54907657307696
 20
-67.81087349383695
 30
0.0
 10
-32.05964361544058
 20
-68.76547766487494
 30
0.0
 10
-32.31762450953238
 20
-69.85892594188763
 30
0.0
 10
-32.43659341489146
 20
-70.36317392133949
 30
0.0
 10
-32.49484871723277
 20
-70.90289999941726
 30
0.0
 10
-32.50000000000154
 20
-71.5000000000629
 30
0.0
  0
SPLINE
  5
266E
330
2646
100
AcDbEntity
  8
0
100
AcDbSpline
210
0.0
220
0.0
230
1.0
 70
     8
 71
     2
 72
     6
 73
     3
 74
     0
 42
0.000000001
 43
0.0000000001
 40
0.0
 40
0.0
 40
0.0
 40
1.0
 40
1.0
 40
1.0
 10
-19.40135808271016
 20
-57.50707895874676
 30
0.0
 10
-20.85646379032765
 20
-67.86069405359665
 30
0.0
 10
-32.50000000000004
 20
-71.49999999999993
 30
0.0
  0
LINE
  5
266F
330
2646
100
AcDbEntity
  8
0
100
AcDbLine
 10
-22.34380262810212
 20
-57.09354534627188
 30
0.0
 11
-19.40135808271016
 21
-57.50707895874676
 31
0.0
  0
LINE
  5
2670
330
2646
100
AcDbEntity
  8
0
100
AcDbLine
 10
-22.88089344101226
 20
-57.01806215511448
 30
0.0
 11
-22.34380262810212
 21
-57.09354534627187
 31
0.0
  0
LINE
  5
2671
330
2646
100
AcDbEntity
  8
0
100
AcDbLine
 10
-25.89060973854647
 20
-56.59507411444164
 30
0.0
 11
-25.17482914755665
 21
-56.69567051616311
 31
0.0
  0
LINE
  5
2672
330
2646
100
AcDbEntity
  8
0
100
AcDbLine
 10
-24.95106001326106
 20
-56.72711921707765
 30
0.0
 11
-22.88089344101226
 21
-57.01806215511449
 31
0.0
  0
LINE
  5
2673
330
2646
100
AcDbEntity
  8
0
100
AcDbLine
 10
-25.17482914755665
 20
-56.69567051616311
 30
0.0
 11
-24.95106001326106
 21
-56.72711921707765
 31
0.0
  0
LINE
  5
2674
330
2646
100
AcDbEntity
  8
0
100
AcDbLine
 10
-25.49999999999998
 20
0.0
 30
0.0
 11
-32.49999999999999
 21
0.0
 31
0.0
  0
LINE
  5
2675
330
2646
100
AcDbEntity
  8
0
100
AcDbLine
 10
32.50000000000002
 20
0.0
 30
0.0
 11
25.50000000000002
 21
0.0
 31
0.0
  0
LINE
  5
2676
330
2646
100
AcDbEntity
  8
0
100
AcDbLine
 10
25.50000000000002
 20
-3.000000000000027
 30
0.0
 11
32.50000000000002
 21
-3.000000000000029
 31
0.0
  0
LINE
  5
2677
330
2646
100
AcDbEntity
  8
0
100
AcDbLine
 10
-32.49999999999999
 20
-3.0
 30
0.0
 11
-25.49999999999998
 21
-3.000000000000004
 31
0.0
  0
LINE
  5
2678
330
2646
100
AcDbEntity
  8
0
100
AcDbLine
 10
-25.50000000000004
 20
-85.0
 30
0.0
 11
-32.50000000000004
 21
-77.99999999999998
 31
0.0
  0
LINE
  5
2679
330
2646
100
AcDbEntity
  8
0
100
AcDbLine
 10
32.49999999999996
 20
-78.00000000000003
 30
0.0
 11
25.49999999999996
 21
-85.0
 31
0.0
  0
LINE
  5
267A
330
2646
100
AcDbEntity
  8
0
100
AcDbLine
 10
32.50000000000002
 20
-3.000000000000029
 30
0.0
 11
32.50000000000002
 21
0.0
 31
0.0
  0
LINE
  5
267B
330
2646
100
AcDbEntity
  8
0
100
AcDbLine
 10
-32.49999999999999
 20
0.0
 30
0.0
 11
-32.49999999999999
 21
-3.0
 31
0.0
  0
LINE
  5
267C
330
2646
100
AcDbEntity
  8
0
100
AcDbLine
 10
25.50000000000002
 20
0.0
 30
0.0
 11
-25.49999999999998
 21
0.0
 31
0.0
  0
LINE
  5
267D
330
2646
100
AcDbEntity
  8
0
100
AcDbLine
 10
25.50000000000002
 20
-3.000000000000027
 30
0.0
 11
-25.49999999999998
 21
-3.000000000000004
 31
0.0
  0
LINE
  5
267E
330
2646
100
AcDbEntity
  8
0
100
AcDbLine
 10
25.50000000000002
 20
0.0
 30
0.0
 11
25.50000000000002
 21
-3.000000000000027
 31
0.0
  0
LINE
  5
267F
330
2646
100
AcDbEntity
  8
0
100
AcDbLine
 10
-25.49999999999998
 20
-3.000000000000004
 30
0.0
 11
-25.49999999999998
 21
0.0
 31
0.0
  0
LINE
  5
2680
330
2646
100
AcDbEntity
  8
0
100
AcDbLine
 10
-25.89060973854647
 20
-56.59507411444166
 30
0.0
 11
-22.45917600970657
 21
-26.95234078859373
 31
0.0
  0
ELLIPSE
  5
2681
330
2646
100
AcDbEntity
  8
0
100
AcDbEllipse
 10
-24.9013314616603
 20
-29.55706345359767
 30
0.0
 11
2.149316260459697
 21
14.99707715516456
 31
0.0
210
0.0
220
0.0
230
0.9999999999999998
 40
0.1377659927417794
 41
4.90666336707286
 42
6.128393843468892
  0
LINE
  5
2682
330
2646
100
AcDbEntity
  8
0
100
AcDbLine
 10
-22.45917600970656
 20
-14.78494715841456
 30
0.0
 11
-25.89060973854639
 21
-9.558133491121608
 31
0.0
  0
LINE
  5
2683
330
2646
100
AcDbEntity
  8
0
100
AcDbLine
 10
13.14629605568256
 20
-13.00000000000001
 30
0.0
 11
19.40135808271008
 21
-57.50707895874676
 31
0.0
  0
LINE
  5
2684
330
2646
100
AcDbEntity
  8
0
100
AcDbLine
 10
-19.40135808271016
 20
-57.50707895874676
 30
0.0
 11
-13.14629605568258
 21
-13.0
 31
0.0
  0
ELLIPSE
  5
2685
330
2646
100
AcDbEntity
  8
0
100
AcDbEllipse
 10
14.1300818985993
 20
-13.00000000000001
 30
0.0
 11
0.993259861124655
 21
-9.999531768717286
 31
0.0
210
0.0
220
0.0
230
0.9999999999999998
 40
0.0974265314997313
 41
3.131915516220306
 42
4.702711843026092
  0
ELLIPSE
  5
2686
330
2646
100
AcDbEntity
  8
0
100
AcDbEllipse
 10
-14.13008189859932
 20
-13.0
 30
0.0
 11
0.993259861124565
 21
9.999531768717297
 31
0.0
210
0.0
220
0.0
230
0.9999999999999998
 40
0.0974265314997312
 41
4.722066117737838
 42
6.292862444532735
  0
LINE
  5
2687
330
2646
100
AcDbEntity
  8
0
100
AcDbLine
 10
22.45917600970654
 20
-26.95234078859375
 30
0.0
 11
25.89060973854639
 21
-56.59507411444167
 31
0.0
  0
LINE
  5
2688
330
2646
100
AcDbEntity
  8
0
100
AcDbLine
 10
25.89060973854638
 20
-9.558133491121626
 30
0.0
 11
22.45917600970653
 21
-14.78494715841457
 31
0.0
  0
ELLIPSE
  5
2689
330
2646
100
AcDbEntity
  8
0
100
AcDbEllipse
 10
24.90133146166027
 20
-29.55706345359769
 30
0.0
 11
2.149316260459894
 21
-14.99707715516453
 31
0.0
210
0.0
220
0.0
230
1.0
 40
0.1377659927417797
 41
3.296384117292436
 42
4.518114593693584
  0
LINE
  5
268A
330
2646
100
AcDbEntity
  8
0
100
AcDbLine
 10
-10.76107577119637
 20
-13.0
 30
0.0
 11
10.7898082261554
 21
-13.00000000000001
 31
0.0
  0
LINE
  5
268B
330
2646
100
AcDbEntity
  8
0
100
AcDbLine
 10
-32.50000000000004
 20
-71.49999999999993
 30
0.0
 11
-32.50000000000004
 21
-77.99999999999998
 31
0.0
  0
LINE
  5
268C
330
2646
100
AcDbEntity
  8
0
100
AcDbLine
 10
32.49999999999996
 20
-78.00000000000003
 30
0.0
 11
32.49999999999996
 21
-71.49999999999995
 31
0.0
  0
ENDBLK
  5
2648
330
2646
100
AcDbEntity
  8
0
100
AcDbBlockEnd
  0
BLOCK
  5
268E
330
268D
100
AcDbEntity
  8
0
100
AcDbBlockBegin
  2
AKR205X3L-Bottom
 70
     0
 10
0.0
 20
0.0
 30
0.0
  3
AKR205X3L-Bottom
  1

  0
ARC
  5
2690
330
268D
100
AcDbEntity
  8
0
100
AcDbCircle
 10
-0.0000000000011337
 20
24.95000000000028
 30
0.0
 40
6.749999999999998
100
AcDbArc
 50
180.0
 51
0.0
  0
LINE
  5
2691
330
268D
100
AcDbEntity
  8
0
100
AcDbLine
 10
6.750000000001098
 20
36.45000000000027
 30
0.0
 11
6.750000000001103
 21
24.95000000000028
 31
0.0
  0
ARC
  5
2692
330
268D
100
AcDbEntity
  8
0
100
AcDbCircle
 10
-0.0000000000011388
 20
36.45000000000027
 30
0.0
 40
6.749999999999998
100
AcDbArc
 50
0.0
 51
180.0
  0
LINE
  5
2693
330
268D
100
AcDbEntity
  8
0
100
AcDbLine
 10
-6.750000000001134
 20
24.95000000000028
 30
0.0
 11
-6.750000000001138
 21
36.45000000000027
 31
0.0
  0
CIRCLE
  5
2694
330
268D
100
AcDbEntity
  8
0
100
AcDbCircle
 10
-0.000000000000033
 20
65.00000000000001
 30
0.0
 40
5.5
  0
CIRCLE
  5
2695
330
268D
100
AcDbEntity
  8
0
100
AcDbCircle
 10
-22.50000000000004
 20
74.99999999999999
 30
0.0
 40
2.6
  0
CIRCLE
  5
2696
330
268D
100
AcDbEntity
  8
0
100
AcDbCircle
 10
22.49999999999996
 20
75.00000000000003
 30
0.0
 40
2.6
  0
LINE
  5
2697
330
268D
100
AcDbEntity
  8
0
100
AcDbLine
 10
-25.50000000000004
 20
85.0
 30
0.0
 11
25.49999999999996
 21
85.0
 31
0.0
  0
ELLIPSE
  5
2698
330
268D
100
AcDbEntity
  8
0
100
AcDbEllipse
 10
-19.40135808271008
 20
6.000000000000003
 30
0.0
 11
0.0000000000000043
 21
-6.0
 31
0.0
210
0.0
220
0.0
230
1.0
 40
0.9902680687415703
 41
4.850673826578656
 42
6.283185307179578
  0
LINE
  5
2699
330
268D
100
AcDbEntity
  8
0
100
AcDbLine
 10
-25.89060973854639
 20
9.55813349112163
 30
0.0
 11
-25.28624717349402
 21
5.172932775050227
 31
0.0
  0
SPLINE
  5
269A
330
268D
100
AcDbEntity
  8
0
100
AcDbSpline
210
0.0
220
0.0
230
1.0
 70
     8
 71
     3
 72
    20
 73
    16
 74
     0
 42
0.000000001
 43
0.0000000001
 40
-1.0
 40
-1.0
 40
-1.0
 40
-1.0
 40
-0.8557507846680591
 40
-0.8557507846680591
 40
-0.8557507846680591
 40
-0.4725410755554584
 40
-0.4725410755554584
 40
-0.4725410755554584
 40
-0.2262668722300742
 40
-0.2262668722300742
 40
-0.2262668722300742
 40
-0.0545088760467883
 40
-0.0545088760467883
 40
-0.0545088760467883
 40
0.0
 40
0.0
 40
0.0
 40
0.0
 10
-32.5
 20
-0.0000000000000126
 30
0.0
 10
-32.4959636805821
 20
-0.0000078262250631
 30
0.0
 10
-32.37910965910374
 20
0.1669297411130608
 30
0.0
 10
-32.1669234347005
 20
0.4742787332328256
 30
0.0
 10
-31.60323356544087
 20
1.290776192822032
 30
0.0
 10
-30.41855420422399
 20
2.992237894639799
 30
0.0
 10
-29.21981211985065
 20
4.721648724147898
 30
0.0
 10
-28.44942649338701
 20
5.8330748287883
 30
0.0
 10
-27.67221333328637
 20
6.953174980371171
 30
0.0
 10
-27.05454655900709
 20
7.846564790687179
 30
0.0
 10
-26.6237697824438
 20
8.469637940690246
 30
0.0
 10
-26.26601864945578
 20
8.98994188000546
 30
0.0
 10
-26.05086466152629
 20
9.312718229929519
 30
0.0
 10
-25.98258369458659
 20
9.415154078273197
 30
0.0
 10
-25.93039957561582
 20
9.494468906984517
 30
0.0
 10
-25.89060973843285
 20
9.558133491115127
 30
0.0
  0
LINE
  5
269B
330
268D
100
AcDbEntity
  8
0
100
AcDbLine
 10
-19.40135808271013
 20
0.0
 30
0.0
 11
-32.5
 21
0.0
 31
0.0
  0
SPLINE
  5
269C
330
268D
100
AcDbEntity
  8
0
100
AcDbSpline
210
0.0
220
0.0
230
1.0
 70
     8
 71
     3
 72
    14
 73
    10
 74
     0
 42
0.000000001
 43
0.0000000001
 40
-0.4360670168253512
 40
-0.4360670168253512
 40
-0.4360670168253512
 40
-0.4360670168253512
 40
-0.2911757455494106
 40
-0.2911757455494106
 40
-0.2911757455494106
 40
-0.0929891979470578
 40
-0.0929891979470578
 40
-0.0929891979470578
 40
0.0
 40
0.0
 40
0.0
 40
0.0
 10
-28.84788182365549
 20
5.258356758621628
 30
0.0
 10
-29.49905952216819
 20
4.846515505886151
 30
0.0
 10
-30.11962252309738
 20
4.459468713022525
 30
0.0
 10
-30.66060035163395
 20
4.125019842467767
 30
0.0
 10
-31.4005657561951
 20
3.667550828488867
 30
0.0
 10
-31.98637480260424
 20
3.313074295099355
 30
0.0
 10
-32.28446159126059
 20
3.127679985988256
 30
0.0
 10
-32.42432401750046
 20
3.040692910847413
 30
0.0
 10
-32.49448814715999
 20
3.002604749032502
 30
0.0
 10
-32.5000000000015
 20
2.999999999891827
 30
0.0
  0
LINE
  5
269D
330
268D
100
AcDbEntity
  8
0
100
AcDbLine
 10
-32.50000000000002
 20
2.999999999999994
 30
0.0
 11
-32.50000000000002
 21
0.0
 31
0.0
  0
SPLINE
  5
269E
330
268D
100
AcDbEntity
  8
0
100
AcDbSpline
210
0.0
220
0.0
230
1.0
 70
     8
 71
     3
 72
    22
 73
    18
 74
     0
 42
0.000000001
 43
0.0000000001
 40
0.0709950736513713
 40
0.0709950736513713
 40
0.0709950736513713
 40
0.0709950736513713
 40
0.0748293506764937
 40
0.0748293506764937
 40
0.0826962218743745
 40
0.0826962218743745
 40
0.0894398386113755
 40
0.0894398386113755
 40
0.0938452772592818
 40
0.0938452772592818
 40
0.0967259535179503
 40
0.0967259535179503
 40
0.1011836395731673
 40
0.1011836395731673
 40
0.1048664768557319
 40
0.1048664768557319
 40
0.1069248624725799
 40
0.1069248624725799
 40
0.1069248624725799
 40
0.1069248624725799
 10
-19.84585058923464
 20
0.0168132243579253
 30
0.0
 10
-19.8582600554228
 20
0.0176809998035906
 30
0.0
 10
-19.87077341886711
 20
0.0185923130494877
 30
0.0
 10
-19.90911781773047
 20
0.021502289395314
 30
0.0
 10
-19.93537583605112
 20
0.0236588757785681
 30
0.0
 10
-19.9838781376872
 20
0.0279657647408682
 30
0.0
 10
-20.00645619541225
 20
0.030101742792673
 30
0.0
 10
-20.04215993323573
 20
0.0336739241999608
 30
0.0
 10
-20.05601337613324
 20
0.0351123563018542
 30
0.0
 10
-20.07711776817915
 20
0.037368109909138
 30
0.0
 10
-20.08506965943438
 20
0.0382357759099598
 30
0.0
 10
-20.10339515947608
 20
0.0402649750919275
 30
0.0
 10
-20.11291951294852
 20
0.0413501489843436
 30
0.0
 10
-20.12509026374488
 20
0.0427491906308481
 30
0.0
 10
-20.12881531897884
 20
0.0431830690281144
 30
0.0
 10
-20.13174540134909
 20
0.0435240160669798
 30
0.0
 10
-20.13224919341864
 20
0.0435827000749105
 30
0.0
 10
-20.13224919308473
 20
0.0435827000360609
 30
0.0
  0
SPLINE
  5
269F
330
268D
100
AcDbEntity
  8
0
100
AcDbSpline
210
0.0
220
0.0
230
1.0
 70
     8
 71
     3
 72
    14
 73
    10
 74
     0
 42
0.000000001
 43
0.0000000001
 40
-0.4363208082557727
 40
-0.4363208082557727
 40
-0.4363208082557727
 40
-0.4363208082557727
 40
-0.2701279270933332
 40
-0.2701279270933332
 40
-0.2701279270933332
 40
-0.085254916808621
 40
-0.085254916808621
 40
-0.085254916808621
 40
0.0
 40
0.0
 40
0.0
 40
0.0
 10
28.84606963068281
 20
5.259449898158473
 30
0.0
 10
29.59160471101082
 20
4.788224261494249
 30
0.0
 10
30.29523487021819
 20
4.350770889419973
 30
0.0
 10
30.88879741843595
 20
3.98475332404317
 30
0.0
 10
31.54907657307693
 20
3.577595275786265
 30
0.0
 10
32.05964361544056
 20
3.265340377930343
 30
0.0
 10
32.31762450953235
 20
3.108560584063564
 30
0.0
 10
32.43659341489143
 20
3.036260964650214
 30
0.0
 10
32.49484871723274
 20
2.999954352938712
 30
0.0
 10
32.50000000000151
 20
2.99999999989208
 30
0.0
  0
ELLIPSE
  5
26A0
330
268D
100
AcDbEntity
  8
0
100
AcDbEllipse
 10
19.40135808271008
 20
6.000000000000021
 30
0.0
 11
0.0000000000000502
 21
-6.0
 31
0.0
210
0.0
220
0.0
230
1.0
 40
0.9902680687415703
 41
0.0
 42
1.43251148060092
  0
LINE
  5
26A1
330
268D
100
AcDbEntity
  8
0
100
AcDbLine
 10
19.40135808271013
 20
0.0
 30
0.0
 11
32.50000000000001
 21
0.0
 31
0.0
  0
SPLINE
  5
26A2
330
268D
100
AcDbEntity
  8
0
100
AcDbSpline
210
0.0
220
0.0
230
1.0
 70
     8
 71
     3
 72
    20
 73
    16
 74
     0
 42
0.000000001
 43
0.0000000001
 40
-1.0
 40
-1.0
 40
-1.0
 40
-1.0
 40
-0.8557507846680591
 40
-0.8557507846680591
 40
-0.8557507846680591
 40
-0.4725410755554584
 40
-0.4725410755554584
 40
-0.4725410755554584
 40
-0.2262668722300742
 40
-0.2262668722300742
 40
-0.2262668722300742
 40
-0.0545088760467883
 40
-0.0545088760467883
 40
-0.0545088760467883
 40
0.0
 40
0.0
 40
0.0
 40
0.0
 10
32.50000000000001
 20
0.0000000000000162
 30
0.0
 10
32.49596368058211
 20
-0.0000078262250342
 30
0.0
 10
32.37910965910375
 20
0.1669297411130895
 30
0.0
 10
32.16692343470051
 20
0.4742787332328542
 30
0.0
 10
31.60323356544087
 20
1.29077619282206
 30
0.0
 10
30.41855420422399
 20
2.992237894639826
 30
0.0
 10
29.21981211985065
 20
4.721648724147924
 30
0.0
 10
28.44942649338702
 20
5.833074828788326
 30
0.0
 10
27.67221333328639
 20
6.953174980371198
 30
0.0
 10
27.0545465590071
 20
7.846564790687201
 30
0.0
 10
26.6237697824438
 20
8.469637940690269
 30
0.0
 10
26.26601864945578
 20
8.989941880005481
 30
0.0
 10
26.05086466152629
 20
9.31271822992954
 30
0.0
 10
25.98258369458659
 20
9.415154078273218
 30
0.0
 10
25.93039957561582
 20
9.49446890698454
 30
0.0
 10
25.89060973843285
 20
9.55813349111515
 30
0.0
  0
LINE
  5
26A3
330
268D
100
AcDbEntity
  8
0
100
AcDbLine
 10
25.286247173494
 20
5.172932775050248
 30
0.0
 11
25.89060973854638
 21
9.558133491121655
 31
0.0
  0
LINE
  5
26A4
330
268D
100
AcDbEntity
  8
0
100
AcDbLine
 10
32.50000000000002
 20
3.000000000000023
 30
0.0
 11
32.50000000000002
 21
0.0
 31
0.0
  0
SPLINE
  5
26A5
330
268D
100
AcDbEntity
  8
0
100
AcDbSpline
210
0.0
220
0.0
230
1.0
 70
     8
 71
     3
 72
    22
 73
    18
 74
     0
 42
0.000000001
 43
0.0000000001
 40
0.0238283136899309
 40
0.0238283136899309
 40
0.0238283136899309
 40
0.0238283136899309
 40
0.0252878578952373
 40
0.0252878578952373
 40
0.0298246529968633
 40
0.0298246529968633
 40
0.0335903579281689
 40
0.0335903579281689
 40
0.037264120768173
 40
0.037264120768173
 40
0.0416430362102111
 40
0.0416430362102111
 40
0.0475686778169863
 40
0.0475686778169863
 40
0.0563598753476453
 40
0.0563598753476453
 40
0.0597542867646423
 40
0.0597542867646423
 40
0.0597542867646423
 40
0.0597542867646423
 10
20.13224919308604
 20
0.0435827000362292
 30
0.0
 10
20.13224919311467
 20
0.0435827000395602
 30
0.0
 10
20.13199778720901
 20
0.0435534328454377
 30
0.0
 10
20.12986164256683
 20
0.043304758849675
 30
0.0
 10
20.12546703135542
 20
0.0427913643088917
 30
0.0
 10
20.11248251184398
 20
0.0413010521081126
 30
0.0
 10
20.10460861726744
 20
0.0404049134192221
 30
0.0
 10
20.08661354056844
 20
0.0384029581226514
 30
0.0
 10
20.07640186927787
 20
0.0372867784990717
 30
0.0
 10
20.05278032483815
 20
0.0347743294011501
 30
0.0
 10
20.03892845703842
 20
0.033343853051858
 30
0.0
 10
20.00579652687004
 20
0.0300469316150697
 30
0.0
 10
19.98603901473183
 20
0.0281758110457596
 30
0.0
 10
19.93720510545244
 20
0.02379934427481
 30
0.0
 10
19.90779741806376
 20
0.0213836193762117
 30
0.0
 10
19.86792524328609
 20
0.0183853647026621
 30
0.0
 10
19.85685074999487
 20
0.0175824491788467
 30
0.0
 10
19.8458505892346
 20
0.0168132243579406
 30
0.0
  0
LINE
  5
26A6
330
268D
100
AcDbEntity
  8
0
100
AcDbLine
 10
19.4013580827101
 20
57.50707895874676
 30
0.0
 11
25.28624717349402
 21
56.680011733797
 31
0.0
  0
LINE
  5
26A7
330
268D
100
AcDbEntity
  8
0
100
AcDbLine
 10
25.89060973854638
 20
56.59507411444167
 30
0.0
 11
25.28624717349402
 21
56.68001173379701
 31
0.0
  0
SPLINE
  5
26A8
330
268D
100
AcDbEntity
  8
0
100
AcDbSpline
210
0.0
220
0.0
230
1.0
 70
     8
 71
     3
 72
    20
 73
    16
 74
     0
 42
0.000000001
 43
0.0000000001
 40
-1.0
 40
-1.0
 40
-1.0
 40
-1.0
 40
-0.8557507846680591
 40
-0.8557507846680591
 40
-0.8557507846680591
 40
-0.4725410755554584
 40
-0.4725410755554584
 40
-0.4725410755554584
 40
-0.2262668722300742
 40
-0.2262668722300742
 40
-0.2262668722300742
 40
-0.0545088760467883
 40
-0.0545088760467883
 40
-0.0545088760467883
 40
0.0
 40
0.0
 40
0.0
 40
0.0
 10
32.49999999999996
 20
71.49999999999997
 30
0.0
 10
32.49596368058206
 20
70.51422263201948
 30
0.0
 10
32.37910965910371
 20
69.60755482003193
 30
0.0
 10
32.16692343470047
 20
68.79579103748175
 30
0.0
 10
31.60323356544084
 20
66.63927488407762
 30
0.0
 10
30.41855420422396
 20
65.09164757619967
 30
0.0
 10
29.21981211985062
 20
63.52662748022254
 30
0.0
 10
28.44942649338699
 20
62.52084900394773
 30
0.0
 10
27.67221333328635
 20
61.5129550518705
 30
0.0
 10
27.05454655900707
 20
60.34589916497188
 30
0.0
 10
26.62376978244377
 20
59.53196421822973
 30
0.0
 10
26.26601864945575
 20
58.6248351365935
 30
0.0
 10
26.05086466152626
 20
57.60015142181817
 30
0.0
 10
25.98258369458656
 20
57.27495923957911
 30
0.0
 10
25.93039957561579
 20
56.93850065070598
 30
0.0
 10
25.89060973843281
 20
56.59507411448342
 30
0.0
  0
SPLINE
  5
26A9
330
268D
100
AcDbEntity
  8
0
100
AcDbSpline
210
0.0
220
0.0
230
1.0
 70
     8
 71
     2
 72
     6
 73
     3
 74
     0
 42
0.000000001
 43
0.0000000001
 40
0.0
 40
0.0
 40
0.0
 40
1.0
 40
1.0
 40
1.0
 10
19.4013580827101
 20
57.50707895874676
 30
0.0
 10
20.85646379032759
 20
67.86069405359667
 30
0.0
 10
32.49999999999996
 20
71.49999999999995
 30
0.0
  0
LINE
  5
26AA
330
268D
100
AcDbEntity
  8
0
100
AcDbLine
 10
-25.28624717349409
 20
56.680011733797
 30
0.0
 11
-19.40135808271016
 21
57.50707895874676
 31
0.0
  0
SPLINE
  5
26AB
330
268D
100
AcDbEntity
  8
0
100
AcDbSpline
210
0.0
220
0.0
230
1.0
 70
     8
 71
     2
 72
     6
 73
     3
 74
     0
 42
0.000000001
 43
0.0000000001
 40
0.0
 40
0.0
 40
0.0
 40
1.0
 40
1.0
 40
1.0
 10
-19.40135808271016
 20
57.50707895874676
 30
0.0
 10
-20.85646379032765
 20
67.86069405359665
 30
0.0
 10
-32.50000000000004
 20
71.49999999999993
 30
0.0
  0
SPLINE
  5
26AC
330
268D
100
AcDbEntity
  8
0
100
AcDbSpline
210
0.0
220
0.0
230
1.0
 70
     8
 71
     3
 72
    20
 73
    16
 74
     0
 42
0.000000001
 43
0.0000000001
 40
-1.0
 40
-1.0
 40
-1.0
 40
-1.0
 40
-0.8557507846680591
 40
-0.8557507846680591
 40
-0.8557507846680591
 40
-0.4725410755554584
 40
-0.4725410755554584
 40
-0.4725410755554584
 40
-0.2262668722300742
 40
-0.2262668722300742
 40
-0.2262668722300742
 40
-0.0545088760467883
 40
-0.0545088760467883
 40
-0.0545088760467883
 40
0.0
 40
0.0
 40
0.0
 40
0.0
 10
-32.50000000000004
 20
71.49999999999993
 30
0.0
 10
-32.49596368058214
 20
70.51422263201946
 30
0.0
 10
-32.37910965910378
 20
69.6075548200319
 30
0.0
 10
-32.16692343470054
 20
68.79579103748172
 30
0.0
 10
-31.6032335654409
 20
66.63927488407759
 30
0.0
 10
-30.41855420422403
 20
65.09164757619963
 30
0.0
 10
-29.21981211985068
 20
63.5266274802225
 30
0.0
 10
-28.44942649338705
 20
62.5208490039477
 30
0.0
 10
-27.67221333328641
 20
61.51295505187047
 30
0.0
 10
-27.05454655900713
 20
60.34589916497184
 30
0.0
 10
-26.62376978244383
 20
59.53196421822969
 30
0.0
 10
-26.26601864945581
 20
58.62483513659348
 30
0.0
 10
-26.05086466152632
 20
57.60015142181813
 30
0.0
 10
-25.98258369458662
 20
57.27495923957907
 30
0.0
 10
-25.93039957561585
 20
56.93850065070595
 30
0.0
 10
-25.89060973843287
 20
56.59507411448339
 30
0.0
  0
LINE
  5
26AD
330
268D
100
AcDbEntity
  8
0
100
AcDbLine
 10
-25.28624717349409
 20
56.68001173379697
 30
0.0
 11
-25.89060973854646
 21
56.59507411444163
 31
0.0
  0
LINE
  5
26AE
330
268D
100
AcDbEntity
  8
0
100
AcDbLine
 10
12.72467355157538
 20
0.0
 30
0.0
 11
19.40135808271008
 21
0.0
 31
0.0
  0
ELLIPSE
  5
26AF
330
268D
100
AcDbEntity
  8
0
100
AcDbEllipse
 10
13.28683689038495
 20
10.00000000000001
 30
0.0
 11
-0.5639370964297688
 21
-9.999950064643336
 31
0.0
210
0.0
220
0.0
230
0.9999999999999998
 40
0.0560386765135294
 41
4.715549214497016
 42
6.286345541291909
  0
LINE
  5
26B0
330
268D
100
AcDbEntity
  8
0
100
AcDbLine
 10
19.40135808271008
 20
57.50707895874676
 30
0.0
 11
12.72467355157538
 21
10.00000000000001
 31
0.0
  0
LINE
  5
26B1
330
268D
100
AcDbEntity
  8
0
100
AcDbLine
 10
-19.40135808271008
 20
0.0
 30
0.0
 11
-12.7246735515754
 21
0.0
 31
0.0
  0
ELLIPSE
  5
26B2
330
268D
100
AcDbEntity
  8
0
100
AcDbEllipse
 10
-13.28683689038497
 20
10.0
 30
0.0
 11
-0.5639370964298366
 21
9.99995006464333
 31
0.0
210
0.0
220
0.0
230
0.9999999999999998
 40
0.0560386765135293
 41
3.138432419428198
 42
4.709228746255937
  0
LINE
  5
26B3
330
268D
100
AcDbEntity
  8
0
100
AcDbLine
 10
-12.72467355157541
 20
10.0
 30
0.0
 11
-19.40135808271015
 21
57.50707895874676
 31
0.0
  0
LINE
  5
26B4
330
268D
100
AcDbEntity
  8
0
100
AcDbLine
 10
-12.7246735515754
 20
0.0
 30
0.0
 11
12.72467355157538
 21
0.0
 31
0.0
  0
LINE
  5
26B5
330
268D
100
AcDbEntity
  8
0
100
AcDbLine
 10
32.49999999999996
 20
78.00000000000003
 30
0.0
 11
32.49999999999996
 21
71.49999999999995
 31
0.0
  0
LINE
  5
26B6
330
268D
100
AcDbEntity
  8
0
100
AcDbLine
 10
-32.50000000000004
 20
71.49999999999993
 30
0.0
 11
-32.50000000000004
 21
77.99999999999998
 31
0.0
  0
LINE
  5
26B7
330
268D
100
AcDbEntity
  8
0
100
AcDbLine
 10
25.49999999999996
 20
85.0
 30
0.0
 11
32.49999999999996
 21
78.00000000000003
 31
0.0
  0
LINE
  5
26B8
330
268D
100
AcDbEntity
  8
0
100
AcDbLine
 10
-32.50000000000004
 20
77.99999999999998
 30
0.0
 11
-25.50000000000004
 21
85.0
 31
0.0
  0
LINE
  5
26B9
330
268D
100
AcDbEntity
  8
0
100
AcDbLine
 10
-25.89060973854647
 20
56.59507411444166
 30
0.0
 11
-22.45917600970657
 21
26.95234078859373
 31
0.0
  0
ELLIPSE
  5
26BA
330
268D
100
AcDbEntity
  8
0
100
AcDbEllipse
 10
-24.9013314616603
 20
29.55706345359767
 30
0.0
 11
2.149316260459697
 21
-14.99707715516456
 31
0.0
210
0.0
220
0.0
230
0.9999999999999998
 40
0.1377659927417794
 41
0.1547914637106942
 42
1.376521940106726
  0
LINE
  5
26BB
330
268D
100
AcDbEntity
  8
0
100
AcDbLine
 10
-22.45917600970656
 20
14.78494715841456
 30
0.0
 11
-25.89060973854639
 21
9.558133491121608
 31
0.0
  0
LINE
  5
26BC
330
268D
100
AcDbEntity
  8
0
100
AcDbLine
 10
22.45917600970654
 20
26.95234078859375
 30
0.0
 11
25.89060973854639
 21
56.59507411444167
 31
0.0
  0
LINE
  5
26BD
330
268D
100
AcDbEntity
  8
0
100
AcDbLine
 10
25.89060973854638
 20
9.558133491121626
 30
0.0
 11
22.45917600970653
 21
14.78494715841457
 31
0.0
  0
ELLIPSE
  5
26BE
330
268D
100
AcDbEntity
  8
0
100
AcDbEllipse
 10
24.90133146166027
 20
29.55706345359769
 30
0.0
 11
2.149316260459894
 21
14.99707715516453
 31
0.0
210
0.0
220
0.0
230
1.0
 40
0.1377659927417797
 41
1.765070713486
 42
2.986801189887145
  0
ENDBLK
  5
268F
330
268D
100
AcDbEntity
  8
0
100
AcDbBlockEnd
  0
BLOCK
  5
26C0
330
26BF
100
AcDbEntity
  8
0
100
AcDbBlockBegin
  2
AKR205X3L-ISO
 70
     0
 10
0.0
 20
0.0
 30
0.0
  3
AKR205X3L-ISO
  1

  0
ELLIPSE
  5
26C2
330
26BF
100
AcDbEntity
  8
0
100
AcDbEllipse
 10
45.85818480465896
 20
30.67852532342336
 30
0.0
 11
1.300000000000134
 21
-2.251666049839463
 31
0.0
210
0.0
220
0.0
230
1.0
 40
0.5773502691896257
 41
4.095863641558294
 42
5.328914319210787
  0
ELLIPSE
  5
26C3
330
26BF
100
AcDbEntity
  8
0
100
AcDbEllipse
 10
43.7368644610993
 20
29.45378045203176
 30
0.0
 11
1.299999999999864
 21
-2.251666049839618
 31
0.0
210
0.0
220
0.0
230
0.9999999999999998
 40
0.5773502691896257
 41
0.0
 42
6.283185307179586
  0
ELLIPSE
  5
26C4
330
26BF
100
AcDbEntity
  8
0
100
AcDbEllipse
 10
45.85818480465897
 20
51.90743642754426
 30
0.0
 11
1.300000000000135
 21
-2.251666049839465
 31
0.0
210
0.0
220
0.0
230
1.0
 40
0.5773502691896257
 41
4.095863641558295
 42
5.328914319210787
  0
ELLIPSE
  5
26C5
330
26BF
100
AcDbEntity
  8
0
100
AcDbEllipse
 10
43.7368644610993
 20
50.68269155615265
 30
0.0
 11
1.299999999999866
 21
-2.251666049839621
 31
0.0
210
0.0
220
0.0
230
1.0
 40
0.5773502691896257
 41
0.0
 42
6.283185307179586
  0
ELLIPSE
  5
26C6
330
26BF
100
AcDbEntity
  8
0
100
AcDbEllipse
 10
14.03837965126434
 20
70.2786094984181
 30
0.0
 11
1.300000000000134
 21
-2.251666049839464
 31
0.0
210
0.0
220
0.0
230
0.9999999999999998
 40
0.5773502691896255
 41
4.095863641558294
 42
5.328914319210787
  0
ELLIPSE
  5
26C7
330
26BF
100
AcDbEntity
  8
0
100
AcDbEllipse
 10
11.91705930770467
 20
69.0538646270265
 30
0.0
 11
1.299999999999866
 21
-2.251666049839618
 31
0.0
210
0.0
220
0.0
230
1.0
 40
0.5773502691896255
 41
0.0
 42
6.283185307179586
  0
ELLIPSE
  5
26C8
330
26BF
100
AcDbEntity
  8
0
100
AcDbEllipse
 10
21.95797560055368
 20
82.03616026377735
 30
0.0
 11
1.300000000000135
 21
-2.251666049839464
 31
0.0
210
0.0
220
0.0
230
1.0
 40
0.5773502691896254
 41
4.095863641558288
 42
5.328914319210785
  0
ELLIPSE
  5
26C9
330
26BF
100
AcDbEntity
  8
0
100
AcDbEllipse
 10
19.83665525699401
 20
80.81141539238576
 30
0.0
 11
1.299999999999865
 21
-2.251666049839619
 31
0.0
210
0.0
220
0.0
230
1.0
 40
0.5773502691896257
 41
0.0
 42
6.283185307179586
  0
ELLIPSE
  5
26CA
330
26BF
100
AcDbEntity
  8
0
100
AcDbEllipse
 10
29.94828222796166
 20
93.75288620009021
 30
0.0
 11
1.300000000000134
 21
-2.251666049839464
 31
0.0
210
0.0
220
0.0
230
0.9999999999999998
 40
0.5773502691896254
 41
4.09586364155829
 42
5.328914319210785
  0
ELLIPSE
  5
26CB
330
26BF
100
AcDbEntity
  8
0
100
AcDbEllipse
 10
27.826961884402
 20
92.52814132869861
 30
0.0
 11
1.299999999999866
 21
-2.251666049839618
 31
0.0
210
0.0
220
0.0
230
1.0
 40
0.5773502691896255
 41
0.0
 42
6.283185307179586
  0
ELLIPSE
  5
26CC
330
26BF
100
AcDbEntity
  8
0
100
AcDbEllipse
 10
14.03837965126435
 20
102.9384727355271
 30
0.0
 11
1.300000000000134
 21
-2.251666049839464
 31
0.0
210
0.0
220
0.0
230
1.0
 40
0.5773502691896255
 41
4.09586364155829
 42
5.328914319210783
  0
ELLIPSE
  5
26CD
330
26BF
100
AcDbEntity
  8
0
100
AcDbEllipse
 10
11.91705930770468
 20
101.7137278641355
 30
0.0
 11
1.299999999999865
 21
-2.251666049839619
 31
0.0
210
0.0
220
0.0
230
1.0
 40
0.5773502691896257
 41
0.0
 42
6.283185307179586
  0
ELLIPSE
  5
26CE
330
26BF
100
AcDbEntity
  8
0
100
AcDbEllipse
 10
45.85818480465897
 20
84.5672996646533
 30
0.0
 11
1.300000000000134
 21
-2.251666049839465
 31
0.0
210
0.0
220
0.0
230
0.9999999999999998
 40
0.5773502691896257
 41
4.095863641558288
 42
5.328914319210786
  0
ELLIPSE
  5
26CF
330
26BF
100
AcDbEntity
  8
0
100
AcDbEllipse
 10
43.73686446109931
 20
83.34255479326168
 30
0.0
 11
1.299999999999865
 21
-2.25166604983962
 31
0.0
210
0.0
220
0.0
230
1.0
 40
0.5773502691896257
 41
0.0
 42
6.283185307179586
  0
ELLIPSE
  5
26D0
330
26BF
100
AcDbEntity
  8
0
100
AcDbEllipse
 10
37.93858885536965
 20
72.80974889929405
 30
0.0
 11
1.300000000000133
 21
-2.251666049839462
 31
0.0
210
0.0
220
0.0
230
1.0
 40
0.5773502691896254
 41
4.095863641558294
 42
5.328914319210789
  0
ELLIPSE
  5
26D1
330
26BF
100
AcDbEntity
  8
0
100
AcDbEllipse
 10
35.81726851180998
 20
71.58500402790245
 30
0.0
 11
1.299999999999864
 21
-2.251666049839617
 31
0.0
210
0.0
220
0.0
230
1.0
 40
0.5773502691896257
 41
0.0
 42
6.283185307179586
  0
ELLIPSE
  5
26D2
330
26BF
100
AcDbEntity
  8
0
100
AcDbEllipse
 10
29.94828222796165
 20
61.09302296298118
 30
0.0
 11
1.300000000000134
 21
-2.251666049839465
 31
0.0
210
0.0
220
0.0
230
0.9999999999999998
 40
0.5773502691896255
 41
4.095863641558294
 42
5.328914319210787
  0
ELLIPSE
  5
26D3
330
26BF
100
AcDbEntity
  8
0
100
AcDbEllipse
 10
27.82696188440199
 20
59.86827809158959
 30
0.0
 11
1.299999999999865
 21
-2.25166604983962
 31
0.0
210
0.0
220
0.0
230
1.0
 40
0.5773502691896257
 41
0.0
 42
6.283185307179586
  0
ELLIPSE
  5
26D4
330
26BF
100
AcDbEntity
  8
0
100
AcDbEllipse
 10
14.03837965126433
 20
49.04969839429721
 30
0.0
 11
1.300000000000134
 21
-2.251666049839464
 31
0.0
210
0.0
220
0.0
230
0.9999999999999998
 40
0.5773502691896255
 41
4.095863641558294
 42
5.328914319210785
  0
ELLIPSE
  5
26D5
330
26BF
100
AcDbEntity
  8
0
100
AcDbEllipse
 10
11.91705930770467
 20
47.82495352290561
 30
0.0
 11
1.299999999999865
 21
-2.251666049839619
 31
0.0
210
0.0
220
0.0
230
1.0
 40
0.5773502691896257
 41
0.0
 42
6.283185307179586
  0
ELLIPSE
  5
26D6
330
26BF
100
AcDbEntity
  8
0
100
AcDbEllipse
 10
29.94828222796165
 20
31.69914604958302
 30
0.0
 11
1.300000000000135
 21
-2.251666049839465
 31
0.0
210
0.0
220
0.0
230
0.9999999999999998
 40
0.5773502691896257
 41
4.095863641558294
 42
5.328914319210787
  0
ELLIPSE
  5
26D7
330
26BF
100
AcDbEntity
  8
0
100
AcDbEllipse
 10
27.82696188440198
 20
30.47440117819143
 30
0.0
 11
1.299999999999867
 21
-2.25166604983962
 31
0.0
210
0.0
220
0.0
230
1.0
 40
0.5773502691896257
 41
0.0
 42
6.283185307179586
  0
ELLIPSE
  5
26D8
330
26BF
100
AcDbEntity
  8
0
100
AcDbEllipse
 10
29.94828222796166
 20
83.13843064802979
 30
0.0
 11
-3.374999999999998
 21
5.845671475544963
 31
0.0
210
0.0
220
0.0
230
1.0
 40
0.5773502691896257
 41
0.3196872591302866
 42
2.821905394459511
  0
ELLIPSE
  5
26D9
330
26BF
100
AcDbEntity
  8
0
100
AcDbEllipse
 10
27.826961884402
 20
81.91368577663817
 30
0.0
 11
3.374999999999648
 21
-5.845671475545162
 31
0.0
210
0.0
220
0.0
230
1.0
 40
0.5773502691896258
 41
0.0
 42
6.283185307179586
  0
ELLIPSE
  5
26DA
330
26BF
100
AcDbEntity
  8
0
100
AcDbEllipse
 10
29.94828222796164
 20
15.36921443102851
 30
0.0
 11
-3.375000000000001
 21
5.845671475544965
 31
0.0
210
0.0
220
0.0
230
1.0
 40
0.5773502691896254
 41
0.3196872591302826
 42
2.821905394459508
  0
ELLIPSE
  5
26DB
330
26BF
100
AcDbEntity
  8
0
100
AcDbEllipse
 10
27.82696188440198
 20
14.14446955963692
 30
0.0
 11
3.374999999999653
 21
-5.845671475545167
 31
0.0
210
0.0
220
0.0
230
0.9999999999999998
 40
0.5773502691896255
 41
0.0
 42
6.283185307179586
  0
ELLIPSE
  5
26DC
330
26BF
100
AcDbEntity
  8
0
100
AcDbEllipse
 10
11.91705930770466
 20
12.7156005430134
 30
0.0
 11
-1.300000000000003
 21
2.251666049839546
 31
0.0
210
0.0
220
0.0
230
1.0
 40
0.5773502691896255
 41
0.0
 42
6.283185307179586
  0
ELLIPSE
  5
26DD
330
26BF
100
AcDbEntity
  8
0
100
AcDbEllipse
 10
43.73686446109929
 20
-5.655572527860446
 30
0.0
 11
-1.3
 21
2.251666049839542
 31
0.0
210
0.0
220
0.0
230
1.0
 40
0.5773502691896258
 41
0.0
 42
6.283185307179586
  0
ELLIPSE
  5
26DE
330
26BF
100
AcDbEntity
  8
0
100
AcDbEllipse
 10
27.82696188440197
 20
-34.84532529602665
 30
0.0
 11
-1.299999999999999
 21
2.251666049839541
 31
0.0
210
0.0
220
0.0
230
1.0
 40
0.5773502691896257
 41
0.0
 42
6.283185307179586
  0
ELLIPSE
  5
26DF
330
26BF
100
AcDbEntity
  8
0
100
AcDbEllipse
 10
37.72645682101364
 20
-32.39583555324347
 30
0.0
 11
1.299999999999999
 21
-2.251666049839541
 31
0.0
210
0.0
220
0.0
230
1.0
 40
0.5773502691896255
 41
1.102424509025418
 42
6.261604347111319
  0
ELLIPSE
  5
26E0
330
26BF
100
AcDbEntity
  8
0
100
AcDbEllipse
 10
37.72645682101364
 20
-32.39583555324347
 30
0.0
 11
1.3
 21
-2.251666049839541
 31
0.0
210
0.0
220
0.0
230
1.0
 40
0.5773502691896255
 41
0.9823128046850015
 42
0.9823847649022292
  0
ELLIPSE
  5
26E1
330
26BF
100
AcDbEntity
  8
0
100
AcDbEllipse
 10
17.9274669477903
 20
-20.9648834202553
 30
0.0
 11
-1.299999999999999
 21
2.251666049839541
 31
0.0
210
0.0
220
0.0
230
1.0
 40
0.5773502691896257
 41
0.0
 42
6.283185307179586
  0
ELLIPSE
  5
26E2
330
26BF
100
AcDbEntity
  8
0
100
AcDbEllipse
 10
27.82696188440198
 20
-18.51539367747213
 30
0.0
 11
-1.299999999999999
 21
2.251666049839541
 31
0.0
210
0.0
220
0.0
230
1.0
 40
0.5773502691896257
 41
0.0
 42
6.283185307179586
  0
ELLIPSE
  5
26E3
330
26BF
100
AcDbEntity
  8
0
100
AcDbEllipse
 10
41.96909750813292
 20
-19.33189025839986
 30
0.0
 11
-1.299999999999999
 21
2.251666049839541
 31
0.0
210
0.0
220
0.0
230
1.0
 40
0.5773502691896257
 41
0.0
 42
6.283185307179586
  0
ELLIPSE
  5
26E4
330
26BF
100
AcDbEntity
  8
0
100
AcDbEllipse
 10
13.68482626067103
 20
-3.001958639845323
 30
0.0
 11
-1.299999999999999
 21
2.251666049839541
 31
0.0
210
0.0
220
0.0
230
1.0
 40
0.5773502691896257
 41
0.0
 42
6.283185307179586
  0
ELLIPSE
  5
26E5
330
26BF
100
AcDbEntity
  8
0
100
AcDbEllipse
 10
27.82696188440198
 20
-3.818455220773051
 30
0.0
 11
-1.299999999999999
 21
2.251666049839541
 31
0.0
210
0.0
220
0.0
230
1.0
 40
0.5773502691896257
 41
0.0
 42
6.283185307179586
  0
ELLIPSE
  5
26E6
330
26BF
100
AcDbEntity
  8
0
100
AcDbEllipse
 10
12.30596803735628
 20
-74.01674876603394
 30
0.0
 11
6.749999999999998
 21
-0.0000000000004055
 31
0.0
210
0.0
220
0.0
230
1.0
 40
0.577350269189626
 41
5.497787143782377
 42
8.639379797372171
  0
LINE
  5
26E7
330
26BF
100
AcDbEntity
  8
0
100
AcDbLine
 10
17.07893881036705
 20
-76.77242472666593
 30
0.0
 11
8.947210826721757
 21
-81.46728006700033
 31
0.0
  0
ELLIPSE
  5
26E8
330
26BF
100
AcDbEntity
  8
0
100
AcDbEllipse
 10
4.174240053710982
 20
-78.71160410636836
 30
0.0
 11
-6.749999999999998
 21
0.0000000000004022
 31
0.0
210
0.0
220
0.0
230
1.0
 40
0.577350269189626
 41
5.497787143782378
 42
8.639379797372175
  0
LINE
  5
26E9
330
26BF
100
AcDbEntity
  8
0
100
AcDbLine
 10
-0.5987307192982128
 20
-75.95592814573729
 30
0.0
 11
7.532997264347085
 21
-71.26107280540286
 31
0.0
  0
ELLIPSE
  5
26EA
330
26BF
100
AcDbEntity
  8
0
100
AcDbEllipse
 10
-16.01365854916398
 20
-90.367092799112
 30
0.0
 11
5.5
 21
-0.0000000000000017
 31
0.0
210
0.0
220
0.0
230
1.0
 40
0.5773502691896259
 41
0.0
 42
6.283185307179586
  0
ELLIPSE
  5
26EB
330
26BF
100
AcDbEntity
  8
0
100
AcDbEllipse
 10
-38.99462893772677
 20
-85.26398916831368
 30
0.0
 11
2.6
 21
-0.0000000000000008
 31
0.0
210
0.0
220
0.0
230
1.0
 40
0.5773502691896258
 41
0.0
 42
6.283185307179586
  0
ELLIPSE
  5
26EC
330
26BF
100
AcDbEntity
  8
0
100
AcDbEllipse
 10
-7.174823784332153
 20
-103.6351622391875
 30
0.0
 11
2.6
 21
-0.0000000000000008
 31
0.0
210
0.0
220
0.0
230
1.0
 40
0.5773502691896258
 41
0.0
 42
6.283185307179586
  0
LINE
  5
26ED
330
26BF
100
AcDbEntity
  8
0
100
AcDbLine
 10
50.80793227296479
 20
-22.39375243687887
 30
0.0
 11
50.80793227296478
 21
80.89306505047852
 31
0.0
  0
LINE
  5
26EE
330
26BF
100
AcDbEntity
  8
0
100
AcDbLine
 10
4.845991495839201
 20
4.142386443272254
 30
0.0
 11
4.84599149583921
 21
107.4292039306296
 31
0.0
  0
LINE
  5
26EF
330
26BF
100
AcDbEntity
  8
0
100
AcDbLine
 10
24.60832068088357
 20
-73.13205072291942
 30
0.0
 11
5.809658739710616
 21
-91.15577012578809
 31
0.0
  0
ELLIPSE
  5
26F0
330
26BF
100
AcDbEntity
  8
0
100
AcDbEllipse
 10
24.49336830213717
 20
-63.13104763826309
 30
0.0
 11
-7.499999999999989
 21
-12.99038105676658
 31
0.0
210
0.0
220
0.0
230
1.0
 40
0.4150676916945047
 41
0.9599310885968783
 42
2.181661564992909
  0
LINE
  5
26F1
330
26BF
100
AcDbEntity
  8
0
100
AcDbLine
 10
39.42163512912955
 20
-32.93811927650899
 30
0.0
 11
33.21196722614927
 21
-58.23009777615478
 31
0.0
  0
LINE
  5
26F2
330
26BF
100
AcDbEntity
  8
0
100
AcDbLine
 10
5.775524439374555
 20
-42.38966014760463
 30
0.0
 11
7.06316530563654
 21
-14.25594801335089
 31
0.0
  0
ELLIPSE
  5
26F3
330
26BF
100
AcDbEntity
  8
0
100
AcDbEllipse
 10
-6.396803846213918
 20
-45.29659843309868
 30
0.0
 11
7.499999999999972
 21
12.99038105676659
 31
0.0
210
0.0
220
0.0
230
1.0
 40
0.7396328466847472
 41
4.101523742186672
 42
5.323254218582703
  0
LINE
  5
26F4
330
26BF
100
AcDbEntity
  8
0
100
AcDbLine
 10
-26.54881108378245
 20
-72.47359886262997
 30
0.0
 11
-2.828122105891157
 21
-57.29161309436924
 31
0.0
  0
LINE
  5
26F5
330
26BF
100
AcDbEntity
  8
0
100
AcDbLine
 10
-48.18701709315191
 20
-88.12172720156073
 30
0.0
 11
-12.12457125263798
 21
-108.9423900152177
 31
0.0
  0
ELLIPSE
  5
26F6
330
26BF
100
AcDbEntity
  8
0
100
AcDbEllipse
 10
14.03837965126433
 20
13.94034541440501
 30
0.0
 11
1.300000000000136
 21
-2.25166604983947
 31
0.0
210
0.0
220
0.0
230
0.9999999999999998
 40
0.5773502691896257
 41
4.095863641558294
 42
5.32891431921079
  0
ELLIPSE
  5
26F7
330
26BF
100
AcDbEntity
  8
0
100
AcDbEllipse
 10
45.85818480465896
 20
-4.430827656468849
 30
0.0
 11
1.300000000000134
 21
-2.251666049839464
 31
0.0
210
0.0
220
0.0
230
1.0
 40
0.5773502691896257
 41
4.095863641558294
 42
5.328914319210787
  0
ELLIPSE
  5
26F8
330
26BF
100
AcDbEntity
  8
0
100
AcDbEllipse
 10
29.94828222796164
 20
-33.62058042463505
 30
0.0
 11
1.300000000000134
 21
-2.251666049839464
 31
0.0
210
0.0
220
0.0
230
1.0
 40
0.5773502691896255
 41
4.095863641558292
 42
5.328914319210787
  0
ELLIPSE
  5
26F9
330
26BF
100
AcDbEntity
  8
0
100
AcDbEllipse
 10
39.8477771645733
 20
-31.17109068185187
 30
0.0
 11
1.300000000000133
 21
-2.251666049839463
 31
0.0
210
0.0
220
0.0
230
1.0
 40
0.5773502691896257
 41
4.09586364155829
 42
5.257964389049486
  0
ELLIPSE
  5
26FA
330
26BF
100
AcDbEntity
  8
0
100
AcDbEllipse
 10
20.04878729134997
 20
-19.7401385488637
 30
0.0
 11
1.300000000000133
 21
-2.251666049839463
 31
0.0
210
0.0
220
0.0
230
1.0
 40
0.5773502691896257
 41
4.095863641558288
 42
5.328914319210785
  0
ELLIPSE
  5
26FB
330
26BF
100
AcDbEntity
  8
0
100
AcDbEllipse
 10
29.94828222796164
 20
-17.29064880608053
 30
0.0
 11
1.300000000000133
 21
-2.251666049839463
 31
0.0
210
0.0
220
0.0
230
1.0
 40
0.5773502691896257
 41
4.095863641558288
 42
5.328914319210787
  0
ELLIPSE
  5
26FC
330
26BF
100
AcDbEntity
  8
0
100
AcDbEllipse
 10
44.09041785169258
 20
-18.10714538700825
 30
0.0
 11
1.300000000000133
 21
-2.251666049839463
 31
0.0
210
0.0
220
0.0
230
1.0
 40
0.5773502691896257
 41
4.095863641558288
 42
5.328914319210787
  0
ELLIPSE
  5
26FD
330
26BF
100
AcDbEntity
  8
0
100
AcDbEllipse
 10
15.80614660423069
 20
-1.777213768453727
 30
0.0
 11
1.300000000000133
 21
-2.251666049839463
 31
0.0
210
0.0
220
0.0
230
1.0
 40
0.5773502691896257
 41
4.095863641558288
 42
5.328914319210785
  0
ELLIPSE
  5
26FE
330
26BF
100
AcDbEntity
  8
0
100
AcDbEllipse
 10
29.94828222796164
 20
-2.593710349381455
 30
0.0
 11
1.300000000000133
 21
-2.251666049839463
 31
0.0
210
0.0
220
0.0
230
1.0
 40
0.5773502691896257
 41
4.09586364155829
 42
5.328914319210787
  0
ELLIPSE
  5
26FF
330
26BF
100
AcDbEntity
  8
0
100
AcDbEllipse
 10
12.30596803735628
 20
-76.46623850881713
 30
0.0
 11
6.749999999999998
 21
-0.0000000000000019
 31
0.0
210
0.0
220
0.0
230
1.0
 40
0.5773502691896261
 41
0.3196872591302826
 42
2.356194490192346
  0
ELLIPSE
  5
2700
330
26BF
100
AcDbEntity
  8
0
100
AcDbEllipse
 10
4.174240053710982
 20
-81.16109384915155
 30
0.0
 11
-6.749999999999998
 21
-0.0000000000000003
 31
0.0
210
0.0
220
0.0
230
1.0
 40
0.577350269189626
 41
5.497787143782137
 42
5.963498048049304
  0
LINE
  5
2701
330
26BF
100
AcDbEntity
  8
0
100
AcDbLine
 10
7.532997264347085
 20
-73.71056254818603
 30
0.0
 11
-0.5987307192982128
 21
-78.40541788852047
 31
0.0
  0
ELLIPSE
  5
2702
330
26BF
100
AcDbEntity
  8
0
100
AcDbEllipse
 10
-16.01365854916398
 20
-92.81658254189521
 30
0.0
 11
-5.500000000000001
 21
-0.0000000000003279
 31
0.0
210
0.0
220
0.0
230
1.0
 40
0.5773502691896259
 41
3.537553217051975
 42
5.887224743716537
  0
ELLIPSE
  5
2703
330
26BF
100
AcDbEntity
  8
0
100
AcDbEllipse
 10
-38.99462893772677
 20
-87.71347891109687
 30
0.0
 11
-2.6
 21
-0.0000000000001553
 31
0.0
210
0.0
220
0.0
230
1.0
 40
0.5773502691896259
 41
4.095863641558285
 42
5.328914319210797
  0
ELLIPSE
  5
2704
330
26BF
100
AcDbEntity
  8
0
100
AcDbEllipse
 10
-7.174823784332153
 20
-106.0846519819707
 30
0.0
 11
-2.6
 21
-0.0000000000001553
 31
0.0
210
0.0
220
0.0
230
1.0
 40
0.5773502691896259
 41
4.095863641558285
 42
5.328914319210795
  0
LINE
  5
2705
330
26BF
100
AcDbEntity
  8
0
100
AcDbLine
 10
52.92925261652442
 20
-21.16900756548727
 30
0.0
 11
52.92925261652443
 21
82.1178099218701
 31
0.0
  0
LINE
  5
2706
330
26BF
100
AcDbEntity
  8
0
100
AcDbLine
 10
-48.18701709315191
 20
-90.57121694434393
 30
0.0
 11
-12.12457125263798
 21
-111.3918797580009
 31
0.0
  0
LINE
  5
2707
330
26BF
100
AcDbEntity
  8
0
100
AcDbLine
 10
7.532997264347085
 20
-73.71056254818603
 30
0.0
 11
7.532997264347085
 21
-71.26107280540286
 31
0.0
  0
LINE
  5
2708
330
26BF
100
AcDbEntity
  8
0
100
AcDbLine
 10
-0.5987307192982128
 20
-78.40541788852047
 30
0.0
 11
-0.5987307192982128
 21
-75.95592814573729
 31
0.0
  0
SPLINE
  5
2709
330
26BF
100
AcDbEntity
  8
0
100
AcDbSpline
210
0.0
220
0.0
230
1.0
 70
     8
 71
     3
 72
    17
 73
    13
 74
     0
 42
0.000000001
 43
0.0000000001
 40
-0.4749267643667875
 40
-0.4749267643667875
 40
-0.4749267643667875
 40
-0.4749267643667875
 40
-0.4725410755554584
 40
-0.4725410755554584
 40
-0.4725410755554584
 40
-0.2262668722300742
 40
-0.2262668722300742
 40
-0.2262668722300742
 40
-0.0545088760467883
 40
-0.0545088760467883
 40
-0.0545088760467883
 40
0.0
 40
0.0
 40
0.0
 40
0.0
 10
5.955052126611635
 20
-4.363647944861241
 30
0.0
 10
5.952716860683295
 20
-4.379042801045951
 30
0.0
 10
5.950381171520682
 20
-4.394438893190466
 30
0.0
 10
5.948045101792582
 20
-4.409836200473042
 30
0.0
 10
5.706893067014684
 20
-5.999297309720175
 30
0.0
 10
5.464435350156948
 20
-7.596814191498113
 30
0.0
 10
5.269469721646036
 20
-9.166597600357597
 30
0.0
 10
5.133495651989194
 20
-10.26140513239634
 30
0.0
 10
5.018553460334329
 20
-11.36053740821333
 30
0.0
 10
4.942452958360656
 20
-12.41679729867707
 30
0.0
 10
4.918301810109282
 20
-12.75201045161257
 30
0.0
 10
4.899117501273333
 20
-13.08041195964025
 30
0.0
 10
4.882235505807548
 20
-13.40305364290802
 30
0.0
  0
LINE
  5
270A
330
26BF
100
AcDbEntity
  8
0
100
AcDbLine
 10
5.400911376402213
 20
-13.60589177652818
 30
0.0
 11
4.882235505722647
 21
-13.40305364289839
 31
0.0
  0
LINE
  5
270B
330
26BF
100
AcDbEntity
  8
0
100
AcDbLine
 10
7.063165305636514
 20
-14.25594801335087
 30
0.0
 11
5.400911376402213
 21
-13.60589177652818
 31
0.0
  0
SPLINE
  5
270C
330
26BF
100
AcDbEntity
  8
0
100
AcDbSpline
210
0.0
220
0.0
230
1.0
 70
     8
 71
     3
 72
    20
 73
    16
 74
     0
 42
0.000000001
 43
0.0000000001
 40
-1.0
 40
-1.0
 40
-1.0
 40
-1.0
 40
-0.9088430650619825
 40
-0.9088430650619825
 40
-0.9088430650619825
 40
-0.5823514910988213
 40
-0.5823514910988213
 40
-0.5823514910988213
 40
-0.2911757455494106
 40
-0.2911757455494106
 40
-0.2911757455494106
 40
-0.0929891979470578
 40
-0.0929891979470578
 40
-0.0929891979470578
 40
0.0
 40
0.0
 40
0.0
 40
0.0
 10
7.063165305636496
 20
-14.25594801335087
 30
0.0
 10
7.085917535041525
 20
-13.72701045447118
 30
0.0
 10
7.095953173614937
 20
-13.15898525272918
 30
0.0
 10
7.080363831349427
 20
-12.59994360552774
 30
0.0
 10
7.02452837684695
 20
-10.59765615005476
 30
0.0
 10
6.70699996414144
 20
-8.529735835273006
 30
0.0
 10
6.341302708133897
 20
-6.464928002945491
 30
0.0
 10
6.015162067287276
 20
-4.623465594907774
 30
0.0
 10
5.644614583965319
 20
-2.797387410382459
 30
0.0
 10
5.3511343009326
 20
-1.008999102849257
 30
0.0
 10
5.151379187491169
 20
0.2082537413862617
 30
0.0
 10
4.987802398826066
 20
1.405175191646446
 30
0.0
 10
4.908116782350893
 20
2.551977264074887
 30
0.0
 10
4.870728263031152
 20
3.090057200424105
 30
0.0
 10
4.848047128655097
 20
3.618626004087071
 30
0.0
 10
4.845991495914625
 20
4.142386443368426
 30
0.0
  0
LINE
  5
270D
330
26BF
100
AcDbEntity
  8
0
100
AcDbLine
 10
10.19859960664715
 20
-12.82260522052734
 30
0.0
 11
7.063165305636522
 21
-14.25594801335089
 31
0.0
  0
ELLIPSE
  5
270E
330
26BF
100
AcDbEntity
  8
0
100
AcDbEllipse
 10
11.98680967632961
 20
-13.85502878562611
 30
0.0
 11
-2.980787541290214
 21
-0.3389773350668649
 31
0.0
210
0.0
220
0.0
230
0.9999999999999998
 40
0.4913799087545887
 41
3.866279069693545
 42
5.298790550294561
  0
SPLINE
  5
270F
330
26BF
100
AcDbEntity
  8
0
100
AcDbSpline
210
0.0
220
0.0
230
1.0
 70
     8
 71
     2
 72
     6
 73
     3
 74
     0
 42
0.000000001
 43
0.0000000001
 40
0.0
 40
0.0
 40
0.0
 40
1.0
 40
1.0
 40
1.0
 10
14.10813001988923
 20
-12.6302839142345
 30
0.0
 10
13.07921490668965
 20
-3.582548171468822
 30
0.0
 10
4.845991495839205
 20
4.142386443272236
 30
0.0
  0
SPLINE
  5
2710
330
26BF
100
AcDbEntity
  8
0
100
AcDbSpline
210
0.0
220
0.0
230
1.0
 70
     8
 71
     3
 72
    20
 73
    16
 74
     0
 42
0.000000001
 43
0.0000000001
 40
-1.0
 40
-1.0
 40
-1.0
 40
-1.0
 40
-0.8565140843592502
 40
-0.8565140843592502
 40
-0.8565140843592502
 40
-0.5402558541866665
 40
-0.5402558541866665
 40
-0.5402558541866665
 40
-0.2701279270933332
 40
-0.2701279270933332
 40
-0.2701279270933332
 40
-0.085254916808621
 40
-0.085254916808621
 40
-0.085254916808621
 40
0.0
 40
0.0
 40
0.0
 40
0.0
 10
39.42163512912957
 20
-32.93811927650902
 30
0.0
 10
39.61128290024017
 20
-32.17583926729029
 30
0.0
 10
39.97408604161935
 20
-31.50627846846351
 30
0.0
 10
40.47079022716498
 20
-30.93743353592822
 30
0.0
 10
41.56557911943006
 20
-29.68363875890862
 30
0.0
 10
43.25890223286588
 20
-28.85393632884182
 30
0.0
 10
44.96784337769895
 20
-28.04976222003668
 30
0.0
 10
46.42751362478263
 20
-27.36288717834963
 30
0.0
 10
47.86944682122586
 20
-26.71540854150158
 30
0.0
 10
48.97231424844867
 20
-25.84749374936644
 30
0.0
 10
49.72710633310855
 20
-25.25350103628715
 30
0.0
 10
50.30892930674688
 20
-24.55503058846878
 30
0.0
 10
50.60220940177197
 20
-23.70354898502653
 30
0.0
 10
50.7374566726661
 20
-23.31088489006889
 30
0.0
 10
50.80432204333482
 20
-22.8791609081084
 30
0.0
 10
50.80793227304216
 20
-22.39375243678402
 30
0.0
  0
SPLINE
  5
2711
330
26BF
100
AcDbEntity
  8
0
100
AcDbSpline
210
0.0
220
0.0
230
1.0
 70
     8
 71
     2
 72
     6
 73
     3
 74
     0
 42
0.000000001
 43
0.0000000001
 40
0.0
 40
0.0
 40
0.0
 40
1.0
 40
1.0
 40
1.0
 10
41.54579374891475
 20
-28.47142645412184
 30
0.0
 10
42.57470886211433
 20
-20.61177954651427
 30
0.0
 10
50.80793227296478
 20
-22.39375243687888
 30
0.0
  0
ELLIPSE
  5
2712
330
26BF
100
AcDbEntity
  8
0
100
AcDbEllipse
 10
39.42447340535507
 20
-29.6961713255134
 30
0.0
 11
-2.974619186296042
 21
0.3894107041665284
 31
0.0
210
0.0
220
0.0
230
0.9999999999999998
 40
0.6520831633610862
 41
3.544678168886694
 42
4.007259574309316
  0
ELLIPSE
  5
2713
330
26BF
100
AcDbEntity
  8
0
100
AcDbEllipse
 10
39.42447340535507
 20
-29.69617132551341
 30
0.0
 11
5.949238372592032
 21
-0.7788214083334704
 31
0.0
210
0.0
220
0.0
230
1.0
 40
0.6520831633610856
 41
5.716340747298438
 42
6.21777610583054
  0
SPLINE
  5
2714
330
26BF
100
AcDbEntity
  8
0
100
AcDbSpline
210
0.0
220
0.0
230
1.0
 70
     8
 71
     3
 72
    20
 73
    16
 74
     0
 42
0.000000001
 43
0.0000000001
 40
-1.0
 40
-1.0
 40
-1.0
 40
-1.0
 40
-0.8557507846680591
 40
-0.8557507846680591
 40
-0.8557507846680591
 40
-0.4725410755554584
 40
-0.4725410755554584
 40
-0.4725410755554584
 40
-0.2262668722300742
 40
-0.2262668722300742
 40
-0.2262668722300742
 40
-0.0545088760467883
 40
-0.0545088760467883
 40
-0.0545088760467883
 40
0.0
 40
0.0
 40
0.0
 40
0.0
 10
52.92925261652442
 20
-21.16900756548729
 30
0.0
 10
52.9264040416698
 20
-21.97224040045416
 30
0.0
 10
52.72573308477396
 20
-22.73297809095684
 30
0.0
 10
52.35836621010531
 20
-23.4346304811661
 30
0.0
 10
51.38242639056855
 20
-25.29862681370432
 30
0.0
 10
49.3416164734358
 20
-26.77323472622927
 30
0.0
 10
47.27109969167909
 20
-28.26771289168164
 30
0.0
 10
45.94045785569903
 20
-29.22815677092537
 30
0.0
 10
44.59885474697212
 20
-30.19108176482909
 30
0.0
 10
43.53037638924821
 20
-31.25654236433689
 30
0.0
 10
42.78519195982018
 20
-31.99962213116863
 30
0.0
 10
42.16431326393932
 20
-32.80665183007788
 30
0.0
 10
41.78393907423711
 20
-33.68723922502423
 30
0.0
 10
41.66322405648766
 20
-33.96670120191102
 30
0.0
 10
41.57024025886276
 20
-34.25249455522035
 30
0.0
 10
41.49708693600818
 20
-34.54264797247255
 30
0.0
  0
LINE
  5
2715
330
26BF
100
AcDbEntity
  8
0
100
AcDbLine
 10
44.17054323123823
 20
-32.43631601707984
 30
0.0
 11
41.49708693608388
 21
-34.54264797255565
 31
0.0
  0
LINE
  5
2716
330
26BF
100
AcDbEntity
  8
0
100
AcDbLine
 10
41.49708693608393
 20
-34.54264797255566
 30
0.0
 11
41.00349618728126
 21
-34.16105370093572
 31
0.0
  0
LINE
  5
2717
330
26BF
100
AcDbEntity
  8
0
100
AcDbLine
 10
50.80793227296479
 20
-22.39375243687887
 30
0.0
 11
52.92925261652444
 21
-21.16900756548728
 31
0.0
  0
LINE
  5
2718
330
26BF
100
AcDbEntity
  8
0
100
AcDbLine
 10
40.8491886020649
 20
-34.04175873698247
 30
0.0
 11
39.4216351291296
 21
-32.93811927650902
 31
0.0
  0
LINE
  5
2719
330
26BF
100
AcDbEntity
  8
0
100
AcDbLine
 10
41.00349618728126
 20
-34.16105370093572
 30
0.0
 11
40.8491886020649
 21
-34.04175873698247
 31
0.0
  0
SPLINE
  5
271A
330
26BF
100
AcDbEntity
  8
0
100
AcDbSpline
210
0.0
220
0.0
230
1.0
 70
     8
 71
     3
 72
    16
 73
    12
 74
     0
 42
0.000000001
 43
0.0000000001
 40
0.001297658644499
 40
0.001297658644499
 40
0.001297658644499
 40
0.001297658644499
 40
0.1521850463662725
 40
0.1521850463662725
 40
0.2383249426490372
 40
0.2383249426490372
 40
0.2860936978177699
 40
0.2860936978177699
 40
0.3648490153294412
 40
0.3648490153294412
 40
0.370090381688984
 40
0.370090381688984
 40
0.370090381688984
 40
0.370090381688984
 10
41.28416478423533
 20
-30.16037352115742
 30
0.0
 10
41.63035702908131
 20
-29.87808952504448
 30
0.0
 10
41.96147258333265
 20
-29.59351851175334
 30
0.0
 10
42.37018827556127
 20
-29.18233894238903
 30
0.0
 10
42.49684636607441
 20
-29.03895629813871
 30
0.0
 10
42.64009771591081
 20
-28.85606156491827
 30
0.0
 10
42.68122980544465
 20
-28.79829414945012
 30
0.0
 10
42.76217733408103
 20
-28.6761367134237
 30
0.0
 10
42.78410950697789
 20
-28.63174880619795
 30
0.0
 10
42.78668164106857
 20
-28.62643360651761
 30
0.0
 10
42.78676027678925
 20
-28.62626751992093
 30
0.0
 10
42.78676027679181
 20
-28.62626751991553
 30
0.0
  0
SPLINE
  5
271B
330
26BF
100
AcDbEntity
  8
0
100
AcDbSpline
210
0.0
220
0.0
230
1.0
 70
     8
 71
     3
 72
    10
 73
     6
 74
     0
 42
0.000000001
 43
0.0000000001
 40
0.6267196990161845
 40
0.6267196990161845
 40
0.6267196990161845
 40
0.6267196990161845
 40
0.7262935397948224
 40
0.7262935397948224
 40
0.8486188606035216
 40
0.8486188606035216
 40
0.8486188606035216
 40
0.8486188606035216
 10
45.65917314506922
 20
-29.44921357249175
 30
0.0
 10
45.61218445395569
 20
-29.60111529100683
 30
0.0
 10
45.56208083604666
 20
-29.78023835045183
 30
0.0
 10
45.45064623112428
 20
-30.20899824508455
 30
0.0
 10
45.38955386957754
 20
-30.4634715654085
 30
0.0
 10
45.32776611221857
 20
-30.72688827699335
 30
0.0
  0
ELLIPSE
  5
271C
330
26BF
100
AcDbEntity
  8
0
100
AcDbEllipse
 10
3.003468594514306
 20
-92.77920212060013
 30
0.0
 11
3.649098310923981
 21
-4.762780859667152
 31
0.0
210
0.0
220
0.0
230
1.0
 40
0.6520831633610853
 41
0.0654092013490439
 42
0.5668445598811438
  0
LINE
  5
271D
330
26BF
100
AcDbEntity
  8
0
100
AcDbLine
 10
8.236947255065306
 20
-92.15089976691755
 30
0.0
 11
7.749538420397477
 21
-95.51934681216655
 31
0.0
  0
SPLINE
  5
271E
330
26BF
100
AcDbEntity
  8
0
100
AcDbSpline
210
0.0
220
0.0
230
1.0
 70
     8
 71
     3
 72
    20
 73
    16
 74
     0
 42
0.000000001
 43
0.0000000001
 40
-1.0
 40
-1.0
 40
-1.0
 40
-1.0
 40
-0.8557507846680591
 40
-0.8557507846680591
 40
-0.8557507846680591
 40
-0.4725410755554584
 40
-0.4725410755554584
 40
-0.4725410755554584
 40
-0.2262668722300742
 40
-0.2262668722300742
 40
-0.2262668722300742
 40
-0.0545088760467883
 40
-0.0545088760467883
 40
-0.0545088760467883
 40
0.0
 40
0.0
 40
0.0
 40
0.0
 10
2.371117761686281
 20
-108.7382658699858
 30
0.0
 10
3.065313514494074
 20
-108.3341825143137
 30
0.0
 10
3.623796201637783
 20
-107.7800275225888
 30
0.0
 10
4.04776155885075
 20
-107.1110522815122
 30
0.0
 10
5.174059825621495
 20
-105.3338654389595
 30
0.0
 10
5.430702779923275
 20
-102.8291682501648
 30
0.0
 10
5.689700445727843
 20
-100.2888090354753
 30
0.0
 10
5.856148326072143
 20
-98.65621746255641
 30
0.0
 10
6.019264278368288
 20
-97.01289259165086
 30
0.0
 10
6.407741045411476
 20
-95.55483289071418
 30
0.0
 10
6.678674785811984
 20
-94.53794436090902
 30
0.0
 10
7.067143658735468
 20
-93.59673278815302
 30
0.0
 10
7.639567618160261
 20
-92.82702537945381
 30
0.0
 10
7.821231280661313
 20
-92.58275211902109
 30
0.0
 10
8.022243686047483
 20
-92.35932911148294
 30
0.0
 10
8.236947254955468
 20
-92.15089976689354
 30
0.0
  0
SPLINE
  5
271F
330
26BF
100
AcDbEntity
  8
0
100
AcDbSpline
210
0.0
220
0.0
230
1.0
 70
     8
 71
     3
 72
    20
 73
    16
 74
     0
 42
0.000000001
 43
0.0000000001
 40
-1.0
 40
-1.0
 40
-1.0
 40
-1.0
 40
-0.8565140843592502
 40
-0.8565140843592502
 40
-0.8565140843592502
 40
-0.5402558541866665
 40
-0.5402558541866665
 40
-0.5402558541866665
 40
-0.2701279270933332
 40
-0.2701279270933332
 40
-0.2701279270933332
 40
-0.085254916808621
 40
-0.085254916808621
 40
-0.085254916808621
 40
0.0
 40
0.0
 40
0.0
 40
0.0
 10
5.809658739710625
 20
-91.15577012578809
 30
0.0
 10
5.244328772485471
 20
-91.70114991795031
 30
0.0
 10
4.845873682012862
 20
-92.35012705437087
 30
0.0
 10
4.601591612396087
 20
-93.0647079634871
 30
0.0
 10
4.063167930497395
 20
-94.63972034447948
 30
0.0
 10
4.191286105195772
 20
-96.52103239256366
 30
0.0
 10
4.349321470321334
 20
-98.40310589196413
 30
0.0
 10
4.484305358536713
 20
-100.0106549279304
 30
0.0
 10
4.644539008840191
 20
-101.5831450250344
 30
0.0
 10
4.444336464142271
 20
-102.9722136300833
 30
0.0
 10
4.30731972728271
 20
-103.9228791065138
 30
0.0
 10
3.993338062498463
 20
-104.7759878060992
 30
0.0
 10
3.402573410574913
 20
-105.4557166205364
 30
0.0
 10
3.130139964634639
 20
-105.769176240402
 30
0.0
 10
2.789688714168239
 20
-106.0429453410148
 30
0.0
 10
2.371117761642822
 20
-106.2887761273171
 30
0.0
  0
ELLIPSE
  5
2720
330
26BF
100
AcDbEntity
  8
0
100
AcDbEllipse
 10
3.003468594514302
 20
-92.77920212060013
 30
0.0
 11
1.824549155461987
 21
-2.381390429833579
 31
0.0
210
0.0
220
0.0
230
1.0
 40
0.6520831633610858
 41
5.417518386459809
 42
5.880099791880417
  0
SPLINE
  5
2721
330
26BF
100
AcDbEntity
  8
0
100
AcDbSpline
210
0.0
220
0.0
230
1.0
 70
     8
 71
     2
 72
     6
 73
     3
 74
     0
 42
0.000000001
 43
0.0000000001
 40
0.0
 40
0.0
 40
0.0
 40
1.0
 40
1.0
 40
1.0
 10
3.00346859451432
 20
-95.22869186338333
 30
0.0
 10
-3.288727735649872
 20
-100.0495819435557
 30
0.0
 10
2.371117761686285
 20
-106.2887761272026
 30
0.0
  0
LINE
  5
2722
330
26BF
100
AcDbEntity
  8
0
100
AcDbLine
 10
7.659681547514476
 20
-91.91423477519634
 30
0.0
 11
8.23694725506531
 21
-92.15089976691755
 31
0.0
  0
LINE
  5
2723
330
26BF
100
AcDbEntity
  8
0
100
AcDbLine
 10
7.479215285557647
 20
-91.84024796837011
 30
0.0
 11
7.659681547514476
 21
-91.91423477519634
 31
0.0
  0
LINE
  5
2724
330
26BF
100
AcDbEntity
  8
0
100
AcDbLine
 10
5.80965873971063
 20
-91.15577012578809
 30
0.0
 11
7.479215285557647
 21
-91.84024796837011
 31
0.0
  0
SPLINE
  5
2725
330
26BF
100
AcDbEntity
  8
0
100
AcDbSpline
210
0.0
220
0.0
230
1.0
 70
     8
 71
     3
 72
     8
 73
     4
 74
     0
 42
0.000000001
 43
0.0000000001
 40
0.0
 40
0.0
 40
0.0
 40
0.0
 40
0.2216425592107946
 40
0.2216425592107946
 40
0.2216425592107946
 40
0.2216425592107946
 10
6.847742012038886
 20
-97.37624509497937
 30
0.0
 10
6.490375808492796
 20
-97.71184379679224
 30
0.0
 10
6.147087806909863
 20
-98.04286295044171
 30
0.0
 10
5.906946776593051
 20
-98.30208935667162
 30
0.0
  0
SPLINE
  5
2726
330
26BF
100
AcDbEntity
  8
0
100
AcDbSpline
210
0.0
220
0.0
230
1.0
 70
     8
 71
     3
 72
    16
 73
    12
 74
     0
 42
0.000000001
 43
0.0000000001
 40
0.3455872360581048
 40
0.3455872360581048
 40
0.3455872360581048
 40
0.3455872360581048
 40
0.4291228024726396
 40
0.4291228024726396
 40
0.5038382924111744
 40
0.5038382924111744
 40
0.5839347609214679
 40
0.5839347609214679
 40
0.6898113602571385
 40
0.6898113602571385
 40
0.7145407838804783
 40
0.7145407838804783
 40
0.7145407838804783
 40
0.7145407838804783
 10
3.758048154979749
 20
-96.22597986887342
 30
0.0
 10
3.758048139884304
 20
-96.22597989070463
 30
0.0
 10
3.786016147627084
 20
-96.18549452646464
 30
0.0
 10
3.867462778849248
 20
-96.02218917780897
 30
0.0
 10
3.917689044156631
 20
-95.90749955262401
 30
0.0
 10
4.021595501512709
 20
-95.61570138449239
 30
0.0
 10
4.076039364248384
 20
-95.43284338112187
 30
0.0
 10
4.190467064257381
 20
-94.9709659561201
 30
0.0
 10
4.247807288735763
 20
-94.67687124011673
 30
0.0
 10
4.31176905908551
 20
-94.30162397723952
 30
0.0
 10
4.323631883668581
 20
-94.22988781657918
 30
0.0
 10
4.335325405505714
 20
-94.15763957700773
 30
0.0
  0
LINE
  5
2727
330
26BF
100
AcDbEntity
  8
0
100
AcDbLine
 10
2.371117761686285
 20
-106.2887761272026
 30
0.0
 11
2.371117761686285
 21
-108.7382658699858
 31
0.0
  0
LINE
  5
2728
330
26BF
100
AcDbEntity
  8
0
100
AcDbLine
 10
-2.225076316026317
 20
-111.3918797580009
 30
0.0
 11
2.371117761686298
 21
-108.7382658699858
 31
0.0
  0
LINE
  5
2729
330
26BF
100
AcDbEntity
  8
0
100
AcDbLine
 10
-43.59082301543928
 20
-79.75263724705152
 30
0.0
 11
-48.18701709315188
 21
-82.40625113506665
 31
0.0
  0
LINE
  5
272A
330
26BF
100
AcDbEntity
  8
0
100
AcDbLine
 10
-2.225076316026317
 20
-108.9423900152178
 30
0.0
 11
2.371117761686298
 21
-106.2887761272026
 31
0.0
  0
LINE
  5
272B
330
26BF
100
AcDbEntity
  8
0
100
AcDbLine
 10
-2.225076316026317
 20
-111.3918797580009
 30
0.0
 11
-2.225076316026317
 21
-108.9423900152178
 31
0.0
  0
SPLINE
  5
272C
330
26BF
100
AcDbEntity
  8
0
100
AcDbSpline
210
0.0
220
0.0
230
1.0
 70
     8
 71
     3
 72
    17
 73
    13
 74
     0
 42
0.000000001
 43
0.0000000001
 40
-0.4749267643667878
 40
-0.4749267643667878
 40
-0.4749267643667878
 40
-0.4749267643667878
 40
-0.4725410755554584
 40
-0.4725410755554584
 40
-0.4725410755554584
 40
-0.2262668722300742
 40
-0.2262668722300742
 40
-0.2262668722300742
 40
-0.0545088760467883
 40
-0.0545088760467883
 40
-0.0545088760467883
 40
0.0
 40
0.0
 40
0.0
 40
0.0
 10
-35.66985083446546
 20
-76.46009473357089
 30
0.0
 10
-35.65768613088607
 20
-76.45037490586002
 30
0.0
 10
-35.64552056855121
 20
-76.44065409363759
 30
0.0
 10
-35.63335414415867
 20
-76.43093234426675
 30
0.0
 10
-34.3774164626122
 20
-75.42735800135123
 30
0.0
 10
-33.11515511844689
 20
-74.41862501831988
 30
0.0
 10
-31.8531656221907
 20
-73.46488812673489
 30
0.0
 10
-30.97302152201902
 20
-72.79972736213673
 30
0.0
 10
-30.07861614486952
 20
-72.15061836628847
 30
0.0
 10
-29.20191849771619
 20
-71.55658345310666
 30
0.0
 10
-28.92369096571706
 20
-71.36806136872265
 30
0.0
 10
-28.64887907154195
 20
-71.18724651590283
 30
0.0
 10
-28.37790417524517
 20
-71.01130543732899
 30
0.0
  0
SPLINE
  5
272D
330
26BF
100
AcDbEntity
  8
0
100
AcDbSpline
210
0.0
220
0.0
230
1.0
 70
     8
 71
     3
 72
    20
 73
    16
 74
     0
 42
0.000000001
 43
0.0000000001
 40
-1.0
 40
-1.0
 40
-1.0
 40
-1.0
 40
-0.8565140843592502
 40
-0.8565140843592502
 40
-0.8565140843592502
 40
-0.5402558541866665
 40
-0.5402558541866665
 40
-0.5402558541866665
 40
-0.2701279270933332
 40
-0.2701279270933332
 40
-0.2701279270933332
 40
-0.085254916808621
 40
-0.085254916808621
 40
-0.085254916808621
 40
0.0
 40
0.0
 40
0.0
 40
0.0
 10
-26.54881108378246
 20
-72.47359886262994
 30
0.0
 10
-27.26227373489003
 20
-72.93345420987688
 30
0.0
 10
-28.03613236098668
 20
-73.36569201395017
 30
0.0
 10
-28.83749433546306
 20
-73.75864269003557
 30
0.0
 10
-30.60378142115892
 20
-74.62474780431756
 30
0.0
 10
-32.50344733798669
 20
-75.33531816130068
 30
0.0
 10
-34.42109918340927
 20
-76.01899309093773
 30
0.0
 10
-36.05903700911588
 20
-76.60294529811903
 30
0.0
 10
-37.67442713221797
 20
-77.15027853166778
 30
0.0
 10
-39.23901977040488
 20
-77.75161614896115
 30
0.0
 10
-40.30981224270995
 20
-78.16316595316947
 30
0.0
 10
-41.34584474330555
 20
-78.59939840833056
 30
0.0
 10
-42.30144947448685
 20
-79.06848670479712
 30
0.0
 10
-42.74213035988662
 20
-79.28480862020037
 30
0.0
 10
-43.16496704900425
 20
-79.51101246563059
 30
0.0
 10
-43.59082301548489
 20
-79.75263724716476
 30
0.0
  0
SPLINE
  5
272E
330
26BF
100
AcDbEntity
  8
0
100
AcDbSpline
210
0.0
220
0.0
230
1.0
 70
     8
 71
     2
 72
     6
 73
     3
 74
     0
 42
0.000000001
 43
0.0000000001
 40
0.0
 40
0.0
 40
0.0
 40
1.0
 40
1.0
 40
1.0
 10
-24.43419513451122
 20
-79.38754932349599
 30
0.0
 10
-32.78422169107455
 20
-83.02035056851025
 30
0.0
 10
-43.59082301543928
 20
-79.75263724705152
 30
0.0
  0
ELLIPSE
  5
272F
330
26BF
100
AcDbEntity
  8
0
100
AcDbEllipse
 10
-24.43419513451121
 20
-76.93805958071282
 30
0.0
 11
1.196830787170335
 21
-2.750926401574792
 31
0.0
210
0.0
220
0.0
230
1.0
 40
0.4913799087545872
 41
4.125987410474326
 42
5.558498891075152
  0
LINE
  5
2730
330
26BF
100
AcDbEntity
  8
0
100
AcDbLine
 10
-26.54881108378245
 20
-72.47359886262995
 30
0.0
 11
-26.22240520419368
 21
-75.90563601561405
 31
0.0
  0
LINE
  5
2731
330
26BF
100
AcDbEntity
  8
0
100
AcDbLine
 10
-28.37790417529597
 20
-71.01130543726028
 30
0.0
 11
-27.94290326338559
 21
-71.35907285077667
 31
0.0
  0
LINE
  5
2732
330
26BF
100
AcDbEntity
  8
0
100
AcDbLine
 10
-27.8069121807811
 20
-71.46779277701996
 30
0.0
 11
-26.54881108378245
 21
-72.47359886262997
 31
0.0
  0
LINE
  5
2733
330
26BF
100
AcDbEntity
  8
0
100
AcDbLine
 10
-27.94290326338559
 20
-71.35907285077667
 30
0.0
 11
-27.8069121807811
 21
-71.46779277701996
 31
0.0
  0
LINE
  5
2734
330
26BF
100
AcDbEntity
  8
0
100
AcDbLine
 10
44.17054323123824
 20
-32.43631601707982
 30
0.0
 11
39.44941432342958
 21
-68.4999385109578
 31
0.0
  0
ELLIPSE
  5
2735
330
26BF
100
AcDbEntity
  8
0
100
AcDbEllipse
 10
34.7033444975464
 20
-65.7597938193914
 30
0.0
 11
5.949238372592027
 21
-0.778821408333476
 31
0.0
210
0.0
220
0.0
230
1.0
 40
0.6520831633610856
 41
5.716340747298441
 42
6.283185307179587
  0
ELLIPSE
  5
2736
330
26BF
100
AcDbEntity
  8
0
100
AcDbEllipse
 10
31.87491737280021
 20
-70.65877330495775
 30
0.0
 11
3.649098310923978
 21
-4.762780859667151
 31
0.0
210
0.0
220
0.0
230
1.0
 40
0.6520831633610853
 41
0.0
 42
0.5668445598811438
  0
ELLIPSE
  5
2737
330
26BF
100
AcDbEntity
  8
0
100
AcDbEllipse
 10
37.01849670769011
 20
-70.36243389484372
 30
0.0
 11
-1.999999999999999
 21
-3.464101615137755
 31
0.0
210
0.0
220
0.0
230
1.0
 40
0.4150676916945048
 41
0.7853981633974474
 42
2.356194490192345
  0
LINE
  5
2738
330
26BF
100
AcDbEntity
  8
0
100
AcDbLine
 10
36.62098719868339
 20
-73.39891799652417
 30
0.0
 11
7.749538420397477
 21
-95.51934681216655
 31
0.0
  0
LINE
  5
2739
330
26BF
100
AcDbEntity
  8
0
100
AcDbLine
 10
45.35698021672518
 20
-30.60280129815915
 30
0.0
 11
40.65258287013843
 21
-66.53861522772486
 31
0.0
  0
SPLINE
  5
273A
330
26BF
100
AcDbEntity
  8
0
100
AcDbSpline
210
0.0
220
0.0
230
1.0
 70
     8
 71
     3
 72
    16
 73
    12
 74
     0
 42
0.000000001
 43
0.0000000001
 40
-0.7853981633974484
 40
-0.7853981633974484
 40
-0.7853981633974484
 40
-0.7853981633974484
 40
-0.4712388980384692
 40
-0.4712388980384692
 40
-0.1570796326794899
 40
-0.1570796326794899
 40
0.1570796326794894
 40
0.1570796326794894
 40
0.4712388980384687
 40
0.4712388980384687
 40
0.785398163397448
 40
0.785398163397448
 40
0.785398163397448
 40
0.785398163397448
 10
40.65258287013843
 20
-66.53861522772487
 30
0.0
 10
40.55320156426421
 20
-67.29776626299289
 30
0.0
 10
40.38169610436887
 20
-67.9875790081458
 30
0.0
 10
39.95024200283703
 20
-69.31085043820226
 30
0.0
 10
39.68817782497957
 20
-69.94232566694613
 30
0.0
 10
39.08619553656559
 20
-71.16362825229464
 30
0.0
 10
38.74620078904909
 20
-71.75251642929976
 30
0.0
 10
37.98951286863667
 20
-72.88449967636882
 30
0.0
 10
37.57367136761261
 20
-73.42719152618719
 30
0.0
 10
36.64341174384746
 20
-74.46247745370898
 30
0.0
 10
36.13176911263844
 20
-74.95591191144254
 30
0.0
 10
35.52401568372419
 20
-75.42155416462491
 30
0.0
  0
LINE
  5
273B
330
26BF
100
AcDbEntity
  8
0
100
AcDbLine
 10
35.52401568372419
 20
-75.42155416462491
 30
0.0
 11
6.754886588342685
 21
-97.46358874104823
 31
0.0
  0
LINE
  5
273C
330
26BF
100
AcDbEntity
  8
0
100
AcDbLine
 10
47.97950514821859
 20
90.69102402161123
 30
0.0
 11
11.91705930770468
 21
111.5116868352682
 31
0.0
  0
LINE
  5
273D
330
26BF
100
AcDbEntity
  8
0
100
AcDbLine
 10
45.85818480465896
 20
89.46627915021963
 30
0.0
 11
9.795738964145046
 21
110.2869419638766
 31
0.0
  0
LINE
  5
273E
330
26BF
100
AcDbEntity
  8
0
100
AcDbLine
 10
47.97950514821859
 20
90.69102402161123
 30
0.0
 11
45.85818480465896
 21
89.46627915021963
 31
0.0
  0
LINE
  5
273F
330
26BF
100
AcDbEntity
  8
0
100
AcDbLine
 10
9.795738964145046
 20
110.2869419638766
 30
0.0
 11
11.91705930770468
 21
111.5116868352682
 31
0.0
  0
LINE
  5
2740
330
26BF
100
AcDbEntity
  8
0
100
AcDbLine
 10
52.92925261652443
 20
82.1178099218701
 30
0.0
 11
47.97950514821859
 21
90.69102402161123
 31
0.0
  0
LINE
  5
2741
330
26BF
100
AcDbEntity
  8
0
100
AcDbLine
 10
-12.12457125263798
 20
-111.3918797580009
 30
0.0
 11
-2.225076316026317
 21
-111.3918797580009
 31
0.0
  0
LINE
  5
2742
330
26BF
100
AcDbEntity
  8
0
100
AcDbLine
 10
45.85818480465896
 20
89.46627915021963
 30
0.0
 11
50.80793227296478
 21
80.89306505047852
 31
0.0
  0
LINE
  5
2743
330
26BF
100
AcDbEntity
  8
0
100
AcDbLine
 10
4.84599149583921
 20
107.4292039306296
 30
0.0
 11
9.795738964145046
 21
110.2869419638766
 31
0.0
  0
LINE
  5
2744
330
26BF
100
AcDbEntity
  8
0
100
AcDbLine
 10
-48.18701709315191
 20
-88.12172720156073
 30
0.0
 11
-48.18701709315188
 21
-82.40625113506665
 31
0.0
  0
LINE
  5
2745
330
26BF
100
AcDbEntity
  8
0
100
AcDbLine
 10
-2.225076316026317
 20
-108.9423900152178
 30
0.0
 11
-12.12457125263798
 21
-108.9423900152177
 31
0.0
  0
LINE
  5
2746
330
26BF
100
AcDbEntity
  8
0
100
AcDbLine
 10
-12.12457125263798
 20
-108.9423900152177
 30
0.0
 11
-12.12457125263798
 21
-111.3918797580009
 31
0.0
  0
LINE
  5
2747
330
26BF
100
AcDbEntity
  8
0
100
AcDbLine
 10
-48.18701709315191
 20
-90.57121694434393
 30
0.0
 11
-48.18701709315191
 21
-88.12172720156073
 31
0.0
  0
LINE
  5
2748
330
26BF
100
AcDbEntity
  8
0
100
AcDbLine
 10
50.80793227296478
 20
80.89306505047852
 30
0.0
 11
52.92925261652443
 21
82.1178099218701
 31
0.0
  0
LINE
  5
2749
330
26BF
100
AcDbEntity
  8
0
100
AcDbLine
 10
-28.37790417529597
 20
-71.01130543726028
 30
0.0
 11
-4.990936368829519
 21
-56.04291169745462
 31
0.0
  0
ELLIPSE
  5
274A
330
26BF
100
AcDbEntity
  8
0
100
AcDbEllipse
 10
-8.55961810915228
 20
-44.04789703618406
 30
0.0
 11
7.499999999999972
 21
12.99038105676659
 31
0.0
210
0.0
220
0.0
230
1.0
 40
0.7396328466847472
 41
4.101523742186671
 42
5.323254218582702
  0
LINE
  5
274B
330
26BF
100
AcDbEntity
  8
0
100
AcDbLine
 10
3.612710176436193
 20
-41.14095875068999
 30
0.0
 11
4.882235505722678
 21
-13.40305364289841
 31
0.0
  0
LINE
  5
274C
330
26BF
100
AcDbEntity
  8
0
100
AcDbLine
 10
24.60832068088357
 20
-73.13205072291942
 30
0.0
 11
26.77113494382194
 21
-74.38075211983404
 31
0.0
  0
LINE
  5
274D
330
26BF
100
AcDbEntity
  8
0
100
AcDbLine
 10
3.612710176436193
 20
-41.14095875068999
 30
0.0
 11
5.775524439374555
 21
-42.38966014760463
 31
0.0
  0
LINE
  5
274E
330
26BF
100
AcDbEntity
  8
0
100
AcDbLine
 10
-4.990936368829519
 20
-56.04291169745462
 30
0.0
 11
-2.828122105891157
 21
-57.29161309436924
 31
0.0
  0
LINE
  5
274F
330
26BF
100
AcDbEntity
  8
0
100
AcDbLine
 10
33.21196722614927
 20
-58.23009777615478
 30
0.0
 11
35.37478148908763
 21
-59.47879917306941
 31
0.0
  0
LINE
  5
2750
330
26BF
100
AcDbEntity
  8
0
100
AcDbLine
 10
18.53112679594287
 20
-51.52378009041099
 30
0.0
 11
14.10813001988926
 21
-12.63028391423452
 31
0.0
  0
LINE
  5
2751
330
26BF
100
AcDbEntity
  8
0
100
AcDbLine
 10
41.5457937489147
 20
-28.47142645412182
 30
0.0
 11
41.32954528228944
 21
-30.12329896545161
 31
0.0
  0
LINE
  5
2752
330
26BF
100
AcDbEntity
  8
0
100
AcDbLine
 10
40.81959445276877
 20
-34.0186965632286
 30
0.0
 11
40.81957270004444
 21
-34.01886272730791
 31
0.0
  0
LINE
  5
2753
330
26BF
100
AcDbEntity
  8
0
100
AcDbLine
 10
7.444578808533606
 20
-91.82604784970564
 30
0.0
 11
7.444445782581872
 21
-91.82614977015717
 31
0.0
  0
LINE
  5
2754
330
26BF
100
AcDbEntity
  8
0
100
AcDbLine
 10
4.325907855143773
 20
-94.21547899164941
 30
0.0
 11
3.003468594514306
 21
-95.22869186338331
 31
0.0
  0
LINE
  5
2755
330
26BF
100
AcDbEntity
  8
0
100
AcDbLine
 10
10.19859960664715
 20
-12.82260522052735
 30
0.0
 11
14.62159638270077
 21
-51.71610139670381
 31
0.0
  0
ELLIPSE
  5
2756
330
26BF
100
AcDbEntity
  8
0
100
AcDbEllipse
 10
16.40980645238323
 20
-52.74852496180258
 30
0.0
 11
-2.980787541290217
 21
-0.3389773350668605
 31
0.0
210
0.0
220
0.0
230
1.0
 40
0.4913799087545881
 41
3.866279069693526
 42
5.298790550294557
  0
LINE
  5
2757
330
26BF
100
AcDbEntity
  8
0
100
AcDbLine
 10
9.671848914394924
 20
-60.28931549644493
 30
0.0
 11
-26.22240520419368
 21
-75.90563601561405
 31
0.0
  0
ELLIPSE
  5
2758
330
26BF
100
AcDbEntity
  8
0
100
AcDbEllipse
 10
8.976207273633182
 20
-54.17221054139753
 30
0.0
 11
-3.500000000000007
 21
-6.062177826491068
 31
0.0
210
0.0
220
0.0
230
1.0
 40
0.739632846684747
 41
0.7853981633974483
 42
2.356194490192342
  0
LINE
  5
2759
330
26BF
100
AcDbEntity
  8
0
100
AcDbLine
 10
-24.43419513451121
 20
-79.38754932349599
 30
0.0
 11
11.4600589840774
 21
-63.77122880432688
 31
0.0
  0
ELLIPSE
  5
275A
330
26BF
100
AcDbEntity
  8
0
100
AcDbEllipse
 10
10.76441734331564
 20
-55.20463410649631
 30
0.0
 11
5.000000000000007
 21
8.660254037844383
 31
0.0
210
0.0
220
0.0
230
1.0
 40
0.690948073436211
 41
3.926990816987242
 42
5.497787143782138
  0
ELLIPSE
  5
275B
330
26BF
100
AcDbEntity
  8
0
100
AcDbEllipse
 10
11.46005898407739
 20
-61.3217390615437
 30
0.0
 11
-1.196830787170059
 21
2.750926401574913
 31
0.0
210
0.0
220
0.0
230
1.0
 40
0.4913799087545865
 41
0.9843947568850204
 42
2.416906237486054
  0
LINE
  5
275C
330
26BF
100
AcDbEntity
  8
0
100
AcDbLine
 10
32.78409999737156
 20
-59.75273800500836
 30
0.0
 11
18.53112679594287
 21
-51.52378009041099
 31
0.0
  0
LINE
  5
275D
330
26BF
100
AcDbEntity
  8
0
100
AcDbLine
 10
11.46005898407739
 20
-63.77122880432688
 30
0.0
 11
25.71303218550607
 21
-72.00018671892426
 31
0.0
  0
LINE
  5
275E
330
26BF
100
AcDbEntity
  8
0
100
AcDbLine
 10
26.77113494382194
 20
-74.38075211983404
 30
0.0
 11
8.236947255065313
 21
-92.15089976691755
 31
0.0
  0
LINE
  5
275F
330
26BF
100
AcDbEntity
  8
0
100
AcDbLine
 10
41.49708693608389
 20
-34.54264797255562
 30
0.0
 11
35.37478148908763
 21
-59.47879917306941
 31
0.0
  0
ELLIPSE
  5
2760
330
26BF
100
AcDbEntity
  8
0
100
AcDbEllipse
 10
26.65618256507553
 20
-64.37974903517771
 30
0.0
 11
-7.499999999999989
 21
-12.99038105676658
 31
0.0
210
0.0
220
0.0
230
1.0
 40
0.4150676916945047
 41
0.9599310885968783
 42
2.181661564992909
  0
ENDBLK
  5
26C1
330
26BF
100
AcDbEntity
  8
0
100
AcDbBlockEnd
  0
ENDSEC
  0
SECTION
  2
ENTITIES
  0
INSERT
  5
2761
330
1F
100
AcDbEntity
  8
0
100
AcDbBlockReference
  2
AKR205X3L-Front
 10
0.0
 20
0.0
 30
0.0
  0
INSERT
  5
2762
330
1F
100
AcDbEntity
  8
0
100
AcDbBlockReference
  2
AKR205X3L-Left
 10
94.0000093914716
 20
0.0
 30
0.0
  0
INSERT
  5
2763
330
1F
100
AcDbEntity
  8
0
100
AcDbBlockReference
  2
AKR205X3L-Right
 10
-94.00000939147162
 20
0.0
 30
0.0
  0
INSERT
  5
2764
330
1F
100
AcDbEntity
  8
0
100
AcDbBlockReference
  2
AKR205X3L-Top
 10
0.0
 20
-61.50000156524502
 30
0.0
  0
INSERT
  5
2765
330
1F
100
AcDbEntity
  8
0
100
AcDbBlockReference
  2
AKR205X3L-Bottom
 10
0.0
 20
266.5000093914701
 30
0.0
  0
INSERT
  5
2766
330
1F
100
AcDbEntity
  8
0
100
AcDbBlockReference
  2
AKR205X3L-ISO
 10
142.1870186583984
 20
-173.0116884005132
 30
0.0
  0
MTEXT
  5
2767
330
1F
100
AcDbEntity
  8
0
100
AcDbMText
 10
0.0
 20
-208.00000313049
 30
0.0
 40
14.46153870234562
 41
0.0
 71
     5
 72
     5
  1
AKR205X3L
 73
     1
 44
1.0
1001
ACAD
1000
MTEXTBEGIN
1070
    73
1070
     1
1070
    44
1040
1.0
1070
    74
1070
     0
1000
MTEXTEND
  0
ENDSEC
  0
SECTION
  2
OBJECTS
  0
DICTIONARY
  5
C
330
0
100
AcDbDictionary
281
     1
  3
ACAD_CIP_PREVIOUS_PRODUCT_INFO
350
216
  3
ACAD_COLOR
350
6B
  3
ACAD_DETAILVIEWSTYLE
350
21B
  3
ACAD_GROUP
350
D
  3
ACAD_LAYOUT
350
1A
  3
ACAD_MATERIAL
350
6A
  3
ACAD_MLEADERSTYLE
350
12D
  3
ACAD_MLINESTYLE
350
17
  3
ACAD_PLOTSETTINGS
350
19
  3
ACAD_PLOTSTYLENAME
350
E
  3
ACAD_SCALELIST
350
10C
  3
ACAD_SECTIONVIEWSTYLE
350
219
  3
ACAD_TABLESTYLE
350
7E
  3
ACAD_VISUALSTYLE
350
EF
  3
ACDB_RECOMPOSE_DATA
350
2868
  3
AcDbVariableDictionary
350
5E
  3
DWGPROPS
350
2869
  0
DICTIONARY
  5
27B8
330
8
100
AcDbDictionary
280
     1
281
     1
  0
DICTIONARY
  5
1FF
330
2
100
AcDbDictionary
280
     1
281
     1
  3
ACAD_LAYERSTATES
360
200
  0
DICTIONARY
  5
13C
330
10
100
AcDbDictionary
280
     1
281
     1
  0
DICTIONARY
  5
1CE
330
1F
100
AcDbDictionary
280
     1
281
     1
  3
ACAD_LAYOUTSELFREF
360
27C0
  0
DICTIONARY
  5
276B
330
D2
100
AcDbDictionary
280
     1
281
     1
  3
ACAD_LAYOUTSELFREF
360
27C9
  0
DICTIONARY
  5
276D
330
D6
100
AcDbDictionary
280
     1
281
     1
  3
ACAD_LAYOUTSELFREF
360
27CC
  0
XRECORD
  5
216
102
{ACAD_REACTORS
330
C
102
}
330
C
100
AcDbXrecord
280
     1
300
ACD
300
2021
300
87393ACD_2021_0F
  0
DICTIONARY
  5
6B
102
{ACAD_REACTORS
330
C
102
}
330
C
100
AcDbDictionary
281
     1
  0
DICTIONARY
  5
21B
102
{ACAD_REACTORS
330
C
102
}
330
C
100
AcDbDictionary
281
     1
  3
Metric50
350
21C
  0
DICTIONARY
  5
D
102
{ACAD_REACTORS
330
C
102
}
330
C
100
AcDbDictionary
281
     1
  0
DICTIONARY
  5
1A
102
{ACAD_REACTORS
330
C
102
}
330
C
100
AcDbDictionary
281
     1
  3
Layout1
350
D3
  3
Layout2
350
D7
  3
Model
350
22
  0
DICTIONARY
  5
6A
102
{ACAD_REACTORS
330
C
102
}
330
C
100
AcDbDictionary
281
     1
  3
ByBlock
350
ED
  3
ByLayer
350
EC
  3
Global
350
EE
  0
DICTIONARY
  5
12D
102
{ACAD_REACTORS
330
C
102
}
330
C
100
AcDbDictionary
281
     1
  3
Standard
350
12E
  0
DICTIONARY
  5
17
102
{ACAD_REACTORS
330
C
102
}
330
C
100
AcDbDictionary
281
     1
  3
Standard
350
18
  0
DICTIONARY
  5
19
102
{ACAD_REACTORS
330
C
102
}
330
C
100
AcDbDictionary
281
     1
  0
ACDBDICTIONARYWDFLT
  5
E
102
{ACAD_REACTORS
330
C
102
}
330
C
100
AcDbDictionary
281
     1
  3
Normal
350
F
100
AcDbDictionaryWithDefault
340
F
  0
DICTIONARY
  5
10C
102
{ACAD_REACTORS
330
C
102
}
330
C
100
AcDbDictionary
281
     1
  3
A0
350
10D
  3
A1
350
1BE
  3
A2
350
1BF
  3
A3
350
1C0
  3
A4
350
1C1
  3
A5
350
1C2
  3
A6
350
1C3
  3
A7
350
1C4
  3
A8
350
1C5
  3
A9
350
1C6
  3
B0
350
1C7
  3
B1
350
1C8
  3
B2
350
1C9
  3
B3
350
1CA
  3
B4
350
1CB
  3
B5
350
1CC
  3
B6
350
1CD
  0
DICTIONARY
  5
219
102
{ACAD_REACTORS
330
C
102
}
330
C
100
AcDbDictionary
281
     1
  3
Metric50
350
21A
  0
DICTIONARY
  5
7E
102
{ACAD_REACTORS
330
C
102
}
330
C
100
AcDbDictionary
281
     1
  3
Standard
350
7F
  0
DICTIONARY
  5
EF
102
{ACAD_REACTORS
330
C
102
}
330
C
100
AcDbDictionary
281
     1
  3
2dWireframe
350
F5
  3
Basic
350
F4
  3
Brighten
350
FB
  3
ColorChange
350
FF
  3
Conceptual
350
F8
  3
Dim
350
FA
  3
EdgeColorOff
350
1E6
  3
Facepattern
350
FE
  3
Flat
350
F0
  3
FlatWithEdges
350
F1
  3
Gouraud
350
F2
  3
GouraudWithEdges
350
F3
  3
Hidden
350
F7
  3
JitterOff
350
1E4
  3
Linepattern
350
FD
  3
OverhangOff
350
1E5
  3
Realistic
350
F9
  3
Shaded
350
1F3
  3
Shaded with edges
350
1F2
  3
Shades of Gray
350
1EF
  3
Sketchy
350
1F0
  3
Thicken
350
FC
  3
Wireframe
350
F6
  3
X-Ray
350
1F1
  0
XRECORD
  5
2868
102
{ACAD_REACTORS
330
C
102
}
330
C
100
AcDbXrecord
280
     1
 90
        1
330
7F
  0
DICTIONARY
  5
5E
102
{ACAD_REACTORS
330
C
102
}
330
C
100
AcDbDictionary
281
     1
  3
CANNOSCALE
350
146
  3
CENTEREXE
350
259
  3
CENTERLTYPEFILE
350
25A
  3
CMLEADERSTYLE
350
145
  3
CTABLESTYLE
350
84
  3
CVIEWDETAILSTYLE
350
227
  3
CVIEWSECTIONSTYLE
350
228
  3
DIMASSOC
350
5F
  3
HIDETEXT
350
63
  3
INDEXCTL
350
2815
  3
LAYEREVAL
350
1AE
  3
LAYERNOTIFY
350
1AF
  3
LIGHTINGUNITS
350
2813
  3
MSLTSCALE
350
2812
  3
PSOLHEIGHT
350
2865
  3
PSOLWIDTH
350
2864
  3
SORTENTS
350
2814
  3
XCLIPFRAME
350
2866
  0
XRECORD
  5
2869
102
{ACAD_REACTORS
330
C
102
}
330
C
100
AcDbXrecord
280
     1
  1
DWGPROPS COOKIE
  2

  3

  4

  6

  7

  8
tronnguyen
  9

300
=
301
=
302
=
303
=
304
=
305
=
306
=
307
=
308
=
309
=
 40
0.6788194444444445
 41
2460572.688854167
 42
2460573.369432871
  1

 90
        0
  0
DICTIONARY
  5
200
102
{ACAD_REACTORS
330
1FF
102
}
330
1FF
100
AcDbDictionary
281
     1
  0
XRECORD
  5
27C0
102
{ACAD_REACTORS
330
1CE
102
}
330
1CE
100
AcDbXrecord
280
     1
340
1F
  0
XRECORD
  5
27C9
102
{ACAD_REACTORS
330
276B
102
}
330
276B
100
AcDbXrecord
280
     1
340
D2
  0
XRECORD
  5
27CC
102
{ACAD_REACTORS
330
276D
102
}
330
276D
100
AcDbXrecord
280
     1
340
D6
  0
ACDBDETAILVIEWSTYLE
  5
21C
102
{ACAD_XDICTIONARY
360
28A8
102
}
102
{ACAD_REACTORS
330
21B
102
}
330
21B
100
AcDbModelDocViewStyle
 70
     0
  3
Metric50
290
     0
100
AcDbDetailViewStyle
 70
     0
 71
     0
 90
        3
 71
     1
340
11
 40
5.0
340
0
 40
5.0
300

 40
0.0
280
     1
 71
     2
340
16
 90
       25
 71
     3
340
11
 40
5.0
 90
        0
 40
15.0
 90
        1
300
%<\AcVar ViewDetailId>% (%<\AcVar ViewScale \f "%sn">%)
 71
     4
340
16
 90
       25
340
16
 90
       25
280
     0
  0
LAYOUT
  5
D3
102
{ACAD_XDICTIONARY
360
286D
102
}
102
{ACAD_REACTORS
330
1A
102
}
330
1A
100
AcDbPlotSettings
  1

  2
C:\Documents and Settings\basas\Application Data\Autodesk\AutoCAD 2005\R16.1\enu\plotters\Default Windows System Printer.pc3
  4

  6

 40
0.0
 41
0.0
 42
0.0
 43
0.0
 44
0.0
 45
0.0
 46
0.0
 47
0.0
 48
0.0
 49
0.0
140
0.0
141
0.0
142
1.0
143
1.0
 70
   688
 72
     0
 73
     0
 74
     5
  7

 75
    16
147
1.0
148
0.0
149
0.0
100
AcDbLayout
  1
Layout1
 70
     1
 71
     1
 10
0.0
 20
0.0
 11
12.0
 21
9.0
 12
0.0
 22
0.0
 32
0.0
 14
0.0
 24
0.0
 34
0.0
 15
0.0
 25
0.0
 35
0.0
146
0.0
 13
0.0
 23
0.0
 33
0.0
 16
1.0
 26
0.0
 36
0.0
 17
0.0
 27
1.0
 37
0.0
 76
     0
330
D2
  0
LAYOUT
  5
D7
102
{ACAD_XDICTIONARY
360
286F
102
}
102
{ACAD_REACTORS
330
1A
102
}
330
1A
100
AcDbPlotSettings
  1

  2
C:\Documents and Settings\basas\Application Data\Autodesk\AutoCAD 2005\R16.1\enu\plotters\Default Windows System Printer.pc3
  4

  6

 40
0.0
 41
0.0
 42
0.0
 43
0.0
 44
0.0
 45
0.0
 46
0.0
 47
0.0
 48
0.0
 49
0.0
140
0.0
141
0.0
142
1.0
143
1.0
 70
   688
 72
     0
 73
     0
 74
     5
  7

 75
    16
147
1.0
148
0.0
149
0.0
100
AcDbLayout
  1
Layout2
 70
     1
 71
     2
 10
0.0
 20
0.0
 11
12.0
 21
9.0
 12
0.0
 22
0.0
 32
0.0
 14
0.0
 24
0.0
 34
0.0
 15
0.0
 25
0.0
 35
0.0
146
0.0
 13
0.0
 23
0.0
 33
0.0
 16
1.0
 26
0.0
 36
0.0
 17
0.0
 27
1.0
 37
0.0
 76
     0
330
D6
  0
LAYOUT
  5
22
102
{ACAD_XDICTIONARY
360
286A
102
}
102
{ACAD_REACTORS
330
1A
102
}
330
1A
100
AcDbPlotSettings
  1

  2
none_device
  4
ISO_A4_(210.00_x_297.00_MM)
  6

 40
7.5
 41
20.0
 42
7.5
 43
20.0
 44
210.0
 45
297.0
 46
11.54999923706054
 47
-13.65000009536743
 48
0.0
 49
0.0
140
0.0
141
0.0
142
1.0
143
8.704084754739808
 70
 11952
 72
     1
 73
     0
 74
     0
  7

 75
     0
147
0.1148885871608098
148
0.0
149
0.0
100
AcDbLayout
  1
Model
 70
     1
 71
     0
 10
0.0
 20
0.0
 11
12.0
 21
9.0
 12
0.0
 22
0.0
 32
0.0
 14
0.0
 24
0.0
 34
0.0
 15
0.0
 25
0.0
 35
0.0
146
0.0
 13
0.0
 23
0.0
 33
0.0
 16
1.0
 26
0.0
 36
0.0
 17
0.0
 27
1.0
 37
0.0
 76
     0
330
1F
331
EA
1001
ACAD_PSEXT
1000
None
1000
None
1000
Not applicable
1000
The layout will not be plotted unless a new plotter configuration name is selected.
1070
     0
  0
MATERIAL
  5
ED
102
{ACAD_XDICTIONARY
360
1F9
102
}
102
{ACAD_REACTORS
330
6A
102
}
330
6A
100
AcDbMaterial
  1
ByBlock
  0
MATERIAL
  5
EC
102
{ACAD_XDICTIONARY
360
1F7
102
}
102
{ACAD_REACTORS
330
6A
102
}
330
6A
100
AcDbMaterial
  1
ByLayer
  0
MATERIAL
  5
EE
102
{ACAD_XDICTIONARY
360
173
102
}
102
{ACAD_REACTORS
330
6A
102
}
330
6A
100
AcDbMaterial
  1
Global
 43
0.0007999999797903
 43
0.0
 43
0.0
 43
0.0
 43
0.0
 43
0.0007999999797903
 43
0.0
 43
0.0
 43
0.0
 43
0.0
 43
1.0
 43
0.0
 43
0.0
 43
0.0
 43
0.0
 43
1.0
 49
0.0007999999797903
 49
0.0
 49
0.0
 49
0.0
 49
0.0
 49
0.0007999999797903
 49
0.0
 49
0.0
 49
0.0
 49
0.0
 49
1.0
 49
0.0
 49
0.0
 49
0.0
 49
0.0
 49
1.0
142
0.0007999999797903
142
0.0
142
0.0
142
0.0
142
0.0
142
0.0007999999797903
142
0.0
142
0.0
142
0.0
142
0.0
142
1.0
142
0.0
142
0.0
142
0.0
142
0.0
142
1.0
144
0.0007999999797903
144
0.0
144
0.0
144
0.0
144
0.0
144
0.0007999999797903
144
0.0
144
0.0
144
0.0
144
0.0
144
1.0
144
0.0
144
0.0
144
0.0
144
0.0
144
1.0
1001
ACAD
1070
    -1
1070
     3
1070
     0
1000

1071
        0
1070
     0
  0
MLEADERSTYLE
  5
12E
102
{ACAD_XDICTIONARY
360
2894
102
}
102
{ACAD_REACTORS
330
12D
102
}
330
12D
100
AcDbMLeaderStyle
170
     2
171
     1
172
     0
 90
        2
 40
0.0
 41
0.0
173
     1
 91
-1056964608
340
14
 92
       -2
290
     1
 42
2.0
291
     1
 43
8.0
  3
Standard
 44
4.0
300

342
11
174
     1
178
     1
175
     1
176
     0
 93
-1056964608
 45
4.0
292
     0
297
     0
 46
4.0
 94
-1056964608
 47
1.0
 49
1.0
140
1.0
293
     1
141
0.0
294
     1
177
     0
142
1.0
295
     0
296
     0
143
3.75
1001
ACAD_MLEADERVER
1070
     2
  0
MLINESTYLE
  5
18
102
{ACAD_REACTORS
330
17
102
}
330
17
100
AcDbMlineStyle
  2
STANDARD
 70
     0
  3

 62
   256
 51
90.0
 52
90.0
 71
     2
 49
0.5
 62
   256
  6
BYLAYER
 49
-0.5
 62
   256
  6
BYLAYER
  0
ACDBPLACEHOLDER
  5
F
102
{ACAD_REACTORS
330
E
102
}
330
E
  0
SCALE
  5
10D
102
{ACAD_REACTORS
330
10C
102
}
330
10C
100
AcDbScale
 70
     0
300
1:1
140
1.0
141
1.0
290
     1
  0
SCALE
  5
1BE
102
{ACAD_REACTORS
330
10C
102
}
330
10C
100
AcDbScale
 70
     0
300
1:2
140
1.0
141
2.0
290
     0
  0
SCALE
  5
1BF
102
{ACAD_REACTORS
330
10C
102
}
330
10C
100
AcDbScale
 70
     0
300
1:4
140
1.0
141
4.0
290
     0
  0
SCALE
  5
1C0
102
{ACAD_REACTORS
330
10C
102
}
330
10C
100
AcDbScale
 70
     0
300
1:5
140
1.0
141
5.0
290
     0
  0
SCALE
  5
1C1
102
{ACAD_REACTORS
330
10C
102
}
330
10C
100
AcDbScale
 70
     0
300
1:8
140
1.0
141
8.0
290
     0
  0
SCALE
  5
1C2
102
{ACAD_REACTORS
330
10C
102
}
330
10C
100
AcDbScale
 70
     0
300
1:10
140
1.0
141
10.0
290
     0
  0
SCALE
  5
1C3
102
{ACAD_REACTORS
330
10C
102
}
330
10C
100
AcDbScale
 70
     0
300
1:16
140
1.0
141
16.0
290
     0
  0
SCALE
  5
1C4
102
{ACAD_REACTORS
330
10C
102
}
330
10C
100
AcDbScale
 70
     0
300
1:20
140
1.0
141
20.0
290
     0
  0
SCALE
  5
1C5
102
{ACAD_REACTORS
330
10C
102
}
330
10C
100
AcDbScale
 70
     0
300
1:30
140
1.0
141
30.0
290
     0
  0
SCALE
  5
1C6
102
{ACAD_REACTORS
330
10C
102
}
330
10C
100
AcDbScale
 70
     0
300
1:40
140
1.0
141
40.0
290
     0
  0
SCALE
  5
1C7
102
{ACAD_REACTORS
330
10C
102
}
330
10C
100
AcDbScale
 70
     0
300
1:50
140
1.0
141
50.0
290
     0
  0
SCALE
  5
1C8
102
{ACAD_REACTORS
330
10C
102
}
330
10C
100
AcDbScale
 70
     0
300
1:100
140
1.0
141
100.0
290
     0
  0
SCALE
  5
1C9
102
{ACAD_REACTORS
330
10C
102
}
330
10C
100
AcDbScale
 70
     0
300
2:1
140
2.0
141
1.0
290
     0
  0
SCALE
  5
1CA
102
{ACAD_REACTORS
330
10C
102
}
330
10C
100
AcDbScale
 70
     0
300
4:1
140
4.0
141
1.0
290
     0
  0
SCALE
  5
1CB
102
{ACAD_REACTORS
330
10C
102
}
330
10C
100
AcDbScale
 70
     0
300
8:1
140
8.0
141
1.0
290
     0
  0
SCALE
  5
1CC
102
{ACAD_REACTORS
330
10C
102
}
330
10C
100
AcDbScale
 70
     0
300
10:1
140
10.0
141
1.0
290
     0
  0
SCALE
  5
1CD
102
{ACAD_REACTORS
330
10C
102
}
330
10C
100
AcDbScale
 70
     0
300
100:1
140
100.0
141
1.0
290
     0
  0
ACDBSECTIONVIEWSTYLE
  5
21A
102
{ACAD_XDICTIONARY
360
28A6
102
}
102
{ACAD_REACTORS
330
219
102
}
330
219
100
AcDbModelDocViewStyle
 70
     0
  3
Metric50
290
     0
100
AcDbSectionViewStyle
 70
     0
 71
     0
 90
      102
 71
     1
340
11
 40
5.0
340
0
340
0
 40
5.0
300
I, O, Q, S, X, Z
 40
10.0
 90
        0
 40
2.5
 90
        0
 71
     2
340
16
 90
       25
340
16
 90
       50
 40
5.0
 40
2.5
 40
5.0
 71
     3
340
11
 40
5.0
 90
        0
 40
15.0
 90
        1
300
%<\AcVar ViewSectionStartId>%-%<\AcVar ViewSectionEndId>% (%<\AcVar ViewScale \f "%sn">%)
 71
     4
300
ANSI31
 40
1.0
 90
        0
290
     0
290
     0
 90
        6
 40
0.0
 40
1.570796326794896
 40
0.2617993877991494
 40
1.308996938995747
 40
-0.2617993877991494
 40
1.832595714594046
  0
TABLESTYLE
  5
7F
102
{ACAD_XDICTIONARY
360
162
102
}
102
{ACAD_REACTORS
330
7E
102
}
330
7E
100
AcDbTableStyle
  3
Standard
 70
     0
 71
     0
 40
1.5
 41
1.5
280
     0
281
     0
  7
Standard
140
4.5
170
     2
 62
     0
 63
     7
283
     0
274
    -2
284
     1
 64
     0
275
    -2
285
     1
 65
     0
276
    -2
286
     1
 66
     0
277
    -2
287
     1
 67
     0
278
    -2
288
     1
 68
     0
279
    -2
289
     1
 69
     0
  7
Standard
140
6.0
170
     5
 62
     0
 63
     7
283
     0
274
    -2
284
     1
 64
     0
275
    -2
285
     1
 65
     0
276
    -2
286
     1
 66
     0
277
    -2
287
     1
 67
     0
278
    -2
288
     1
 68
     0
279
    -2
289
     1
 69
     0
  7
Standard
140
4.5
170
     5
 62
     0
 63
     7
283
     0
274
    -2
284
     1
 64
     0
275
    -2
285
     1
 65
     0
276
    -2
286
     1
 66
     0
277
    -2
287
     1
 67
     0
278
    -2
288
     1
 68
     0
279
    -2
289
     1
 69
     0
  0
VISUALSTYLE
  5
F5
102
{ACAD_XDICTIONARY
360
287E
102
}
102
{ACAD_REACTORS
330
EF
102
}
330
EF
100
AcDbVisualStyle
  2
2dWireframe
 70
     4
 71
     0
 72
     2
 73
     1
 90
        0
 40
-0.6
 41
-30.0
 62
     5
 63
     7
 74
     1
 91
        4
 64
     7
 65
   257
 75
     1
175
     1
 42
1.0
 92
        0
 66
   257
 43
1.0
 76
     1
 77
     6
 78
     2
 67
     7
 79
     5
170
     0
171
     0
290
     0
174
     0
 93
        1
 44
0.0
173
     0
291
     0
 45
0.0
1001
ACAD
1000
AcDbSavedByObjectVersion
1070
     0
  0
VISUALSTYLE
  5
F4
102
{ACAD_XDICTIONARY
360
287C
102
}
102
{ACAD_REACTORS
330
EF
102
}
330
EF
100
AcDbVisualStyle
  2
Basic
 70
     7
 71
     1
 72
     0
 73
     1
 90
        0
 40
-0.6
 41
-30.0
 62
     5
 63
     7
 74
     0
 91
        4
 64
     7
 65
   257
 75
     1
175
     1
 42
1.0
 92
        8
 66
     7
 43
1.0
 76
     1
 77
     6
 78
     2
 67
     7
 79
     5
170
     0
171
     0
290
     0
174
     0
 93
        1
 44
0.0
173
     0
291
     1
 45
0.0
1001
ACAD
1000
AcDbSavedByObjectVersion
1070
     0
  0
VISUALSTYLE
  5
FB
102
{ACAD_XDICTIONARY
360
288A
102
}
102
{ACAD_REACTORS
330
EF
102
}
330
EF
100
AcDbVisualStyle
  2
Brighten
 70
    12
 71
     2
 72
     2
 73
     1
 90
        0
 40
-0.6
 41
-30.0
 62
     5
 63
     7
 74
     1
 91
        4
 64
     7
 65
   257
 75
     1
175
     1
 42
1.0
 92
        8
 66
     7
 43
1.0
 76
     1
 77
     6
 78
     2
 67
     7
 79
     5
170
     0
171
     0
290
     0
174
     0
 93
        1
 44
50.0
173
     0
291
     1
 45
0.0
1001
ACAD
1000
AcDbSavedByObjectVersion
1070
     0
  0
VISUALSTYLE
  5
FF
102
{ACAD_XDICTIONARY
360
2892
102
}
102
{ACAD_REACTORS
330
EF
102
}
330
EF
100
AcDbVisualStyle
  2
ColorChange
 70
    16
 71
     2
 72
     2
 73
     3
 90
        0
 40
-0.6
 41
-30.0
 62
     5
 63
     8
 74
     1
 91
        4
 64
     7
 65
   257
 75
     1
175
     1
 42
1.0
 92
        8
 66
     8
 43
1.0
 76
     1
 77
     6
 78
     2
 67
     7
 79
     5
170
     0
171
     0
290
     0
174
     0
 93
        1
 44
0.0
173
     0
291
     1
 45
0.0
1001
ACAD
1000
AcDbSavedByObjectVersion
1070
     0
  0
VISUALSTYLE
  5
F8
102
{ACAD_XDICTIONARY
360
2884
102
}
102
{ACAD_REACTORS
330
EF
102
}
330
EF
100
AcDbVisualStyle
  2
Conceptual
 70
     9
 71
     3
 72
     2
 73
     1
 90
        0
 40
-0.6
 41
-30.0
 62
     5
 63
     7
 74
     2
 91
        2
 64
     7
 65
   257
 75
     1
175
     1
 42
40.0
 92
        8
 66
     7
 43
1.0
 76
     1
 77
     6
 78
     2
 67
     7
 79
     3
170
     0
171
     0
290
     0
174
     0
 93
        1
 44
0.0
173
     0
291
     0
 45
0.0
1001
ACAD
1000
AcDbSavedByObjectVersion
1070
     0
  0
VISUALSTYLE
  5
FA
102
{ACAD_XDICTIONARY
360
2888
102
}
102
{ACAD_REACTORS
330
EF
102
}
330
EF
100
AcDbVisualStyle
  2
Dim
 70
    11
 71
     2
 72
     2
 73
     1
 90
        0
 40
-0.6
 41
-30.0
 62
     5
 63
     7
 74
     1
 91
        4
 64
     7
 65
   257
 75
     1
175
     1
 42
1.0
 92
        8
 66
     7
 43
1.0
 76
     1
 77
     6
 78
     2
 67
     7
 79
     5
170
     0
171
     0
290
     0
174
     0
 93
        1
 44
-50.0
173
     0
291
     1
 45
0.0
1001
ACAD
1000
AcDbSavedByObjectVersion
1070
     0
  0
VISUALSTYLE
  5
1E6
102
{ACAD_XDICTIONARY
360
289A
102
}
102
{ACAD_REACTORS
330
EF
102
}
330
EF
100
AcDbVisualStyle
  2
EdgeColorOff
 70
    22
 71
     2
 72
     2
 73
     0
 90
        0
 40
-0.6
 41
-30.0
 62
     5
 63
     7
 74
     1
 91
        4
 64
     7
 65
   257
 75
     1
175
     1
 42
1.0
 92
        8
 66
     7
 43
1.0
 76
     1
 77
     6
 78
     2
 67
     7
 79
     5
170
     0
171
     0
290
     0
174
     0
 93
        1
 44
0.0
173
     0
291
     1
 45
0.0
1001
ACAD
1000
AcDbSavedByObjectVersion
1070
     0
  0
VISUALSTYLE
  5
FE
102
{ACAD_XDICTIONARY
360
2890
102
}
102
{ACAD_REACTORS
330
EF
102
}
330
EF
100
AcDbVisualStyle
  2
Facepattern
 70
    15
 71
     2
 72
     2
 73
     1
 90
        0
 40
-0.6
 41
-30.0
 62
     5
 63
     7
 74
     1
 91
        4
 64
     7
 65
   257
 75
     1
175
     1
 42
1.0
 92
        8
 66
     7
 43
1.0
 76
     1
 77
     6
 78
     2
 67
     7
 79
     5
170
     0
171
     0
290
     0
174
     0
 93
        1
 44
0.0
173
     0
291
     1
 45
0.0
1001
ACAD
1000
AcDbSavedByObjectVersion
1070
     0
  0
VISUALSTYLE
  5
F0
102
{ACAD_XDICTIONARY
360
2874
102
}
102
{ACAD_REACTORS
330
EF
102
}
330
EF
100
AcDbVisualStyle
  2
Flat
 70
     0
 71
     2
 72
     1
 73
     1
 90
        2
 40
-0.6
 41
30.0
 62
     5
 63
     7
 74
     0
 91
        0
 64
     7
 65
   257
 75
     1
175
     1
 42
1.0
 92
        8
 66
     7
 43
1.0
 76
     1
 77
     6
 78
     2
 67
     7
 79
     5
170
     0
171
     0
290
     0
174
     0
 93
       13
 44
0.0
173
     0
291
     1
 45
0.0
1001
ACAD
1000
AcDbSavedByObjectVersion
1070
     0
  0
VISUALSTYLE
  5
F1
102
{ACAD_XDICTIONARY
360
2876
102
}
102
{ACAD_REACTORS
330
EF
102
}
330
EF
100
AcDbVisualStyle
  2
FlatWithEdges
 70
     1
 71
     2
 72
     1
 73
     1
 90
        2
 40
-0.6
 41
30.0
 62
     5
 63
     7
 74
     1
 91
        0
 64
     7
 65
   257
 75
     1
175
     1
 42
1.0
 92
        0
 66
   257
 43
1.0
 76
     1
 77
     6
 78
     2
 67
     7
 79
     5
170
     0
171
     0
290
     0
174
     0
 93
       13
 44
0.0
173
     0
291
     1
 45
0.0
1001
ACAD
1000
AcDbSavedByObjectVersion
1070
     0
  0
VISUALSTYLE
  5
F2
102
{ACAD_XDICTIONARY
360
2878
102
}
102
{ACAD_REACTORS
330
EF
102
}
330
EF
100
AcDbVisualStyle
  2
Gouraud
 70
     2
 71
     2
 72
     2
 73
     1
 90
        2
 40
-0.6
 41
30.0
 62
     5
 63
     7
 74
     0
 91
        0
 64
     7
 65
   257
 75
     1
175
     1
 42
1.0
 92
        0
 66
     7
 43
1.0
 76
     1
 77
     6
 78
     2
 67
     7
 79
     5
170
     0
171
     0
290
     0
174
     0
 93
       13
 44
0.0
173
     0
291
     1
 45
0.0
1001
ACAD
1000
AcDbSavedByObjectVersion
1070
     0
  0
VISUALSTYLE
  5
F3
102
{ACAD_XDICTIONARY
360
287A
102
}
102
{ACAD_REACTORS
330
EF
102
}
330
EF
100
AcDbVisualStyle
  2
GouraudWithEdges
 70
     3
 71
     2
 72
     2
 73
     1
 90
        2
 40
-0.6
 41
30.0
 62
     5
 63
     7
 74
     1
 91
        0
 64
     7
 65
   257
 75
     1
175
     1
 42
1.0
 92
        0
 66
   257
 43
1.0
 76
     1
 77
     6
 78
     2
 67
     7
 79
     5
170
     0
171
     0
290
     0
174
     0
 93
       13
 44
0.0
173
     0
291
     1
 45
0.0
1001
ACAD
1000
AcDbSavedByObjectVersion
1070
     0
  0
VISUALSTYLE
  5
F7
102
{ACAD_XDICTIONARY
360
2882
102
}
102
{ACAD_REACTORS
330
EF
102
}
330
EF
100
AcDbVisualStyle
  2
Hidden
 70
     6
 71
     1
 72
     2
 73
     2
 90
        0
 40
-0.6
 41
-30.0
 62
     5
 63
     7
 74
     2
 91
        2
 64
     7
 65
   257
 75
     2
175
     1
 42
40.0
 92
        0
 66
   257
 43
1.0
 76
     1
 77
     6
 78
     2
 67
     7
 79
     3
170
     0
171
     0
290
     0
174
     0
 93
        1
 44
0.0
173
     0
291
     0
 45
0.0
1001
ACAD
1000
AcDbSavedByObjectVersion
1070
     0
  0
VISUALSTYLE
  5
1E4
102
{ACAD_XDICTIONARY
360
2896
102
}
102
{ACAD_REACTORS
330
EF
102
}
330
EF
100
AcDbVisualStyle
  2
JitterOff
 70
    20
 71
     2
 72
     2
 73
     0
 90
        0
 40
-0.6
 41
-30.0
 62
     5
 63
     7
 74
     1
 91
        4
 64
     7
 65
   257
 75
     1
175
     1
 42
1.0
 92
       10
 66
     7
 43
1.0
 76
     1
 77
     6
 78
     2
 67
     7
 79
     5
170
     0
171
     0
290
     0
174
     0
 93
        1
 44
0.0
173
     0
291
     1
 45
0.0
1001
ACAD
1000
AcDbSavedByObjectVersion
1070
     0
  0
VISUALSTYLE
  5
FD
102
{ACAD_XDICTIONARY
360
288E
102
}
102
{ACAD_REACTORS
330
EF
102
}
330
EF
100
AcDbVisualStyle
  2
Linepattern
 70
    14
 71
     2
 72
     2
 73
     1
 90
        0
 40
-0.6
 41
-30.0
 62
     5
 63
     7
 74
     1
 91
        4
 64
     7
 65
   257
 75
     7
175
     7
 42
1.0
 92
        8
 66
     7
 43
1.0
 76
     1
 77
     6
 78
     2
 67
     7
 79
     5
170
     0
171
     0
290
     0
174
     0
 93
        1
 44
0.0
173
     0
291
     1
 45
0.0
1001
ACAD
1000
AcDbSavedByObjectVersion
1070
     0
  0
VISUALSTYLE
  5
1E5
102
{ACAD_XDICTIONARY
360
2898
102
}
102
{ACAD_REACTORS
330
EF
102
}
330
EF
100
AcDbVisualStyle
  2
OverhangOff
 70
    21
 71
     2
 72
     2
 73
     0
 90
        0
 40
-0.6
 41
-30.0
 62
     5
 63
     7
 74
     1
 91
        4
 64
     7
 65
   257
 75
     1
175
     1
 42
1.0
 92
        9
 66
     7
 43
1.0
 76
     1
 77
     6
 78
     2
 67
     7
 79
     5
170
     0
171
     0
290
     0
174
     0
 93
        1
 44
0.0
173
     0
291
     1
 45
0.0
1001
ACAD
1000
AcDbSavedByObjectVersion
1070
     0
  0
VISUALSTYLE
  5
F9
102
{ACAD_XDICTIONARY
360
2886
102
}
102
{ACAD_REACTORS
330
EF
102
}
330
EF
100
AcDbVisualStyle
  2
Realistic
 70
     8
 71
     2
 72
     2
 73
     0
 90
        2
 40
-0.6
 41
30.0
 62
     5
 63
     7
 74
     0
 91
        0
 64
     7
 65
   257
 75
     1
175
     1
 42
1.0
 92
        8
 66
   257
 43
1.0
 76
     1
 77
     6
 78
     2
 67
     7
 79
     3
170
     0
171
     0
290
     0
174
     0
 93
       13
 44
0.0
173
     0
291
     0
 45
0.0
1001
ACAD
1000
AcDbSavedByObjectVersion
1070
     0
  0
VISUALSTYLE
  5
1F3
102
{ACAD_XDICTIONARY
360
28A4
102
}
102
{ACAD_REACTORS
330
EF
102
}
330
EF
100
AcDbVisualStyle
  2
Shaded
 70
    27
 71
     2
 72
     2
 73
     1
 90
        2
 40
-0.6
 41
30.0
 62
     5
 63
     7
 74
     0
 91
        4
 64
     7
 65
   257
 75
     1
175
     1
 42
1.0
 92
        8
 66
   257
 43
1.0
 76
     1
 77
     6
 78
     2
 67
     8
 79
     3
170
     0
171
     0
290
     0
174
     0
 93
        5
 44
0.0
173
     0
291
     0
 45
0.0
1001
ACAD
1000
AcDbSavedByObjectVersion
1070
     0
  0
VISUALSTYLE
  5
1F2
102
{ACAD_XDICTIONARY
360
28A2
102
}
102
{ACAD_REACTORS
330
EF
102
}
330
EF
100
AcDbVisualStyle
  2
Shaded with edges
 70
    26
 71
     2
 72
     2
 73
     1
 90
        2
 40
-0.6
 41
30.0
 62
     5
 63
     7
 74
     1
 91
        2
 64
     7
 65
   257
 75
     2
175
     1
 42
1.0
 92
        8
 66
   257
 43
1.0
 76
     1
 77
     6
 78
     2
 67
     7
 79
     3
170
     0
171
     0
290
     0
174
     0
 93
        5
 44
0.0
173
     0
291
     0
 45
0.0
1001
ACAD
1000
AcDbSavedByObjectVersion
1070
     0
  0
VISUALSTYLE
  5
1EF
102
{ACAD_XDICTIONARY
360
289C
102
}
102
{ACAD_REACTORS
330
EF
102
}
330
EF
100
AcDbVisualStyle
  2
Shades of Gray
 70
    23
 71
     2
 72
     2
 73
     3
 90
        0
 40
-0.6
 41
-30.0
 62
     5
 63
     7
 74
     2
 91
        2
 64
     7
 65
     7
 75
     1
175
     1
 42
40.0
 92
        8
 66
     7
 43
1.0
 76
     1
 77
     6
 78
     2
 67
     7
 79
     3
170
     0
171
     0
290
     0
174
     0
 93
        1
 44
0.0
173
     0
291
     0
 45
0.0
1001
ACAD
1000
AcDbSavedByObjectVersion
1070
     0
  0
VISUALSTYLE
  5
1F0
102
{ACAD_XDICTIONARY
360
289E
102
}
102
{ACAD_REACTORS
330
EF
102
}
330
EF
100
AcDbVisualStyle
  2
Sketchy
 70
    24
 71
     1
 72
     2
 73
     2
 90
        0
 40
-0.6
 41
-30.0
 62
     5
 63
     7
 74
     2
 91
        2
 64
     7
 65
     7
 75
     1
175
     1
 42
40.0
 92
       11
 66
     7
 43
1.0
 76
     1
 77
     6
 78
     2
 67
     7
 79
     6
170
     0
171
     0
290
     0
174
     0
 93
        1
 44
0.0
173
     0
291
     0
 45
0.0
1001
ACAD
1000
AcDbSavedByObjectVersion
1070
     0
  0
VISUALSTYLE
  5
FC
102
{ACAD_XDICTIONARY
360
288C
102
}
102
{ACAD_REACTORS
330
EF
102
}
330
EF
100
AcDbVisualStyle
  2
Thicken
 70
    13
 71
     2
 72
     2
 73
     1
 90
        0
 40
-0.6
 41
-30.0
 62
     5
 63
     7
 74
     1
 91
        4
 64
     7
 65
   257
 75
     1
175
     1
 42
1.0
 92
       12
 66
     7
 43
1.0
 76
     1
 77
     6
 78
     2
 67
     7
 79
     5
170
     0
171
     0
290
     0
174
     0
 93
        1
 44
0.0
173
     0
291
     1
 45
0.0
1001
ACAD
1000
AcDbSavedByObjectVersion
1070
     0
  0
VISUALSTYLE
  5
F6
102
{ACAD_XDICTIONARY
360
2880
102
}
102
{ACAD_REACTORS
330
EF
102
}
330
EF
100
AcDbVisualStyle
  2
Wireframe
 70
     5
 71
     0
 72
     2
 73
     0
 90
        0
 40
-0.6
 41
-30.0
 62
     5
 63
     7
 74
     1
 91
        4
 64
     7
 65
   257
 75
     1
175
     1
 42
1.0
 92
        0
 66
   257
 43
1.0
 76
     1
 77
     6
 78
     2
 67
     7
 79
     3
170
     0
171
     0
290
     0
174
     0
 93
        1
 44
0.0
173
     0
291
     0
 45
0.0
1001
ACAD
1000
AcDbSavedByObjectVersion
1070
     0
  0
VISUALSTYLE
  5
1F1
102
{ACAD_XDICTIONARY
360
28A0
102
}
102
{ACAD_REACTORS
330
EF
102
}
330
EF
100
AcDbVisualStyle
  2
X-Ray
 70
    25
 71
     2
 72
     2
 73
     1
 90
        1
 40
0.5
 41
-30.0
 62
     5
 63
     7
 74
     1
 91
        0
 64
     7
 65
   257
 75
     1
175
     1
 42
1.0
 92
        8
 66
     7
 43
1.0
 76
     1
 77
     6
 78
     2
 67
     7
 79
     3
170
     0
171
     0
290
     0
174
     0
 93
       13
 44
0.0
173
     0
291
     0
 45
0.0
1001
ACAD
1000
AcDbSavedByObjectVersion
1070
     0
  0
DICTIONARYVAR
  5
146
102
{ACAD_REACTORS
330
5E
102
}
330
5E
100
DictionaryVariables
280
     0
  1
1:1
  0
DICTIONARYVAR
  5
259
102
{ACAD_REACTORS
330
5E
102
}
330
5E
100
DictionaryVariables
280
     0
  1
3.500000
  0
DICTIONARYVAR
  5
25A
102
{ACAD_REACTORS
330
5E
102
}
330
5E
100
DictionaryVariables
280
     0
  1
acadiso.lin
  0
DICTIONARYVAR
  5
145
102
{ACAD_REACTORS
330
5E
102
}
330
5E
100
DictionaryVariables
280
     0
  1
STANDARD
  0
DICTIONARYVAR
  5
84
102
{ACAD_REACTORS
330
5E
102
}
330
5E
100
DictionaryVariables
280
     0
  1
STANDARD
  0
DICTIONARYVAR
  5
227
102
{ACAD_REACTORS
330
5E
102
}
330
5E
100
DictionaryVariables
280
     0
  1
Metric50
  0
DICTIONARYVAR
  5
228
102
{ACAD_REACTORS
330
5E
102
}
330
5E
100
DictionaryVariables
280
     0
  1
Metric50
  0
DICTIONARYVAR
  5
5F
102
{ACAD_REACTORS
330
5E
102
}
330
5E
100
DictionaryVariables
280
     0
  1
2
  0
DICTIONARYVAR
  5
63
102
{ACAD_REACTORS
330
5E
102
}
330
5E
100
DictionaryVariables
280
     0
  1
1
  0
DICTIONARYVAR
  5
2815
102
{ACAD_REACTORS
330
5E
102
}
330
5E
100
DictionaryVariables
280
     0
  1
0
  0
DICTIONARYVAR
  5
1AE
102
{ACAD_REACTORS
330
5E
102
}
330
5E
100
DictionaryVariables
280
     0
  1
0
  0
DICTIONARYVAR
  5
1AF
102
{ACAD_REACTORS
330
5E
102
}
330
5E
100
DictionaryVariables
280
     0
  1
0
  0
DICTIONARYVAR
  5
2813
102
{ACAD_REACTORS
330
5E
102
}
330
5E
100
DictionaryVariables
280
     0
  1
2
  0
DICTIONARYVAR
  5
2812
102
{ACAD_REACTORS
330
5E
102
}
330
5E
100
DictionaryVariables
280
     0
  1
1
  0
DICTIONARYVAR
  5
2865
102
{ACAD_REACTORS
330
5E
102
}
330
5E
100
DictionaryVariables
280
     0
  1
80.000000
  0
DICTIONARYVAR
  5
2864
102
{ACAD_REACTORS
330
5E
102
}
330
5E
100
DictionaryVariables
280
     0
  1
5.000000
  0
DICTIONARYVAR
  5
2814
102
{ACAD_REACTORS
330
5E
102
}
330
5E
100
DictionaryVariables
280
     0
  1
127
  0
DICTIONARYVAR
  5
2866
102
{ACAD_REACTORS
330
5E
102
}
330
5E
100
DictionaryVariables
280
     0
  1
2
  0
DICTIONARY
  5
28A8
330
21C
100
AcDbDictionary
280
     1
281
     1
  3
ACAD_XREC_ROUNDTRIP
360
28A9
  0
DICTIONARY
  5
286D
330
D3
100
AcDbDictionary
280
     1
281
     1
  3
ACAD_XREC_ROUNDTRIP
360
286E
  0
DICTIONARY
  5
286F
330
D7
100
AcDbDictionary
280
     1
281
     1
  3
ACAD_XREC_ROUNDTRIP
360
2870
  0
DICTIONARY
  5
286A
330
22
100
AcDbDictionary
280
     1
281
     1
  3
ACAD_XREC_ROUNDTRIP
360
286B
  0
DICTIONARY
  5
1F9
330
ED
100
AcDbDictionary
280
     1
281
     1
  3
ACAD_XREC_ROUNDTRIP
360
2872
  3
FBXASSET
360
1FA
  0
DICTIONARY
  5
1F7
330
EC
100
AcDbDictionary
280
     1
281
     1
  3
ACAD_XREC_ROUNDTRIP
360
2871
  3
FBXASSET
360
1F8
  0
DICTIONARY
  5
173
330
EE
100
AcDbDictionary
280
     1
281
     1
  3
ACAD_XREC_ROUNDTRIP
360
2873
  3
BUMPTILE
360
175
  3
DIFFUSETILE
360
174
  3
FBXASSET
360
1FB
  3
OPACITYTILE
360
176
  3
REFLECTIONTILE
360
177
  0
DICTIONARY
  5
2894
330
12E
100
AcDbDictionary
280
     1
281
     1
  3
ACAD_XREC_ROUNDTRIP
360
2895
  0
DICTIONARY
  5
28A6
330
21A
100
AcDbDictionary
280
     1
281
     1
  3
ACAD_XREC_ROUNDTRIP
360
28A7
  0
DICTIONARY
  5
162
330
7F
100
AcDbDictionary
280
     1
281
     1
  3
ACAD_ROUNDTRIP_2008_TABLESTYLE_CELLSTYLEMAP
360
2867
  3
ACAD_XREC_ROUNDTRIP
360
286C
  0
DICTIONARY
  5
287E
330
F5
100
AcDbDictionary
280
     1
281
     1
  3
ACAD_XREC_ROUNDTRIP
360
287F
  0
DICTIONARY
  5
287C
330
F4
100
AcDbDictionary
280
     1
281
     1
  3
ACAD_XREC_ROUNDTRIP
360
287D
  0
DICTIONARY
  5
288A
330
FB
100
AcDbDictionary
280
     1
281
     1
  3
ACAD_XREC_ROUNDTRIP
360
288B
  0
DICTIONARY
  5
2892
330
FF
100
AcDbDictionary
280
     1
281
     1
  3
ACAD_XREC_ROUNDTRIP
360
2893
  0
DICTIONARY
  5
2884
330
F8
100
AcDbDictionary
280
     1
281
     1
  3
ACAD_XREC_ROUNDTRIP
360
2885
  0
DICTIONARY
  5
2888
330
FA
100
AcDbDictionary
280
     1
281
     1
  3
ACAD_XREC_ROUNDTRIP
360
2889
  0
DICTIONARY
  5
289A
330
1E6
100
AcDbDictionary
280
     1
281
     1
  3
ACAD_XREC_ROUNDTRIP
360
289B
  0
DICTIONARY
  5
2890
330
FE
100
AcDbDictionary
280
     1
281
     1
  3
ACAD_XREC_ROUNDTRIP
360
2891
  0
DICTIONARY
  5
2874
330
F0
100
AcDbDictionary
280
     1
281
     1
  3
ACAD_XREC_ROUNDTRIP
360
2875
  0
DICTIONARY
  5
2876
330
F1
100
AcDbDictionary
280
     1
281
     1
  3
ACAD_XREC_ROUNDTRIP
360
2877
  0
DICTIONARY
  5
2878
330
F2
100
AcDbDictionary
280
     1
281
     1
  3
ACAD_XREC_ROUNDTRIP
360
2879
  0
DICTIONARY
  5
287A
330
F3
100
AcDbDictionary
280
     1
281
     1
  3
ACAD_XREC_ROUNDTRIP
360
287B
  0
DICTIONARY
  5
2882
330
F7
100
AcDbDictionary
280
     1
281
     1
  3
ACAD_XREC_ROUNDTRIP
360
2883
  0
DICTIONARY
  5
2896
330
1E4
100
AcDbDictionary
280
     1
281
     1
  3
ACAD_XREC_ROUNDTRIP
360
2897
  0
DICTIONARY
  5
288E
330
FD
100
AcDbDictionary
280
     1
281
     1
  3
ACAD_XREC_ROUNDTRIP
360
288F
  0
DICTIONARY
  5
2898
330
1E5
100
AcDbDictionary
280
     1
281
     1
  3
ACAD_XREC_ROUNDTRIP
360
2899
  0
DICTIONARY
  5
2886
330
F9
100
AcDbDictionary
280
     1
281
     1
  3
ACAD_XREC_ROUNDTRIP
360
2887
  0
DICTIONARY
  5
28A4
330
1F3
100
AcDbDictionary
280
     1
281
     1
  3
ACAD_XREC_ROUNDTRIP
360
28A5
  0
DICTIONARY
  5
28A2
330
1F2
100
AcDbDictionary
280
     1
281
     1
  3
ACAD_XREC_ROUNDTRIP
360
28A3
  0
DICTIONARY
  5
289C
330
1EF
100
AcDbDictionary
280
     1
281
     1
  3
ACAD_XREC_ROUNDTRIP
360
289D
  0
DICTIONARY
  5
289E
330
1F0
100
AcDbDictionary
280
     1
281
     1
  3
ACAD_XREC_ROUNDTRIP
360
289F
  0
DICTIONARY
  5
288C
330
FC
100
AcDbDictionary
280
     1
281
     1
  3
ACAD_XREC_ROUNDTRIP
360
288D
  0
DICTIONARY
  5
2880
330
F6
100
AcDbDictionary
280
     1
281
     1
  3
ACAD_XREC_ROUNDTRIP
360
2881
  0
DICTIONARY
  5
28A0
330
1F1
100
AcDbDictionary
280
     1
281
     1
  3
ACAD_XREC_ROUNDTRIP
360
28A1
  0
XRECORD
  5
28A9
102
{ACAD_REACTORS
330
28A8
102
}
330
28A8
100
AcDbXrecord
280
     1
102
DISPLAYNAME
  1
Metric50
102
FLAGS
 90
        0
  0
XRECORD
  5
286E
102
{ACAD_REACTORS
330
286D
102
}
330
286D
100
AcDbXrecord
280
     1
102
SHADEPLOT
 70
     0
102
SHADEPLOTRESLEVEL
 70
     2
102
SHADEPLOTCUSTOMDPI
 70
   300
  0
XRECORD
  5
2870
102
{ACAD_REACTORS
330
286F
102
}
330
286F
100
AcDbXrecord
280
     1
102
SHADEPLOT
 70
     0
102
SHADEPLOTRESLEVEL
 70
     2
102
SHADEPLOTCUSTOMDPI
 70
   300
  0
XRECORD
  5
286B
102
{ACAD_REACTORS
330
286A
102
}
330
286A
100
AcDbXrecord
280
     1
102
SHADEPLOT
 70
     0
102
SHADEPLOTRESLEVEL
 70
     2
102
SHADEPLOTCUSTOMDPI
 70
   300
  0
XRECORD
  5
2872
102
{ACAD_REACTORS
330
1F9
102
}
330
1F9
100
AcDbXrecord
280
     1
102
MATERIAL
148
0.0
149
0.0
149
0.0
 93
        0
 94
       63
282
     0
 72
     1
 77
     1
171
     1
175
     1
179
     1
273
     0
  0
XRECORD
  5
1FA
102
{ACAD_REACTORS
330
1F9
102
}
330
1F9
100
AcDbXrecord
280
     1
 70
     1
 90
429727718
  1
D62C5603-E3A1-4AEA-B7FB-FE5D8D0755AF
310
504B03040A0000080000CC70623B3DEE336E79000000790000001B0000006175746F6465736B2D64657369676E2D7061636B6167652E786D6C3C3F786D6C2076657273696F6E3D22312E302220656E636F64696E673D227574662D3822203F3E3C666F726D6174733E3C666F726D61743E687474703A2F2F736368656D612E
310
6175746F6465736B2E636F6D2F64657369676E2D7061636B6167652F323030393C2F666F726D61743E3C2F666F726D6174733E504B0304140006080800CC70623BD486FD9CA0000000F4000000130000005B436F6E74656E745F54797065735D2E786D6C7D8EC10E82300C865F65E91D8A1E8C310C0EEA1BF002731658846E
310
D98AC1B77784ABF1D8FE5FBFBF75BBCE937A534CCEB38643598122B6FEE978D0B0485F9C41B54DDD7D022595594E1A469170414C76A4D9A4D207E29CF43ECE46F218070CC6BECC4078ACAA135ACF422C856C0E68EA1BF5669944DDD7BCDE7B1F8E415D77AECB980613C2E4AC91FC167A2B244592486606FC29C8FD7F045B9A
310
EF7053A7E60B504B0304140006080800CC70623B853B8169EB0000007C01000008000000636F72652E786D6C8D90416EC3201045AF62CDB6C206821CC7C244919D9CA01740401C94182C03558F5F9C3852BBEB6A467FFE9B197D7EFC9E1EC5975982F5AE035262288C535E5B377690E21535501C055FBC8FBF6C503839990E
310
5619041F179FE64D52DE45E362569DD7661365082642A11EB9E920A89B99642953CC8E702F67A9EE7234257977194EC9EAE275C4EABCCF5EAD5940D4AC6F0E35A568B8F43562CD7046CD199FD07E60174276A7BE677B5EADB0E0D14EEFFB6A31321A0D82627C4084204C3F096B71DD52F6819B16635EADF63F509AF53FA164
310
5DDCD1EDDD17164090FCC8732078B56691CB33A85CD7DCC40F504B0304140006080800CC70623B55019EA25F0000007C00000007000000636E782E786D6C4DCB3B0E80201045D1AD90E915ED2CF8AC45050C11660C8261F98AB1B07AC9C97D42D718D865D3E909258CFD00CCE24AC6E326A164D74DC0B4128928FF32603847
310
2BA13128B1252AC747C6BAB984FC68F0B87FE8960A5C09FE86CFB69FBA01504B0304140006080800CC70623BDBABAAF470010000D40300000C0000006662782F636F72652E786D6CC553D16E823014FD95A6AF4B694182CC941A83FA05FB810A9511A125A5257EFE2E82712ECEB8A7F100CD39F7F69E734AF9FADC366850B6
310
AF8DCE7018308C942E4C59EB2AC3DE1D498AD15A706B8CFB56869196ADCAF00863C12B6B7C374385D14E6907A836A59A41D9F7CA615434B0C8705F7CAA5606D23BA8E84F41278B93AC54100640439DE0BDB320004D43C63716C7C399D30917DCFBBA9CD9BA8469F5B156168B24CED3F7248AC8769F27244EB73B92EED8862C
310
B7F13E0C179B3C8F979C8ECD82BBBABDAA2BAC924E9558448CBD9330242CFA08E3154B5651FCC6D215639C8EE5774DBE2B5F6CF2B5768B68963BB5F5588420E442FC700B1139D4CB01F450C1E918227C2E09DF070D8140C84E1E9AAB8F1340832A9CB13130A5F1376A908D57309505ECF2A0DF179C4E9D30F5B239B87E3823
310
7A79C6F31DE1A8A5AEC08474B03C7837EAE4938639B44E5932B833D2C6B6B279CDC613877FA26EE21F4A2A4C63EC7F29A2F301D1F9F7A0E37D145F504B0304140006080800CC70623B9C113CC27E0000009D0000000B0000006662782F636E782E786D6C4DCCDF0A83201C86E15B91DFB94BFB330DD428C8FB886521330DA7
310
6397BF1A1DECE883878F57749FCDA1B7892F1BBC047A23808C7F84D9FA55424E0BE6803A256208E9EF06C84F9B91703228B1C690F78B66B34CD9A5439DF5CF0BFBF65E35BCA1B8D6A5C6F540381E886698B5741C695F9503EBA150A2F8958E3DC3EA0B504B0304140006080800CC70623B7DF2F77C2A010000120200003100
310
00006662782F41393633353835312D344632462D344230382D423046372D3739314545314133324237412F636F72652E786D6C8D51DB8EC22014FC15C2939B0D2DB4B45643319AE817EC0F6041255A68B86CFCFC856D4D76DF7CE190393373060EDB3DC707F856CE6B6B7A480A0C81328395DA5C7B18C3057510EC3873D686
310
3F34088C18550F330C39BB3A1BA7051AAC09CA84841A2BD5020AEF55806078A44B0FFD7053A328440C89E1EFC52486BBB8AA8214A99D789CF9E05200300FC927E4FB4D5B375D43103D5527440FB843077C5AA3F5861C8F645F5787F59E95B390B318B55CE45AA638FAA2957BD7248B390B7A7CC51F9C124149C82B8C378810
310
84AB2F42B7B8DD56F413775B8C5999E9FF4471926F8AA236A1AE96B8B3CC434E5839373893369E1FAF30EA395917409EB7F26AF8801C171837A4A6AC9C89E9F9C9B1A58BA30FD6A5EF5DDDCF894B9AD9B6A59C957943A9FCAE2FD5BC4DFE03504B0304140006080800CC70623BAD7543B64E01000033030000300000006662
310
782F41393633353835312D344632462D344230382D423046372D3739314545314133324237412F636E782E786D6CD593CD6EC32010845F0571AD6CE3D48AD20813A9873E410FBD12D82434182C7EAAE6EDBB2424CD25871E7B41D6EC30B3FA84F9E67BB2E40B4234DE8DB46F1925E094D7C6ED479AD3AE5951B2113C789FEE
310
6C943839C1488B4C05DF079FE72A69D8C96C13AAD6B8631503449F83828872B949AC57D26200B826A308D316B4064D6E46FCDA41C05550DC9E483A00797BFD207EFB092A45DE9514C1BBD22178396BD39D891265658C238DEA00936C654E5E433CB65A26D9F6EDB5EBC14EBF49A45CB856E66048291F6939A9A81BB5C89177
310
38143CA680F4AA299D66A042CEB3354A2684DC9D8D178FE0D9B8B41CAAD720F880EE7EF93C0C18769E099ECC04D5A102C8049A8A05632F4DDF376CF1DE0F6BB65C2F8627B65A33C6BB62177CEBBDAD973006829F89F22E814B54F4BC2BE347F8AA8F681390B50FA73F804400B5F542E796F19FF974E7F78DB802FE05E20750
310
4B0304140006080800CC70623BE75B7789680500003C100000340000006662782F41393633353835312D344632462D344230382D423046372D3739314545314133324237412F6F626A656374732E786D6CAD575B8F9B3818FD2B887D06C22499CB8AA1CA655245D5B455A356FB305264C061D8018C6C3393D95FBFC7600890
310
A4CD5EF210B0B1BFEBF98E3F7B1FF6596ABC522E1296DF9BAE3D320D9A872C4AF2F8DE2CE5CEBA358D0FBEC719939D65A691938CDE9B6ADAF4BD98B3B2D05311DD91329583D9D5FC0F438434A7A611A644887B5384CF34233629258BA878B12322891DEFF6B66BD70BFB62634E8AE781D082709A4B588AF91C528CDA28B73F
310
1C998EEF39EABBEFA97FBD6A7C7E9553F9D3D79FE442923C3C523610337627CB87ABE99D359D4CC6D6E4FACAB5E6ABF9D2726FC6A3C5F56271377BB88362213924694B38DD99FE47C48627A1E7D49F5A8BB5E1A74C0A599ED3B0F21F1E56366B89112D681E218F0915D0D6F17AD41FBA2A369DCF6335D62ABBD39779D5DDD1
310
11D4D8DE3CBB96B2E04FB8202E41051754A1AA8E8F76B4C6DFE810B580B1547F4B84911149794252234D024EF8BBE963A95AE27B3D310A9D5C215C7960FAEE415ED75694C6AFB17BCACA5D99A60A9AA65F217B0BFC53292ACB92BF283FAD0D3621576592CB5BED907C2FA8E9DF794E35E97BEA31BED21FEB401ABB94C44839
310
DCACBF0E1C5DA8DA5B2F4DFFD32AD86F543D9E565E7056502E157C00AD2671CD534549AB752FCA9CDA00677A313F04E51B22FF19E57B300579E3C97EB29F682D92935CEC18CF901B7B54FD8C51F362B56FC72FE0B3C1EAE335EDCCBF5AEC39ADB17DC238973F804BA5E6F6BFE7AF1FB32E523BE9F3BD571418E3631DCA4D48
310
5250CF639223210A9446CA30052EDF057BD35F8329C1ECD84552BF0DC8D18BE7BCE23BFE6BD960AB4A7DE79923A103BEBD80F911CBAA2C60DB19B01CF164A5583B772EE6D3FFA56666CBCDA74DC97724A48F9A58967497E489C4D979006FD7A05E227A1EBDD0F737C623387A9C844D3709995625106D157315F8B8392CD4E0
310
A0B9A720C4BE9829CEF37EA1E13111214D53925356365ADA634861B52519DD27A00AEB808EAF0628E6F435519D446F45CF2C9CF5214F0A15B2F6D06B79DA3EE3CBF7F56780D2F4E7EF73A0F5E5B02A38D07DC852C6B7C1FBB6664213E0C39E3EBA7FF4E1AD23EA2829407C85E586727488B751B2DB9502BC7B228A3FD68B6E
310
A65A22397E690AA8D158D7E404EC8CDA235CC3B7D1898680131CEC2CDF2638C65196279577750F15884AEE19F94199155B92B13297978469D4F8D358DF0AEF7631E28DC8F0D9F437D5D39A83B2231A1D52D543813A824EF8D44BCFF2FA6A31BD1E8DAD87F1CCB526B3879935BF59CDADD5C37479BB1CDD4CA7B3556B516589
310
EF352754B706114D9C885EC9131DE6EFEB43D99AFE2391C2F958179413D7CFEF6B1B6DB1E7600F00DE6E5C67454A339A4BA2E0FBA85ED26F045D454F463DBFCE484C2F90F2E5E3666003662ED8F755951A7D1BECD5B30B550B2785C8E7320B7292A4838DDA71BBC863ED7613CAF659337A3354231D4FF4A182A54904C2898C
310
98B28C4AD0CE056CCF332A80986E571EE9DBC305BB5FEB7E509220A58D25CF042D712A806AC0AD0C657FDEF80D2D9CEAA2EE4D1C76F60BFE74219A06527D6F82DF6412526107381E55E353090704D085B52408A8913C4ED159D79BDA71BB4BC506F4831350EB6F975CD22D69BF7AC49B91A2C0A9DDA3D5CA36AD20FC478E37
310
E61844E2352865EBCB61A275A65283CAAA9DD27703B4102F5AF51EF5F573B75CBB5AD38BC845F7A49F82A0966A49C2E3EA5EA0ECD326CD965F1DB402C6FA8B51A4658C5C5E2EC9E214602E55810345408596591009A82E7E7FFACA19EEA299B14A0081A705CB3296EBC14CDF658DCD336EA6D1136881AAEB87B81AB9EE53D5
310
F5EB8BC8362082DA24122F98680A4E7930C01A0079749CEA14382A0783E5EBA5A10F8C098456A03D6A4AEB6BB881E2513747552A5DB22C7EDAF83BD5528081A365F7FF06504B0304140006080000CC70623B000000000000000000000000350000006662782F41393633353835312D344632462D344230382D423046372D37
310
39314545314133324237412F76657274696365732E62696E504B0304140006080800CC70623BF270F1330600000004000000360000006662782F41393633353835312D344632462D344230382D423046372D3739314545314133324237412F747269616E676C65732E62696E636660600000504B0304140006080000CC7062
310
3B000000000000000000000000370000006662782F41393633353835312D344632462D344230382D423046372D3739314545314133324237412F617474726962757465732E62696E504B0304140006080800CC70623B08DA0BD19000000041010000360000006662782F41393633353835312D344632462D344230382D4230
310
46372D3739314545314133324237412F6469726563746F72792E786D6C858F410AC3201045AF22B36F53E9A60B35CBEEBAE80D244E44489C6234F4F835464A48035D0DF398FF9F8AF63D0E6CC63039F212F8F9020C7D47C6792B21C5FE7403D62A1188E2E60C98D7234A5830286103A55745067B9D86B8A3CF9C7F90C11DE6
310
07FB144396D7B6A82D282E9A152AD114D5EF2CB866EEE831B8EEA07A7BB5A8D7D61A2BAAEB7FD5F70921FF497D00504B0304140006080800CC70623BEDD1DC58FD000000A00100003B0000006662782F41393633353835312D344632462D344230382D423046372D3739314545314133324237412F7265736F75726365732F
310
636F72652E786D6C8D504B6E833010BD0A9A6D65B00922041947112427E8052C33A156828DFCA97AFC9A40A576D7CDCCE87D344F8F9FBFE667F689CE6B6B3A6039850C8DB2A336530731DC4903D95970676DF82583CCC8193B5861107C72362E3BA4AC096842428D1D7107A5F7182053CF7474E0D507CE32973124857FE48B
310
540F3961CEF244279DE03EB81420DB9EAC1384436FA353E879B1B182C7A8C75DA3C7F453DF353A1075D537A7BA6464B8F535A99AE14A9A2BBD90E350DD183B5CFABE3AF262350B1EF4FC9351399401471025A527C218A1E53BAB5A5AB765F5469B96525EACF23FA6B88CFF34456DC2A1DCE36E360F82A5202F42F062ED2BAD
310
579969AFDD8A6F504B010214000A0000080000CC70623B3DEE336E79000000790000001B00000000000000000000000000000000006175746F6465736B2D64657369676E2D7061636B6167652E786D6C504B01021400140006080800CC70623BD486FD9CA0000000F40000001300000000000000000000000000B20000005B
310
436F6E74656E745F54797065735D2E786D6C504B01021400140006080800CC70623B853B8169EB0000007C010000080000000000000000000000000083010000636F72652E786D6C504B01021400140006080800CC70623B55019EA25F0000007C000000070000000000000000000000000094020000636E782E786D6C504B
310
01021400140006080800CC70623BDBABAAF470010000D40300000C00000000000000000000000000180300006662782F636F72652E786D6C504B01021400140006080800CC70623B9C113CC27E0000009D0000000B00000000000000000000000000B20400006662782F636E782E786D6C504B01021400140006080800CC70
310
623B7DF2F77C2A010000120200003100000000000000000000000000590500006662782F41393633353835312D344632462D344230382D423046372D3739314545314133324237412F636F72652E786D6C504B01021400140006080800CC70623BAD7543B64E010000330300003000000000000000000000000000D2060000
310
6662782F41393633353835312D344632462D344230382D423046372D3739314545314133324237412F636E782E786D6C504B01021400140006080800CC70623BE75B7789680500003C10000034000000000000000000000000006E0800006662782F41393633353835312D344632462D344230382D423046372D3739314545
310
314133324237412F6F626A656374732E786D6C504B01021400140006080000CC70623B0000000000000000000000003500000000000000000000000000280E00006662782F41393633353835312D344632462D344230382D423046372D3739314545314133324237412F76657274696365732E62696E504B01021400140006
310
080800CC70623BF270F133060000000400000036000000000000000000000000007B0E00006662782F41393633353835312D344632462D344230382D423046372D3739314545314133324237412F747269616E676C65732E62696E504B01021400140006080000CC70623B0000000000000000000000003700000000000000
310
000000000000D50E00006662782F41393633353835312D344632462D344230382D423046372D3739314545314133324237412F617474726962757465732E62696E504B01021400140006080800CC70623B08DA0BD1900000004101000036000000000000000000000000002A0F00006662782F41393633353835312D344632
310
462D344230382D423046372D3739314545314133324237412F6469726563746F72792E786D6C504B01021400140006080800CC70623BEDD1DC58FD000000A00100003B000000000000000000000000000E1000006662782F41393633353835312D344632462D344230382D423046372D3739314545314133324237412F7265
310
736F75726365732F636F72652E786D6C504B0506000000000E000E0080040000641100000000
  0
XRECORD
  5
2871
102
{ACAD_REACTORS
330
1F7
102
}
330
1F7
100
AcDbXrecord
280
     1
102
MATERIAL
148
0.0
149
0.0
149
0.0
 93
        0
 94
       63
282
     0
 72
     1
 77
     1
171
     1
175
     1
179
     1
273
     0
  0
XRECORD
  5
1F8
102
{ACAD_REACTORS
330
1F7
102
}
330
1F7
100
AcDbXrecord
280
     1
 70
     1
 90
429727718
  1
30362254-06B7-45E0-A893-8CFA70E3D6BC
310
504B03040A0000080000CC70623B3DEE336E79000000790000001B0000006175746F6465736B2D64657369676E2D7061636B6167652E786D6C3C3F786D6C2076657273696F6E3D22312E302220656E636F64696E673D227574662D3822203F3E3C666F726D6174733E3C666F726D61743E687474703A2F2F736368656D612E
310
6175746F6465736B2E636F6D2F64657369676E2D7061636B6167652F323030393C2F666F726D61743E3C2F666F726D6174733E504B0304140006080800CC70623BD486FD9CA0000000F4000000130000005B436F6E74656E745F54797065735D2E786D6C7D8EC10E82300C865F65E91D8A1E8C310C0EEA1BF002731658846E
310
D98AC1B77784ABF1D8FE5FBFBF75BBCE937A534CCEB38643598122B6FEE978D0B0485F9C41B54DDD7D022595594E1A469170414C76A4D9A4D207E29CF43ECE46F218070CC6BECC4078ACAA135ACF422C856C0E68EA1BF5669944DDD7BCDE7B1F8E415D77AECB980613C2E4AC91FC167A2B244592486606FC29C8FD7F045B9A
310
EF7053A7E60B504B0304140006080800CC70623B1EC5D7A3EB0000007C01000008000000636F72652E786D6C8D90416EC3201045AF82665B6103C6756C6122AB4D4ED00B204C5C94182C03558F5F9C3852BBEB6A467FFE9B197D71FC9E6FE8CBACC17AD7032D0820E3B41FAD9B7A48F1820F808E52ACDEC75F36404ECDA687
310
4D0629A6D5A76597B477D1B89855E747B38B2A041301E95B6E7A08FAD3CCAA50296647B8168BD2573599823EBB0CA76447F43862C7BCCF5EAC59410E4DDD9C7973C2755553CCCFA4C603E3040F1565ED3B1FDE4E432BCA0D9622DAF9795FAF464533826484B498524CD807E51D79ED187F21878E10516EF63F505AC67F42C9
310
BA58B1FDDD071640D2FCC87D2045B96591CB3DA85CB7DCE40F504B0304140006080800CC70623B55019EA25F0000007C00000007000000636E782E786D6C4DCB3B0E80201045D1AD90E915ED2CF8AC45050C11660C8261F98AB1B07AC9C97D42D718D865D3E909258CFD00CCE24AC6E326A164D74DC0B4128928FF32603847
310
2BA13128B1252AC747C6BAB984FC68F0B87FE8960A5C09FE86CFB69FBA01504B0304140006080800CC70623B8C9102E971010000D40300000C0000006662782F636F72652E786D6CC5535B6E833010BC8AE5DF0A6C08340F1947A84D4ED00B38C6A128602363A31CBFCB234A53A551FA553EC09AD9F5CE8C31DB9E9B1AF5CA
310
7695D1198E428A91D2D214952E33ECDD315861B4E5CC1AE3BE9561A445A3323CC098B3D21ADFCE9034DA29ED00D5A6503328BA4E398C640D8B0C77F253352214DE4145770A5B214FA2546114020D759C75CE8200340D19DE981F0F6746269C33EFAB6266AB02A655C74A59CCF365BADC27CB5D902ED22848F6340DF238A141
310
BE88E2F57B92BFEDF23523433367AE6A2EEAA455C2A902F398D2751045018D3FA264435F3771F242571B4A1919CA6F9A7C5B3CD9E42BED16F12C776AEB308F40C848FC700B1139D4891EF410CEC810227CC6846F8386402064270EF5C5C709A05E49676C024C61FC95EA45ED154CA5211D1FF4FB8291A913A68E9B83EBBB33
310
E2A7673CDE118E5AE8124C0807CB8377834E366998436B950D7A7746DAD846D4CFD978E0F04FD455FC5D49D2D4C6FE9722321F10997F0F32DC47FE05504B0304140006080800CC70623BFFEA85907E0000009D0000000B0000006662782F636E782E786D6C4DCCD10A83201886E15B91FFDC95D95A811AB6F23E625948A6C3
310
E9D8E5AF46073BFAE0E1E365ED67B3E8ADC3CB78C7815C7240DA3DFC64DCC221C519D7805AC182F7F1EF06C88D9BE6703008B6049F9E274D7A1E938DBB5AE3D6131B2589BA0D3D965551E0B2EA732C9B9A624AAEB41E3A557677029960D9AFB4EF11165F504B0304140006080800CC70623B4FEEA4082C0100001202000031
310
0000006662782F39464131463745442D413632322D343644302D413938332D3331353338454246344243312F636F72652E786D6C8D515B6EC32010BC0AE2AB55850DD871ED0813254D72825EC00192A2C460F1A872FC42ED48ED5F7E00CDCECCCEB26C731F6FE05B39AFADE921293004CA082BB5B9F43086336A21D870E6AC
310
0D7F68109861543DCC30E4ECE26C9C164858139409093556AA051CBC570102714B8F1E7AF1A5C6A11862480C7F2DA6415C878B2A4891CA89C7990F2E050073937C42DE1DB7E4F87ED8A36D4329AA9B3D46DBAEAD504556557BD81DEBDD0761E52CE42C462D17B996298E3E6BE59E35C962CE821E1FF18553435012728A7187
310
0841987E927A8D9B35ADDF70BBC6989599FE4F1427F9A4286A132ABAC49D651EF234CD5CE04CDA78BA3DC2A8FB645D00B9DF8B57E215725C60BCA2A463E54C4CE327C7A65E1C7DB02E7DEFCBF594B864C5CA6CDBD49C957943E9FA5D5FBAF336F90F504B0304140006080800CC70623BAD7543B64E01000033030000300000
310
006662782F39464131463745442D413632322D343644302D413938332D3331353338454246344243312F636E782E786D6CD593CD6EC32010845F0571AD6CE3D48AD20813A9873E410FBD12D82434182C7EAAE6EDBB2424CD25871E7B41D6EC30B3FA84F9E67BB2E40B4234DE8DB46F1925E094D7C6ED479AD3AE5951B2113C
310
789FEE6C943839C1488B4C05DF079FE72A69D8C96C13AAD6B8631503449F83828872B949AC57D26200B826A308D316B4064D6E46FCDA41C05550DC9E483A00797BFD207EFB092A45DE9514C1BBD22178396BD39D891265658C238DEA00936C654E5E433CB65A26D9F6EDB5EBC14EBF49A45CB856E66048291F6939A9A81BB5
310
C8917738143CA680F4AA299D66A042CEB3354A2684DC9D8D178FE0D9B8B41CAAD720F880EE7EF93C0C18769E099ECC04D5A102C8049A8A05632F4DDF376CF1DE0F6BB65C2F8627B65A33C6BB62177CEBBDAD973006829F89F22E814B54F4BC2BE347F8AA8F681390B50FA73F804400B5F542E796F19FF974E7F78DB802FE05
310
E207504B0304140006080800CC70623B16AB87BA640500003C100000340000006662782F39464131463745442D413632322D343644302D413938332D3331353338454246344243312F6F626A656374732E786D6CAD575B6FA33818FD2B887DE6924B3BED8A326A92B68A663B534DD4D13E548A0C38942D60649B369D5FBFC7
310
600890A493BDE42160637FD7F31D7FF63E6FB3D478A55C242CBF3247B66B1A340F5994E4F19559CA8D75611A9F7D8F33263BCB4C232719BD32D5B4E97B316765A1A722BA21652A07B3B7B33F0D11D29C9A46981221AE4C113ED38CD8A4942CA2E2C58E882476BCD9DA23BB5ED8171B73523C0F841684D35CC252CCE79062D4
310
468DFA43D7747CCF51DF7D4FFDEB5593E3AB9CCA9FBEFE241792E4E19EB28198C968BAB8199F5D5A67D3E9C49A9E8F47D6EC76B6B0469F26EEFC7C3EBFBCBEB98462213924694B38DD98FE1D62C393D073EA4FADC5DAF04326852CCF6958F90F0F2B9BB5C48816348F90C7840A68EB78EDF68723159BCEE7891A6B95DDE9D3
310
BCEAEEE8086A6C6F9E5D4B59F0175C10A7A0820BAA5055C7473B5AE3CFDD452D602CD5DF12616444529E90D448938013FE6EFA58AA96F85E4F8C42275708571E98FE6827AF6B2B4AE3D7D83D64E5A64C53054DD3AF90BD06FEA9149565C94FCA0F6B834DC85599E4F2423B24DF0B6AFA979E534DFA9E7A4CC6FA631D486393
310
921829879BF5D781A373557BCB85E97FB90DB62B558F8795179C15944B051F40AB495CF35451D26A4727654E6D8033BD98EF82F21D91FF8AF2DD9982BCF1643BDD4EB516C9492E368C67C88DED563FC36D5EACF66DFF057C3658BDBFA69DF9578B3DA735B64F18C7F20770A9D45CFCF7FCF563D6456A277DBEF78A02637CA2
310
43B90A490AEAB94F72244481D24819A6C0E59B606BFA4B3025981DBB48EAB701D97BF19C577CC77F2D1B6C55A9EF3C732474C0B727303F625995056C3B02963D9EAC146BE78EC5FCEC7FA999EBC5EACBAAE41B12D27B4D2C0BBA49F244E2ECDC81B76B502F113D8F5EE8FB1BE3111CDD4FC2AA9B844CAB1288B68AB90A7CDC
310
1C166AB0D3DC5310625FCC14E779BFD0709F8890A629C9292B1B2DED31A4B0DA928CEE135085754027E3018A397D4D5427D15BD1330B677DC8934285AC3DF45A9EB68FF8F2B8FC0A509AFEECFD0FF2DE25CC6047F7214B195F07EFEB9A094D800F7BFAE8FED187B78EA8A3A400F115961BCAD1215E47C966530AF0EE8128FE
310
58CEBB996A8964FFA529A046635D9353B0336A8F700DDF46271A024E70B0B37C9DE01847591E54DED53D54202AB947E4076556AC49C6CA5C9E1226B7F1A7B1BE15DEED62C41B91E1B3E9AFAAA735036547343A925075041DF0A9979E893B391F8FCFA6967B3EFB644DCF6E5CEBFAE272625DCC6FAF3FB93793C5F90CE1EF57
310
407342756B10D1C489E8953CD1617E5CEECAD6F4EF8914CE5D5D504E5C3F1F9736DA62CFC11E00BCDDB8CC8A9466349744C1F75EBDA4DF09BA8A9E8C7A7E9991989E20E5DBDD6A6003664ED8F7A04A8DBE0DF6EAD9B9AA858342E47399053949D2C146EDB85DE4B176BB0965FBAC19BD19AA918E27FA50C1D22402E144464C
310
59462568E704B6E71915404CB72B8FF4EDE184DDAF753F284990D2C6926782963815403548A70C657FDEF80D2D9CEAA2AE4C1C76F60BFE74219A06527D6582DF6412526107381E55E353090704D085B52408D0933C4ED159D79BDA71BB4BC506F4831350EB6F979CD22D69BF7AC49B91A2C0A9DDA3D5CA36AD20FC478E37E6
310
1844E2352865EBCB6EA275A652E3836BE04EFB400BF1A2556F515F1FBB35B2AB35BD889C744FFA1004B5544B121E57F70215746DD2F5E2C1412B602CBF19455AC6C8E5E9922C4E01E65215385004546899059180EAFCF7A707CE7017CD8CDB0410789AB32C63B91E5CEBBBACB17AC6CD347A022D5075FD106377347AAABA7E
310
7D11590744509B44E205134DC1290F06580320F78E537D3D73540E06CB970B431F185308AD40BBD794D6D77003C5A36E8EAA54BA64597CD8F83BD552A080A365F7FF06504B0304140006080000CC70623B000000000000000000000000350000006662782F39464131463745442D413632322D343644302D413938332D3331
310
353338454246344243312F76657274696365732E62696E504B0304140006080800CC70623BF270F1330600000004000000360000006662782F39464131463745442D413632322D343644302D413938332D3331353338454246344243312F747269616E676C65732E62696E636660600000504B0304140006080000CC70623B
310
000000000000000000000000370000006662782F39464131463745442D413632322D343644302D413938332D3331353338454246344243312F617474726962757465732E62696E504B0304140006080800CC70623B08DA0BD19000000041010000360000006662782F39464131463745442D413632322D343644302D413938
310
332D3331353338454246344243312F6469726563746F72792E786D6C858F410AC3201045AF22B36F53E9A60B35CBEEBAE80D244E44489C6234F4F835464A48035D0DF398FF9F8AF63D0E6CC63039F212F8F9020C7D47C6792B21C5FE7403D62A1188E2E60C98D7234A5830286103A55745067B9D86B8A3CF9C7F90C11DE607
310
FB144396D7B6A82D282E9A152AD114D5EF2CB866EEE831B8EEA07A7BB5A8D7D61A2BAAEB7FD5F70921FF497D00504B0304140006080800CC70623B0D6EF93BFE000000A00100003B0000006662782F39464131463745442D413632322D343644302D413938332D3331353338454246344243312F7265736F75726365732F63
310
6F72652E786D6C8D50596E833010BD0A9ADFCA60B334011947A8694ED00B586642AC041B79A97AFC9A40A5F6AF3F33A3B7689E1E3F7DCD8FEC139DD7D6F4C0720A191A65476DA61E62B892236427C19DB5E1970C322367EC618541F0C9D9B8EC90B226A009093576C41D94DE63804C3DD2D18357379C652E63480A7FCF17A9
310
EE72C29CE5894E3AC17D702940B63D59270887DE46A7D0F36263058F518FBB468FE9A7BE6A7420864373B8D4873369AA8691FA421B3294352543C5CAF65C0F6FEF43CB8BD52C78D0F34F46E550061C419494B6843142CB0F5677F4B52BEB177AEC28E5C52AFF638ACBF84F53D42654E51E77B379102C05791282176B5F693D
310
CB4C7BED567C03504B010214000A0000080000CC70623B3DEE336E79000000790000001B00000000000000000000000000000000006175746F6465736B2D64657369676E2D7061636B6167652E786D6C504B01021400140006080800CC70623BD486FD9CA0000000F40000001300000000000000000000000000B20000005B
310
436F6E74656E745F54797065735D2E786D6C504B01021400140006080800CC70623B1EC5D7A3EB0000007C010000080000000000000000000000000083010000636F72652E786D6C504B01021400140006080800CC70623B55019EA25F0000007C000000070000000000000000000000000094020000636E782E786D6C504B
310
01021400140006080800CC70623B8C9102E971010000D40300000C00000000000000000000000000180300006662782F636F72652E786D6C504B01021400140006080800CC70623BFFEA85907E0000009D0000000B00000000000000000000000000B30400006662782F636E782E786D6C504B01021400140006080800CC70
310
623B4FEEA4082C0100001202000031000000000000000000000000005A0500006662782F39464131463745442D413632322D343644302D413938332D3331353338454246344243312F636F72652E786D6C504B01021400140006080800CC70623BAD7543B64E010000330300003000000000000000000000000000D5060000
310
6662782F39464131463745442D413632322D343644302D413938332D3331353338454246344243312F636E782E786D6C504B01021400140006080800CC70623B16AB87BA640500003C1000003400000000000000000000000000710800006662782F39464131463745442D413632322D343644302D413938332D3331353338
310
454246344243312F6F626A656374732E786D6C504B01021400140006080000CC70623B0000000000000000000000003500000000000000000000000000270E00006662782F39464131463745442D413632322D343644302D413938332D3331353338454246344243312F76657274696365732E62696E504B01021400140006
310
080800CC70623BF270F133060000000400000036000000000000000000000000007A0E00006662782F39464131463745442D413632322D343644302D413938332D3331353338454246344243312F747269616E676C65732E62696E504B01021400140006080000CC70623B0000000000000000000000003700000000000000
310
000000000000D40E00006662782F39464131463745442D413632322D343644302D413938332D3331353338454246344243312F617474726962757465732E62696E504B01021400140006080800CC70623B08DA0BD190000000410100003600000000000000000000000000290F00006662782F39464131463745442D413632
310
322D343644302D413938332D3331353338454246344243312F6469726563746F72792E786D6C504B01021400140006080800CC70623B0D6EF93BFE000000A00100003B000000000000000000000000000D1000006662782F39464131463745442D413632322D343644302D413938332D3331353338454246344243312F7265
310
736F75726365732F636F72652E786D6C504B0506000000000E000E0080040000641100000000
  0
XRECORD
  5
2873
102
{ACAD_REACTORS
330
173
102
}
330
173
100
AcDbXrecord
280
     1
102
MATERIAL
148
0.0
149
0.0
149
0.0
 93
        0
 94
       63
282
     0
 72
     1
 77
     1
171
     1
175
     1
179
     1
273
     0
  0
XRECORD
  5
175
102
{ACAD_REACTORS
330
173
102
}
330
173
100
AcDbXrecord
280
     1
270
     1
271
     1
  0
XRECORD
  5
174
102
{ACAD_REACTORS
330
173
102
}
330
173
100
AcDbXrecord
280
     1
270
     1
271
     1
  0
XRECORD
  5
1FB
102
{ACAD_REACTORS
330
173
102
}
330
173
100
AcDbXrecord
280
     1
 70
     0
 90
1673772943
  1
ECE7A1D2-D628-4531-984C-D00F80459256
310
504B03040A0000080000CC70623B3DEE336E79000000790000001B0000006175746F6465736B2D64657369676E2D7061636B6167652E786D6C3C3F786D6C2076657273696F6E3D22312E302220656E636F64696E673D227574662D3822203F3E3C666F726D6174733E3C666F726D61743E687474703A2F2F736368656D612E
310
6175746F6465736B2E636F6D2F64657369676E2D7061636B6167652F323030393C2F666F726D61743E3C2F666F726D6174733E504B0304140006080800CC70623BD486FD9CA0000000F4000000130000005B436F6E74656E745F54797065735D2E786D6C7D8EC10E82300C865F65E91D8A1E8C310C0EEA1BF002731658846E
310
D98AC1B77784ABF1D8FE5FBFBF75BBCE937A534CCEB38643598122B6FEE978D0B0485F9C41B54DDD7D022595594E1A469170414C76A4D9A4D207E29CF43ECE46F218070CC6BECC4078ACAA135ACF422C856C0E68EA1BF5669944DDD7BCDE7B1F8E415D77AECB980613C2E4AC91FC167A2B244592486606FC29C8FD7F045B9A
310
EF7053A7E60B504B0304140006080800CC70623BD9DDAED0EC0000007C01000008000000636F72652E786D6C8D90416EC3201045AF82665B61836D9CD8C2444DD39CA01740405C94182C03558F5F9C3852BBEB6A467FFE9B197D7EF89E6EE8CB2CC17A37002D0820E394D7D68D03A478C17B4007C117EFE32F1B20272733C0
310
2A83E0E3E2D3BC49CABB685CCCAAF3DA6CA20CC14440EA969B0182FA34932C648AD911AEC52CD5558EA6A0CF2EC329598D1E47ACCEFBECC59A050463A7EA5833865FEBDD0E37353BE3EE8DBDE3F6786A48D375FBF6CC78B9C282473B3DEFABC5C86834888A900E538A49F5419B9EB47DD5BC907D4F082F57FB1F28CDFA9F50
310
B22ED6D5F6EE030B20687EE43E10BC5CB3C8E51E54AE6B6EE207504B0304140006080800CC70623B55019EA25F0000007C00000007000000636E782E786D6C4DCB3B0E80201045D1AD90E915ED2CF8AC45050C11660C8261F98AB1B07AC9C97D42D718D865D3E909258CFD00CCE24AC6E326A164D74DC0B4128928FF326038
310
472BA13128B1252AC747C6BAB984FC68F0B87FE8960A5C09FE86CFB69FBA01504B0304140006080800CC70623BA24EB22D72010000D40300000C0000006662782F636F72652E786D6CC5535B6E833010BC8AE5DF0A6C5E49888CA3A6694ED00B38E05014B091B1518EDFE511A5A9D228FD2A1F60CDEC7A67C6986DCE4D8D7A
310
69BA4AAB0C073EC548AA5C17952A33ECECD15B61B4E1CC686DBF9561A44423333CC098B3D268D7CE50AE9595CA02AA74216750749DB418E5352C32DCE59FB211BE70162ABA93DF8AFC244AE9073ED050C759670D0840D390E18DF9F1706664C23973AE2A66B62A605A75ACA4C13C4976E1364A12EF355A2EBD384AF65EFA96
310
BC7B8BED2EA6719AAE16FB8491A199335B351775B991C2CA02F390D2D40B028F861F41BCA68B7518BFD0D59A524686F29B26D7164F36B94AD9289CE54E6D1DE6010819891F6E21228B3AD1831EC219194284CF98F06DD01008846CC5A1BEF83801D4CBDC6A1303536877A57A513B0953A94FC707FDBE6064EA84A9E3E6E0FA
310
EE8CF0E9198F7784A316AA0413C2C2F2E0ECA0934D1AE6D05A69BCDE9E91D2A611F573361E38FC1375157F5752AE6B6DFE4B11990F88CCBF0719EE23FF02504B0304140006080800CC70623B408A7D3B7C0000009D0000000B0000006662782F636E782E786D6C4DCCD10A83201886E15B91FFDC552A92A0064DBC8F581632
310
D3703A76F9ABD1C18E3E78F878E5F0D9027ABBFCF2292AE86E2D20171F69F6715550CB827B40839639A5F2770314A7CD293819B45C73AAFB45B35BA61ACAA1C1C7E7855C58C15BC331339661262CC762340413D68D77DA5B42298546CBE6573AF60CEB2F504B0304140006080800CC70623B449FB9BD290100001202000031
310
0000006662782F36394639363044362D344446342D343946362D394244322D3234314243333846323333332F636F72652E786D6C8D515B6EC32010BC0AE22B55850D98B871848994463E412FE002495162B07854397EA176A4F62F3F2C9A9D991D587EB84F37F0AD7D30CEF6905418026DA553C65E7A98E219ED203808EE9D
310
8B7F6810D871D23D2C3014FCE25D9A57483A1BB58D19B54EE9151C43D0110279CB971E06F9A5A7B11A53CC8C70ADE6515EC78BAE4895DB992778883E0700CB907242D17643D7E2538BD869608875438BBAE38922CAC8F1BDD90DB4691A5E2F42C153326A951B95E398B3D1FE599322163C9AE9115F7A3D46ADA0A018778810
310
84E907617BDCEE297BC5BB3DC6BC2EF47FA234AB2745C9D8D8D035EE220B50105E2F0DC1954B9FB747187D9F9D8FA0CCDB042D5FA0C015C65B42DF78BD10F3F3B363CB56C7109DCFDFBBB97E662ED92EB62D13BC2E1BCAE5777DB9966D8A1F504B0304140006080800CC70623BAD7543B64E01000033030000300000006662
310
782F36394639363044362D344446342D343946362D394244322D3234314243333846323333332F636E782E786D6CD593CD6EC32010845F0571AD6CE3D48AD20813A9873E410FBD12D82434182C7EAAE6EDBB2424CD25871E7B41D6EC30B3FA84F9E67BB2E40B4234DE8DB46F1925E094D7C6ED479AD3AE5951B2113C789FEE
310
6C943839C1488B4C05DF079FE72A69D8C96C13AAD6B8631503449F83828872B949AC57D26200B826A308D316B4064D6E46FCDA41C05550DC9E483A00797BFD207EFB092A45DE9514C1BBD22178396BD39D891265658C238DEA00936C654E5E433CB65A26D9F6EDB5EBC14EBF49A45CB856E66048291F6939A9A81BB5C89177
310
38143CA680F4AA299D66A042CEB3354A2684DC9D8D178FE0D9B8B41CAAD720F880EE7EF93C0C18769E099ECC04D5A102C8049A8A05632F4DDF376CF1DE0F6BB65C2F8627B65A33C6BB62177CEBBDAD973006829F89F22E814B54F4BC2BE347F8AA8F681390B50FA73F804400B5F542E796F19FF974E7F78DB802FE05E20750
310
4B0304140006080800CC70623B8D05915C650500003B100000340000006662782F36394639363044362D344446342D343946362D394244322D3234314243333846323333332F6F626A656374732E786D6CAD575B6FA33814FE2B887D06429276DA1565D4266D158D3A339A6846FB502932E050B66023DB74D2FDF5FB190C01
310
9276B2973C046C8ECFF53B17071F77456EBD502133CEAE6CDF9DD81665314F32965ED995DA3A17B6F5310C04E7AA47665B8C14F4CAD6DB7618A48257A5D94AE89654B91AEDDEDDFC61C998326A5B714EA4BCB265FC440BE2924AF184CA6737218AB8E976E7FA6E4338649B0A523E8D98964450A6A029F619B8588D52FE7039
310
B1BD30F0F4F730D0FF866AF6369557DB33949F31A9088B0F848DD8CCFCF9F2767A76E99CCDE733677E3EF59D9BBB9BA5E37F984D16E78BC5E5F5ED25044B25C0C96822E8D60EEFE11B91C581D77CEA34368A1F5329E68CD1B8B61F16D63A1B8E092D294B10C78C4A48EB593D192E7DED9BDEE7995E1B91FDEDD3ACEA9FE831
310
6A756F9F7D4D79F4274C90A7A04248AA51D5F8C718DAE06FB2F75AC4796EBE65D22A88A22223B995679120E2D50E41AA49C260C046A35368846B0BECD0DFF3EBEB8AD4F835768F69B9ADF25C43D30E6B646F807FAA64AD59F61715C7A54127C4AACA98BA3006A9D792DAE165E0D59B61A01FB3A9F9D838D2DAE62445C86166
310
F37564E842E7DE6A69879FEEA2DD5AE7E371E1A5E025154AC307D06A03D73EB5978C58FFA4C8E9033066E0F3BD53BEC1F39F91BE7B55103791EDE6BBB991A2046172CB4581D8B893FA674DDA17A77B3B7C413D1B511FD2743BFF8A38F03A658705E3ADF8015C3A3417FF3D7E439FF591DA0B5F18BC20C1B8981957AE6392A3
310
F43C640C01D1A0B4728E2DD4F26DB4B3C3152A252A3B4E913CEC1C72F012782FF88EFF8637AA552DBEF76408E8A8DE9E50F9E1CB3A2DA0DB1B6039A893B56063DC5B3E3FFB5F72E67AB9FEB4AEC496C4F4C1149625DD662C53E89D7BF0F6151A046260D1337DFDC94502430F83B0EE07A130A224BCAD7DAE1D9FB6CD422FF6
310
920702629C4BB9AE79C12F243C6432A6794E18E5552BA56B431AAB5D91317302B2B071E86C3A42B1A02F999E24061403B5D0EB639195DA655DD3EBEAB4FB862DDF579F014AD0E73C22F99E28DA57FB98E75C6CA2D74D53086D600F4786E0FE3144B771A8A7B900F03594DB8A633CBC49B2EDB69228BB479CF863B5E807AAAB
310
23872F6DFEB4129B949CA33823F58830E86D65621E10047D9DB34D862E8EAC3C2ABC2F7B2C40D67CDFE01F5545B92105AF983AC54D93D69E56FB8E797F88913F898A9FEC705D3F9D1B54EC8426FB500D40A03BD0119B06E1B95DDC7EB8F6975367793EBD70E66733DFB9BC982F9CE564727731999F5D4ECFCE3B8D6A4DC2A0
310
6D50FD148437D110834A64C6CDDF57FBACB5C307A2A477DFE4939736CFEF2B175371E0E10CF0DD1D5C15654E0BCA14D1E87DD02FF93782A162C0A3D95F1524A52770F972BF1EE9809D13CE7DD599467F8ECE9ADD85CE85A34CD45355448C64F9E8A031DC2D596ACC6E5DD93D9B82DE2EF5CAF81363A8E47996A0DE24564A79
310
4115AACE09C55E14540231FDA13C319787134EBF34E3A022514E5B4D9E0826E25C02D5805B15ABE1BEF51B26383D445DD9E875EE33FE4C22DA16427D65A3BCA92CA6D28DD01DF5DC53330704308475351050232CCD31583787BA75774AFB06E5070DD0C8EF484E19968C5D83BA5B90B244D31E54D55A372320FE4786B7EA58
310
44E135AA5467CB7EA333A61683CC6A8C3257034C10CF46F40EF9F5BE59BE5BD30C3C72D235E95D10345C1D45445A5F0BB47E46A5EBE5570F9380B5FA629579952296A773720405982B9DE04011506178964401AA8BDF1FBF0A8EAB6861DD6580C0E38217056766716DAEB2D6FA0917D3E4116581EADB879C4E7CFFB11EFACD
310
3D641311495D92C8676CB409A72D18610D803CE8A626049E8EC1887CB5B44CC39883690DDA8399B4B9855B481E7D71D4A9D22F96E5BB73BF5793020C02137BF837504B0304140006080000CC70623B000000000000000000000000350000006662782F36394639363044362D344446342D343946362D394244322D32343142
310
43333846323333332F76657274696365732E62696E504B0304140006080800CC70623BF270F1330600000004000000360000006662782F36394639363044362D344446342D343946362D394244322D3234314243333846323333332F747269616E676C65732E62696E636660600000504B0304140006080000CC70623B0000
310
00000000000000000000370000006662782F36394639363044362D344446342D343946362D394244322D3234314243333846323333332F617474726962757465732E62696E504B0304140006080800CC70623B08DA0BD19000000041010000360000006662782F36394639363044362D344446342D343946362D394244322D
310
3234314243333846323333332F6469726563746F72792E786D6C858F410AC3201045AF22B36F53E9A60B35CBEEBAE80D244E44489C6234F4F835464A48035D0DF398FF9F8AF63D0E6CC63039F212F8F9020C7D47C6792B21C5FE7403D62A1188E2E60C98D7234A5830286103A55745067B9D86B8A3CF9C7F90C11DE607FB14
310
4396D7B6A82D282E9A152AD114D5EF2CB866EEE831B8EEA07A7BB5A8D7D61A2BAAEB7FD5F70921FF497D00504B0304140006080800CC70623BCA768048FE000000A00100003B0000006662782F36394639363044362D344446342D343946362D394244322D3234314243333846323333332F7265736F75726365732F636F72
310
652E786D6C8D50596E833010BD0A9ADFCA60D600328E9AA639412F609909B1126CE4A5EAF16B0295DABFFECC8CDEA2797AECF8353F924FB44E193D409E5248504B332A3D0D10FC95B4901C39B3C6F85F3248B49871801506CE266BC2B243D2688FDA47549B11775038871E12F988C7004EDE7016A9083E2ADC3D5D84BC8B09
310
D33C8D74D471E6BC8D0192EDC93A815B742658898E651BCB59086ADC356A8C3FD555A1055ED7E7E254D615792D0F075295F585746FF53B694EE78A565DD736979A65AB9933AFE69F8CD2A2F038022F28ED489E135A7CE4554F9BBEA85E68DB53CAB255FEC71496F19FA6A0B42F8B3DEE6673C0F318E4497096AD7DC5F52C33
310
EEB55BFE0D504B010214000A0000080000CC70623B3DEE336E79000000790000001B00000000000000000000000000000000006175746F6465736B2D64657369676E2D7061636B6167652E786D6C504B01021400140006080800CC70623BD486FD9CA0000000F40000001300000000000000000000000000B20000005B436F
310
6E74656E745F54797065735D2E786D6C504B01021400140006080800CC70623BD9DDAED0EC0000007C010000080000000000000000000000000083010000636F72652E786D6C504B01021400140006080800CC70623B55019EA25F0000007C000000070000000000000000000000000095020000636E782E786D6C504B0102
310
1400140006080800CC70623BA24EB22D72010000D40300000C00000000000000000000000000190300006662782F636F72652E786D6C504B01021400140006080800CC70623B408A7D3B7C0000009D0000000B00000000000000000000000000B50400006662782F636E782E786D6C504B01021400140006080800CC70623B
310
449FB9BD290100001202000031000000000000000000000000005A0500006662782F36394639363044362D344446342D343946362D394244322D3234314243333846323333332F636F72652E786D6C504B01021400140006080800CC70623BAD7543B64E010000330300003000000000000000000000000000D20600006662
310
782F36394639363044362D344446342D343946362D394244322D3234314243333846323333332F636E782E786D6C504B01021400140006080800CC70623B8D05915C650500003B10000034000000000000000000000000006E0800006662782F36394639363044362D344446342D343946362D394244322D32343142433338
310
46323333332F6F626A656374732E786D6C504B01021400140006080000CC70623B0000000000000000000000003500000000000000000000000000250E00006662782F36394639363044362D344446342D343946362D394244322D3234314243333846323333332F76657274696365732E62696E504B010214001400060808
310
00CC70623BF270F13306000000040000003600000000000000000000000000780E00006662782F36394639363044362D344446342D343946362D394244322D3234314243333846323333332F747269616E676C65732E62696E504B01021400140006080000CC70623B00000000000000000000000037000000000000000000
310
00000000D20E00006662782F36394639363044362D344446342D343946362D394244322D3234314243333846323333332F617474726962757465732E62696E504B01021400140006080800CC70623B08DA0BD190000000410100003600000000000000000000000000270F00006662782F36394639363044362D344446342D
310
343946362D394244322D3234314243333846323333332F6469726563746F72792E786D6C504B01021400140006080800CC70623BCA768048FE000000A00100003B000000000000000000000000000B1000006662782F36394639363044362D344446342D343946362D394244322D3234314243333846323333332F7265736F
310
75726365732F636F72652E786D6C504B0506000000000E000E0080040000621100000000
  0
XRECORD
  5
176
102
{ACAD_REACTORS
330
173
102
}
330
173
100
AcDbXrecord
280
     1
270
     1
271
     1
  0
XRECORD
  5
177
102
{ACAD_REACTORS
330
173
102
}
330
173
100
AcDbXrecord
280
     1
270
     1
271
     1
  0
XRECORD
  5
2895
102
{ACAD_REACTORS
330
2894
102
}
330
2894
100
AcDbXrecord
280
     1
102
ACAD_ROUNDTRIP_2012_MLEADER_STYLE
298
     1
  0
XRECORD
  5
28A7
102
{ACAD_REACTORS
330
28A6
102
}
330
28A6
100
AcDbXrecord
280
     1
102
DISPLAYNAME
  1
Metric50
102
FLAGS
 90
        0
  0
CELLSTYLEMAP
  5
2867
102
{ACAD_REACTORS
330
162
102
}
330
162
100
AcDbCellStyleMap
 90
        3
300
CELLSTYLE
  1
TABLEFORMAT_BEGIN
 90
        5
170
     1
 91
        0
 92
    32768
 62
   257
 93
        1
300
CONTENTFORMAT
  1
CONTENTFORMAT_BEGIN
 90
        0
 91
        0
 92
      512
 93
        0
300

 40
0.0
140
1.0
 94
        5
 62
     0
340
11
144
6.0
309
CONTENTFORMAT_END
171
     1
301
MARGIN
  1
CELLMARGIN_BEGIN
 40
1.5
 40
1.5
 40
1.5
 40
1.5
 40
4.5
 40
4.5
309
CELLMARGIN_END
 94
        6
 95
        1
302
GRIDFORMAT
  1
GRIDFORMAT_BEGIN
 90
        0
 91
        1
 62
     0
 92
       -2
340
14
 93
        0
 40
1.125
309
GRIDFORMAT_END
 95
        2
302
GRIDFORMAT
  1
GRIDFORMAT_BEGIN
 90
        0
 91
        1
 62
     0
 92
       -2
340
14
 93
        0
 40
1.125
309
GRIDFORMAT_END
 95
        4
302
GRIDFORMAT
  1
GRIDFORMAT_BEGIN
 90
        0
 91
        1
 62
     0
 92
       -2
340
14
 93
        0
 40
1.125
309
GRIDFORMAT_END
 95
        8
302
GRIDFORMAT
  1
GRIDFORMAT_BEGIN
 90
        0
 91
        1
 62
     0
 92
       -2
340
14
 93
        0
 40
1.125
309
GRIDFORMAT_END
 95
       16
302
GRIDFORMAT
  1
GRIDFORMAT_BEGIN
 90
        0
 91
        1
 62
     0
 92
       -2
340
14
 93
        0
 40
1.125
309
GRIDFORMAT_END
 95
       32
302
GRIDFORMAT
  1
GRIDFORMAT_BEGIN
 90
        0
 91
        1
 62
     0
 92
       -2
340
14
 93
        0
 40
1.125
309
GRIDFORMAT_END
309
TABLEFORMAT_END
  1
CELLSTYLE_BEGIN
 90
        1
 91
        1
300
_TITLE
309
CELLSTYLE_END
300
CELLSTYLE
  1
TABLEFORMAT_BEGIN
 90
        5
170
     1
 91
        0
 92
        0
 62
   257
 93
        1
300
CONTENTFORMAT
  1
CONTENTFORMAT_BEGIN
 90
        0
 91
        0
 92
      512
 93
        0
300

 40
0.0
140
1.0
 94
        5
 62
     0
340
11
144
4.5
309
CONTENTFORMAT_END
171
     1
301
MARGIN
  1
CELLMARGIN_BEGIN
 40
1.5
 40
1.5
 40
1.5
 40
1.5
 40
4.5
 40
4.5
309
CELLMARGIN_END
 94
        6
 95
        1
302
GRIDFORMAT
  1
GRIDFORMAT_BEGIN
 90
        0
 91
        1
 62
     0
 92
       -2
340
14
 93
        0
 40
1.125
309
GRIDFORMAT_END
 95
        2
302
GRIDFORMAT
  1
GRIDFORMAT_BEGIN
 90
        0
 91
        1
 62
     0
 92
       -2
340
14
 93
        0
 40
1.125
309
GRIDFORMAT_END
 95
        4
302
GRIDFORMAT
  1
GRIDFORMAT_BEGIN
 90
        0
 91
        1
 62
     0
 92
       -2
340
14
 93
        0
 40
1.125
309
GRIDFORMAT_END
 95
        8
302
GRIDFORMAT
  1
GRIDFORMAT_BEGIN
 90
        0
 91
        1
 62
     0
 92
       -2
340
14
 93
        0
 40
1.125
309
GRIDFORMAT_END
 95
       16
302
GRIDFORMAT
  1
GRIDFORMAT_BEGIN
 90
        0
 91
        1
 62
     0
 92
       -2
340
14
 93
        0
 40
1.125
309
GRIDFORMAT_END
 95
       32
302
GRIDFORMAT
  1
GRIDFORMAT_BEGIN
 90
        0
 91
        1
 62
     0
 92
       -2
340
14
 93
        0
 40
1.125
309
GRIDFORMAT_END
309
TABLEFORMAT_END
  1
CELLSTYLE_BEGIN
 90
        2
 91
        1
300
_HEADER
309
CELLSTYLE_END
300
CELLSTYLE
  1
TABLEFORMAT_BEGIN
 90
        5
170
     1
 91
        0
 92
        0
 62
   257
 93
        1
300
CONTENTFORMAT
  1
CONTENTFORMAT_BEGIN
 90
        0
 91
        0
 92
      512
 93
        0
300

 40
0.0
140
1.0
 94
        2
 62
     0
340
11
144
4.5
309
CONTENTFORMAT_END
171
     1
301
MARGIN
  1
CELLMARGIN_BEGIN
 40
1.5
 40
1.5
 40
1.5
 40
1.5
 40
4.5
 40
4.5
309
CELLMARGIN_END
 94
        6
 95
        1
302
GRIDFORMAT
  1
GRIDFORMAT_BEGIN
 90
        0
 91
        1
 62
     0
 92
       -2
340
14
 93
        0
 40
1.125
309
GRIDFORMAT_END
 95
        2
302
GRIDFORMAT
  1
GRIDFORMAT_BEGIN
 90
        0
 91
        1
 62
     0
 92
       -2
340
14
 93
        0
 40
1.125
309
GRIDFORMAT_END
 95
        4
302
GRIDFORMAT
  1
GRIDFORMAT_BEGIN
 90
        0
 91
        1
 62
     0
 92
       -2
340
14
 93
        0
 40
1.125
309
GRIDFORMAT_END
 95
        8
302
GRIDFORMAT
  1
GRIDFORMAT_BEGIN
 90
        0
 91
        1
 62
     0
 92
       -2
340
14
 93
        0
 40
1.125
309
GRIDFORMAT_END
 95
       16
302
GRIDFORMAT
  1
GRIDFORMAT_BEGIN
 90
        0
 91
        1
 62
     0
 92
       -2
340
14
 93
        0
 40
1.125
309
GRIDFORMAT_END
 95
       32
302
GRIDFORMAT
  1
GRIDFORMAT_BEGIN
 90
        0
 91
        1
 62
     0
 92
       -2
340
14
 93
        0
 40
1.125
309
GRIDFORMAT_END
309
TABLEFORMAT_END
  1
CELLSTYLE_BEGIN
 90
        3
 91
        2
300
_DATA
309
CELLSTYLE_END
  0
XRECORD
  5
286C
102
{ACAD_REACTORS
330
162
102
}
330
162
100
AcDbXrecord
280
     1
102
ACAD_ROUNDTRIP_PRE2007_TABLESTYLE
 90
      512
 91
        0
  1

 92
      512
 93
        0
  2

 94
      512
 95
        0
  3

  0
XRECORD
  5
287F
102
{ACAD_REACTORS
330
287E
102
}
330
287E
100
AcDbXrecord
280
     1
102
RTVSPost2010Prop28
280
     1
102
RTVSPost2010PropOp28
 70
     1
102
RTVSPost2010Prop29
280
     1
102
RTVSPost2010PropOp29
 70
     1
102
RTVSPost2010Prop30
280
     0
102
RTVSPost2010PropOp30
 70
     1
102
RTVSPost2010Prop31
280
     0
102
RTVSPost2010PropOp31
 70
     1
102
RTVSPost2010Prop32
280
     0
102
RTVSPost2010PropOp32
 70
     1
102
RTVSPost2010Prop33
280
     0
102
RTVSPost2010PropOp33
 70
     1
102
RTVSPost2010Prop34
280
     0
102
RTVSPost2010PropOp34
 70
     1
102
RTVSPost2010Prop35
280
     0
102
RTVSPost2010PropOp35
 70
     1
102
RTVSPost2010Prop36
280
     0
102
RTVSPost2010PropOp36
 70
     1
102
RTVSPost2010Prop37
 90
       50
102
RTVSPost2010PropOp37
 70
     1
102
RTVSPost2010Prop38
140
0.0
102
RTVSPost2010PropOp38
 70
     1
102
RTVSPost2010Prop39
140
1.0
102
RTVSPost2010PropOp39
 70
     1
102
RTVSPost2010Prop40
 90
        0
102
RTVSPost2010PropOp40
 70
     1
102
RTVSPost2010Prop41ColorIndex
 90
       18
102
RTVSPost2010Prop41ColorRGB
 90
        0
102
RTVSPost2010PropOp41
 70
     1
102
RTVSPost2010Prop42
 90
       50
102
RTVSPost2010PropOp42
 70
     1
102
RTVSPost2010Prop43
 90
        3
102
RTVSPost2010PropOp43
 70
     1
102
RTVSPost2010Prop44ColorIndex
 90
        5
102
RTVSPost2010Prop44ColorRGB
 90
      255
102
RTVSPost2010PropOp44
 70
     1
102
RTVSPost2010Prop45
280
     0
102
RTVSPost2010PropOp45
 70
     1
102
RTVSPost2010Prop46
 90
       50
102
RTVSPost2010PropOp46
 70
     1
102
RTVSPost2010Prop47
 90
       50
102
RTVSPost2010PropOp47
 70
     1
102
RTVSPost2010Prop48
 90
       50
102
RTVSPost2010PropOp48
 70
     1
102
RTVSPost2010Prop49
280
     0
102
RTVSPost2010PropOp49
 70
     1
102
RTVSPost2010Prop50
 90
       50
102
RTVSPost2010PropOp50
 70
     1
102
RTVSPost2010Prop51ColorIndex
 90
      256
102
RTVSPost2010Prop51ColorRGB
 90
-16777216
102
RTVSPost2010PropOp51
 70
     0
102
RTVSPost2010Prop52
140
1.0
102
RTVSPost2010PropOp52
 70
     0
102
RTVSPost2010Prop53
 90
        2
102
RTVSPost2010PropOp53
 70
     1
102
RTVSPost2010Prop54
  1
strokes_ogs.tif
102
RTVSPost2010PropOp54
 70
     1
102
RTVSPost2010Prop55
280
     0
102
RTVSPost2010PropOp55
 70
     1
102
RTVSPost2010Prop56
140
1.0
102
RTVSPost2010PropOp56
 70
     1
102
RTVSPost2010Prop57
140
1.0
102
RTVSPost2010PropOp57
 70
     1
102
RTVSPropertyOp0
 70
     1
102
RTVSPropertyOp1
 70
     1
102
RTVSPropertyOp2
 70
     1
102
RTVSPropertyOp3
 70
     1
102
RTVSPropertyOp4
 70
     1
102
RTVSPropertyOp5
 70
     1
102
RTVSPropertyOp6
 70
     1
102
RTVSPropertyOp7
 70
     1
102
RTVSPropertyOp8
 70
     1
102
RTVSPropertyOp9
 70
     1
102
RTVSPropertyOp10
 70
     1
102
RTVSPropertyOp11
 70
     1
102
RTVSPropertyOp12
 70
     1
102
RTVSPropertyOp13
 70
     1
102
RTVSPropertyOp14
 70
     1
102
RTVSPropertyOp15
 70
     1
102
RTVSPropertyOp16
 70
     1
102
RTVSPropertyOp17
 70
     1
102
RTVSPropertyOp18
 70
     1
102
RTVSPropertyOp19
 70
     1
102
RTVSPropertyOp20
 70
     1
102
RTVSPropertyOp21
 70
     1
102
RTVSPropertyOp22
 70
     1
102
RTVSPropertyOp23
 70
     1
102
RTVSPropertyOp24
 70
     1
102
RTVSPropertyOp25
 70
     1
102
RTVSPropertyOp26
 70
     1
102
RTVSPropertyOp27
 70
     1
102
RTVSPropertyOp28
 70
     1
102
RTVSPropertyOp29
 70
     1
102
RTVSPropertyOp30
 70
     1
102
RTVSPropertyOp31
 70
     1
102
RTVSPropertyOp32
 70
     1
102
RTVSPropertyOp33
 70
     1
102
RTVSPropertyOp34
 70
     1
102
RTVSPropertyOp35
 70
     1
102
RTVSPropertyOp36
 70
     1
102
RTVSPropertyOp37
 70
     1
102
RTVSPropertyOp38
 70
     1
102
RTVSPropertyOp39
 70
     1
102
RTVSPropertyOp40
 70
     1
102
RTVSPropertyOp41
 70
     1
102
RTVSPropertyOp42
 70
     1
102
RTVSPropertyOp43
 70
     1
102
RTVSPropertyOp44
 70
     1
102
RTVSPropertyOp45
 70
     1
102
RTVSPropertyOp46
 70
     1
102
RTVSPropertyOp47
 70
     1
102
RTVSPropertyOp48
 70
     1
102
RTVSPropertyOp49
 70
     1
102
RTVSPropertyOp50
 70
     1
102
RTVSPropertyOp51
 70
     0
102
RTVSPropertyOp52
 70
     0
102
RTVSPropertyOp53
 70
     1
102
RTVSPropertyOp54
 70
     1
102
RTVSPropertyOp55
 70
     1
102
RTVSPropertyOp56
 70
     1
102
RTVSPropertyOp57
 70
     1
102
RTVSPropertyOp58
 70
     1
102
RTVSPropertyOp59
 70
     1
102
RTVSPropertyOp60
 70
     1
102
RTVSPropertyOp61
 70
     1
102
RTVSPropertyOp62
 70
     1
  0
XRECORD
  5
287D
102
{ACAD_REACTORS
330
287C
102
}
330
287C
100
AcDbXrecord
280
     1
102
RTVSPost2010Prop28
280
     0
102
RTVSPost2010PropOp28
 70
     1
102
RTVSPost2010Prop29
280
     1
102
RTVSPost2010PropOp29
 70
     1
102
RTVSPost2010Prop30
280
     1
102
RTVSPost2010PropOp30
 70
     1
102
RTVSPost2010Prop31
280
     0
102
RTVSPost2010PropOp31
 70
     1
102
RTVSPost2010Prop32
280
     0
102
RTVSPost2010PropOp32
 70
     1
102
RTVSPost2010Prop33
280
     0
102
RTVSPost2010PropOp33
 70
     1
102
RTVSPost2010Prop34
280
     0
102
RTVSPost2010PropOp34
 70
     1
102
RTVSPost2010Prop35
280
     0
102
RTVSPost2010PropOp35
 70
     1
102
RTVSPost2010Prop36
280
     0
102
RTVSPost2010PropOp36
 70
     1
102
RTVSPost2010Prop37
 90
       50
102
RTVSPost2010PropOp37
 70
     1
102
RTVSPost2010Prop38
140
0.0
102
RTVSPost2010PropOp38
 70
     1
102
RTVSPost2010Prop39
140
1.0
102
RTVSPost2010PropOp39
 70
     1
102
RTVSPost2010Prop40
 90
        0
102
RTVSPost2010PropOp40
 70
     1
102
RTVSPost2010Prop41ColorIndex
 90
       18
102
RTVSPost2010Prop41ColorRGB
 90
        0
102
RTVSPost2010PropOp41
 70
     1
102
RTVSPost2010Prop42
 90
       50
102
RTVSPost2010PropOp42
 70
     1
102
RTVSPost2010Prop43
 90
        3
102
RTVSPost2010PropOp43
 70
     1
102
RTVSPost2010Prop44ColorIndex
 90
        5
102
RTVSPost2010Prop44ColorRGB
 90
      255
102
RTVSPost2010PropOp44
 70
     1
102
RTVSPost2010Prop45
280
     0
102
RTVSPost2010PropOp45
 70
     1
102
RTVSPost2010Prop46
 90
       50
102
RTVSPost2010PropOp46
 70
     1
102
RTVSPost2010Prop47
 90
       50
102
RTVSPost2010PropOp47
 70
     1
102
RTVSPost2010Prop48
 90
       50
102
RTVSPost2010PropOp48
 70
     1
102
RTVSPost2010Prop49
280
     0
102
RTVSPost2010PropOp49
 70
     1
102
RTVSPost2010Prop50
 90
       50
102
RTVSPost2010PropOp50
 70
     1
102
RTVSPost2010Prop51ColorIndex
 90
      256
102
RTVSPost2010Prop51ColorRGB
 90
-16777216
102
RTVSPost2010PropOp51
 70
     0
102
RTVSPost2010Prop52
140
1.0
102
RTVSPost2010PropOp52
 70
     0
102
RTVSPost2010Prop53
 90
        2
102
RTVSPost2010PropOp53
 70
     1
102
RTVSPost2010Prop54
  1
strokes_ogs.tif
102
RTVSPost2010PropOp54
 70
     1
102
RTVSPost2010Prop55
280
     0
102
RTVSPost2010PropOp55
 70
     1
102
RTVSPost2010Prop56
140
1.0
102
RTVSPost2010PropOp56
 70
     1
102
RTVSPost2010Prop57
140
1.0
102
RTVSPost2010PropOp57
 70
     1
102
RTVSPropertyOp0
 70
     1
102
RTVSPropertyOp1
 70
     1
102
RTVSPropertyOp2
 70
     1
102
RTVSPropertyOp3
 70
     1
102
RTVSPropertyOp4
 70
     1
102
RTVSPropertyOp5
 70
     1
102
RTVSPropertyOp6
 70
     1
102
RTVSPropertyOp7
 70
     1
102
RTVSPropertyOp8
 70
     1
102
RTVSPropertyOp9
 70
     1
102
RTVSPropertyOp10
 70
     1
102
RTVSPropertyOp11
 70
     1
102
RTVSPropertyOp12
 70
     1
102
RTVSPropertyOp13
 70
     1
102
RTVSPropertyOp14
 70
     1
102
RTVSPropertyOp15
 70
     1
102
RTVSPropertyOp16
 70
     1
102
RTVSPropertyOp17
 70
     1
102
RTVSPropertyOp18
 70
     1
102
RTVSPropertyOp19
 70
     1
102
RTVSPropertyOp20
 70
     1
102
RTVSPropertyOp21
 70
     1
102
RTVSPropertyOp22
 70
     1
102
RTVSPropertyOp23
 70
     1
102
RTVSPropertyOp24
 70
     1
102
RTVSPropertyOp25
 70
     1
102
RTVSPropertyOp26
 70
     1
102
RTVSPropertyOp27
 70
     1
102
RTVSPropertyOp28
 70
     1
102
RTVSPropertyOp29
 70
     1
102
RTVSPropertyOp30
 70
     1
102
RTVSPropertyOp31
 70
     1
102
RTVSPropertyOp32
 70
     1
102
RTVSPropertyOp33
 70
     1
102
RTVSPropertyOp34
 70
     1
102
RTVSPropertyOp35
 70
     1
102
RTVSPropertyOp36
 70
     1
102
RTVSPropertyOp37
 70
     1
102
RTVSPropertyOp38
 70
     1
102
RTVSPropertyOp39
 70
     1
102
RTVSPropertyOp40
 70
     1
102
RTVSPropertyOp41
 70
     1
102
RTVSPropertyOp42
 70
     1
102
RTVSPropertyOp43
 70
     1
102
RTVSPropertyOp44
 70
     1
102
RTVSPropertyOp45
 70
     1
102
RTVSPropertyOp46
 70
     1
102
RTVSPropertyOp47
 70
     1
102
RTVSPropertyOp48
 70
     1
102
RTVSPropertyOp49
 70
     1
102
RTVSPropertyOp50
 70
     1
102
RTVSPropertyOp51
 70
     0
102
RTVSPropertyOp52
 70
     0
102
RTVSPropertyOp53
 70
     1
102
RTVSPropertyOp54
 70
     1
102
RTVSPropertyOp55
 70
     1
102
RTVSPropertyOp56
 70
     1
102
RTVSPropertyOp57
 70
     1
102
RTVSPropertyOp58
 70
     1
102
RTVSPropertyOp59
 70
     1
102
RTVSPropertyOp60
 70
     1
102
RTVSPropertyOp61
 70
     1
102
RTVSPropertyOp62
 70
     1
  0
XRECORD
  5
288B
102
{ACAD_REACTORS
330
288A
102
}
330
288A
100
AcDbXrecord
280
     1
102
RTVSPost2010Prop28
280
     0
102
RTVSPost2010PropOp28
 70
     1
102
RTVSPost2010Prop29
280
     1
102
RTVSPost2010PropOp29
 70
     1
102
RTVSPost2010Prop30
280
     1
102
RTVSPost2010PropOp30
 70
     1
102
RTVSPost2010Prop31
280
     0
102
RTVSPost2010PropOp31
 70
     1
102
RTVSPost2010Prop32
280
     0
102
RTVSPost2010PropOp32
 70
     1
102
RTVSPost2010Prop33
280
     0
102
RTVSPost2010PropOp33
 70
     1
102
RTVSPost2010Prop34
280
     0
102
RTVSPost2010PropOp34
 70
     1
102
RTVSPost2010Prop35
280
     0
102
RTVSPost2010PropOp35
 70
     1
102
RTVSPost2010Prop36
280
     0
102
RTVSPost2010PropOp36
 70
     1
102
RTVSPost2010Prop37
 90
       50
102
RTVSPost2010PropOp37
 70
     1
102
RTVSPost2010Prop38
140
0.0
102
RTVSPost2010PropOp38
 70
     1
102
RTVSPost2010Prop39
140
1.0
102
RTVSPost2010PropOp39
 70
     1
102
RTVSPost2010Prop40
 90
        0
102
RTVSPost2010PropOp40
 70
     1
102
RTVSPost2010Prop41ColorIndex
 90
       18
102
RTVSPost2010Prop41ColorRGB
 90
        0
102
RTVSPost2010PropOp41
 70
     1
102
RTVSPost2010Prop42
 90
       50
102
RTVSPost2010PropOp42
 70
     1
102
RTVSPost2010Prop43
 90
        3
102
RTVSPost2010PropOp43
 70
     1
102
RTVSPost2010Prop44ColorIndex
 90
        5
102
RTVSPost2010Prop44ColorRGB
 90
      255
102
RTVSPost2010PropOp44
 70
     1
102
RTVSPost2010Prop45
280
     0
102
RTVSPost2010PropOp45
 70
     1
102
RTVSPost2010Prop46
 90
       50
102
RTVSPost2010PropOp46
 70
     1
102
RTVSPost2010Prop47
 90
       50
102
RTVSPost2010PropOp47
 70
     1
102
RTVSPost2010Prop48
 90
       50
102
RTVSPost2010PropOp48
 70
     1
102
RTVSPost2010Prop49
280
     0
102
RTVSPost2010PropOp49
 70
     1
102
RTVSPost2010Prop50
 90
       50
102
RTVSPost2010PropOp50
 70
     1
102
RTVSPost2010Prop51ColorIndex
 90
      256
102
RTVSPost2010Prop51ColorRGB
 90
-16777216
102
RTVSPost2010PropOp51
 70
     0
102
RTVSPost2010Prop52
140
1.0
102
RTVSPost2010PropOp52
 70
     0
102
RTVSPost2010Prop53
 90
        2
102
RTVSPost2010PropOp53
 70
     1
102
RTVSPost2010Prop54
  1
strokes_ogs.tif
102
RTVSPost2010PropOp54
 70
     1
102
RTVSPost2010Prop55
280
     0
102
RTVSPost2010PropOp55
 70
     1
102
RTVSPost2010Prop56
140
1.0
102
RTVSPost2010PropOp56
 70
     1
102
RTVSPost2010Prop57
140
1.0
102
RTVSPost2010PropOp57
 70
     1
102
RTVSPropertyOp0
 70
     1
102
RTVSPropertyOp1
 70
     1
102
RTVSPropertyOp2
 70
     1
102
RTVSPropertyOp3
 70
     1
102
RTVSPropertyOp4
 70
     1
102
RTVSPropertyOp5
 70
     1
102
RTVSPropertyOp6
 70
     1
102
RTVSPropertyOp7
 70
     1
102
RTVSPropertyOp8
 70
     1
102
RTVSPropertyOp9
 70
     1
102
RTVSPropertyOp10
 70
     1
102
RTVSPropertyOp11
 70
     1
102
RTVSPropertyOp12
 70
     1
102
RTVSPropertyOp13
 70
     1
102
RTVSPropertyOp14
 70
     1
102
RTVSPropertyOp15
 70
     1
102
RTVSPropertyOp16
 70
     1
102
RTVSPropertyOp17
 70
     1
102
RTVSPropertyOp18
 70
     1
102
RTVSPropertyOp19
 70
     1
102
RTVSPropertyOp20
 70
     1
102
RTVSPropertyOp21
 70
     1
102
RTVSPropertyOp22
 70
     1
102
RTVSPropertyOp23
 70
     1
102
RTVSPropertyOp24
 70
     1
102
RTVSPropertyOp25
 70
     1
102
RTVSPropertyOp26
 70
     1
102
RTVSPropertyOp27
 70
     1
102
RTVSPropertyOp28
 70
     1
102
RTVSPropertyOp29
 70
     1
102
RTVSPropertyOp30
 70
     1
102
RTVSPropertyOp31
 70
     1
102
RTVSPropertyOp32
 70
     1
102
RTVSPropertyOp33
 70
     1
102
RTVSPropertyOp34
 70
     1
102
RTVSPropertyOp35
 70
     1
102
RTVSPropertyOp36
 70
     1
102
RTVSPropertyOp37
 70
     1
102
RTVSPropertyOp38
 70
     1
102
RTVSPropertyOp39
 70
     1
102
RTVSPropertyOp40
 70
     1
102
RTVSPropertyOp41
 70
     1
102
RTVSPropertyOp42
 70
     1
102
RTVSPropertyOp43
 70
     1
102
RTVSPropertyOp44
 70
     1
102
RTVSPropertyOp45
 70
     1
102
RTVSPropertyOp46
 70
     1
102
RTVSPropertyOp47
 70
     1
102
RTVSPropertyOp48
 70
     1
102
RTVSPropertyOp49
 70
     1
102
RTVSPropertyOp50
 70
     1
102
RTVSPropertyOp51
 70
     0
102
RTVSPropertyOp52
 70
     0
102
RTVSPropertyOp53
 70
     1
102
RTVSPropertyOp54
 70
     1
102
RTVSPropertyOp55
 70
     1
102
RTVSPropertyOp56
 70
     1
102
RTVSPropertyOp57
 70
     1
102
RTVSPropertyOp58
 70
     1
102
RTVSPropertyOp59
 70
     1
102
RTVSPropertyOp60
 70
     1
102
RTVSPropertyOp61
 70
     1
102
RTVSPropertyOp62
 70
     1
  0
XRECORD
  5
2893
102
{ACAD_REACTORS
330
2892
102
}
330
2892
100
AcDbXrecord
280
     1
102
RTVSPost2010Prop28
280
     0
102
RTVSPost2010PropOp28
 70
     1
102
RTVSPost2010Prop29
280
     1
102
RTVSPost2010PropOp29
 70
     1
102
RTVSPost2010Prop30
280
     1
102
RTVSPost2010PropOp30
 70
     1
102
RTVSPost2010Prop31
280
     0
102
RTVSPost2010PropOp31
 70
     1
102
RTVSPost2010Prop32
280
     0
102
RTVSPost2010PropOp32
 70
     1
102
RTVSPost2010Prop33
280
     0
102
RTVSPost2010PropOp33
 70
     1
102
RTVSPost2010Prop34
280
     0
102
RTVSPost2010PropOp34
 70
     1
102
RTVSPost2010Prop35
280
     0
102
RTVSPost2010PropOp35
 70
     1
102
RTVSPost2010Prop36
280
     0
102
RTVSPost2010PropOp36
 70
     1
102
RTVSPost2010Prop37
 90
       50
102
RTVSPost2010PropOp37
 70
     1
102
RTVSPost2010Prop38
140
0.0
102
RTVSPost2010PropOp38
 70
     1
102
RTVSPost2010Prop39
140
1.0
102
RTVSPost2010PropOp39
 70
     1
102
RTVSPost2010Prop40
 90
        0
102
RTVSPost2010PropOp40
 70
     1
102
RTVSPost2010Prop41ColorIndex
 90
       18
102
RTVSPost2010Prop41ColorRGB
 90
        0
102
RTVSPost2010PropOp41
 70
     1
102
RTVSPost2010Prop42
 90
       50
102
RTVSPost2010PropOp42
 70
     1
102
RTVSPost2010Prop43
 90
        3
102
RTVSPost2010PropOp43
 70
     1
102
RTVSPost2010Prop44ColorIndex
 90
        5
102
RTVSPost2010Prop44ColorRGB
 90
      255
102
RTVSPost2010PropOp44
 70
     1
102
RTVSPost2010Prop45
280
     0
102
RTVSPost2010PropOp45
 70
     1
102
RTVSPost2010Prop46
 90
       50
102
RTVSPost2010PropOp46
 70
     1
102
RTVSPost2010Prop47
 90
       50
102
RTVSPost2010PropOp47
 70
     1
102
RTVSPost2010Prop48
 90
       50
102
RTVSPost2010PropOp48
 70
     1
102
RTVSPost2010Prop49
280
     0
102
RTVSPost2010PropOp49
 70
     1
102
RTVSPost2010Prop50
 90
       50
102
RTVSPost2010PropOp50
 70
     1
102
RTVSPost2010Prop51ColorIndex
 90
      256
102
RTVSPost2010Prop51ColorRGB
 90
-16777216
102
RTVSPost2010PropOp51
 70
     0
102
RTVSPost2010Prop52
140
1.0
102
RTVSPost2010PropOp52
 70
     0
102
RTVSPost2010Prop53
 90
        2
102
RTVSPost2010PropOp53
 70
     1
102
RTVSPost2010Prop54
  1
strokes_ogs.tif
102
RTVSPost2010PropOp54
 70
     1
102
RTVSPost2010Prop55
280
     0
102
RTVSPost2010PropOp55
 70
     1
102
RTVSPost2010Prop56
140
1.0
102
RTVSPost2010PropOp56
 70
     1
102
RTVSPost2010Prop57
140
1.0
102
RTVSPost2010PropOp57
 70
     1
102
RTVSPropertyOp0
 70
     1
102
RTVSPropertyOp1
 70
     1
102
RTVSPropertyOp2
 70
     1
102
RTVSPropertyOp3
 70
     1
102
RTVSPropertyOp4
 70
     1
102
RTVSPropertyOp5
 70
     1
102
RTVSPropertyOp6
 70
     1
102
RTVSPropertyOp7
 70
     1
102
RTVSPropertyOp8
 70
     1
102
RTVSPropertyOp9
 70
     1
102
RTVSPropertyOp10
 70
     1
102
RTVSPropertyOp11
 70
     1
102
RTVSPropertyOp12
 70
     1
102
RTVSPropertyOp13
 70
     1
102
RTVSPropertyOp14
 70
     1
102
RTVSPropertyOp15
 70
     1
102
RTVSPropertyOp16
 70
     1
102
RTVSPropertyOp17
 70
     1
102
RTVSPropertyOp18
 70
     1
102
RTVSPropertyOp19
 70
     1
102
RTVSPropertyOp20
 70
     1
102
RTVSPropertyOp21
 70
     1
102
RTVSPropertyOp22
 70
     1
102
RTVSPropertyOp23
 70
     1
102
RTVSPropertyOp24
 70
     1
102
RTVSPropertyOp25
 70
     1
102
RTVSPropertyOp26
 70
     1
102
RTVSPropertyOp27
 70
     1
102
RTVSPropertyOp28
 70
     1
102
RTVSPropertyOp29
 70
     1
102
RTVSPropertyOp30
 70
     1
102
RTVSPropertyOp31
 70
     1
102
RTVSPropertyOp32
 70
     1
102
RTVSPropertyOp33
 70
     1
102
RTVSPropertyOp34
 70
     1
102
RTVSPropertyOp35
 70
     1
102
RTVSPropertyOp36
 70
     1
102
RTVSPropertyOp37
 70
     1
102
RTVSPropertyOp38
 70
     1
102
RTVSPropertyOp39
 70
     1
102
RTVSPropertyOp40
 70
     1
102
RTVSPropertyOp41
 70
     1
102
RTVSPropertyOp42
 70
     1
102
RTVSPropertyOp43
 70
     1
102
RTVSPropertyOp44
 70
     1
102
RTVSPropertyOp45
 70
     1
102
RTVSPropertyOp46
 70
     1
102
RTVSPropertyOp47
 70
     1
102
RTVSPropertyOp48
 70
     1
102
RTVSPropertyOp49
 70
     1
102
RTVSPropertyOp50
 70
     1
102
RTVSPropertyOp51
 70
     0
102
RTVSPropertyOp52
 70
     0
102
RTVSPropertyOp53
 70
     1
102
RTVSPropertyOp54
 70
     1
102
RTVSPropertyOp55
 70
     1
102
RTVSPropertyOp56
 70
     1
102
RTVSPropertyOp57
 70
     1
102
RTVSPropertyOp58
 70
     1
102
RTVSPropertyOp59
 70
     1
102
RTVSPropertyOp60
 70
     1
102
RTVSPropertyOp61
 70
     1
102
RTVSPropertyOp62
 70
     1
  0
XRECORD
  5
2885
102
{ACAD_REACTORS
330
2884
102
}
330
2884
100
AcDbXrecord
280
     1
102
RTVSPost2010Prop28
280
     0
102
RTVSPost2010PropOp28
 70
     1
102
RTVSPost2010Prop29
280
     1
102
RTVSPost2010PropOp29
 70
     1
102
RTVSPost2010Prop30
280
     1
102
RTVSPost2010PropOp30
 70
     1
102
RTVSPost2010Prop31
280
     0
102
RTVSPost2010PropOp31
 70
     1
102
RTVSPost2010Prop32
280
     0
102
RTVSPost2010PropOp32
 70
     1
102
RTVSPost2010Prop33
280
     0
102
RTVSPost2010PropOp33
 70
     1
102
RTVSPost2010Prop34
280
     0
102
RTVSPost2010PropOp34
 70
     1
102
RTVSPost2010Prop35
280
     0
102
RTVSPost2010PropOp35
 70
     1
102
RTVSPost2010Prop36
280
     0
102
RTVSPost2010PropOp36
 70
     1
102
RTVSPost2010Prop37
 90
       50
102
RTVSPost2010PropOp37
 70
     1
102
RTVSPost2010Prop38
140
0.0
102
RTVSPost2010PropOp38
 70
     1
102
RTVSPost2010Prop39
140
1.0
102
RTVSPost2010PropOp39
 70
     1
102
RTVSPost2010Prop40
 90
        0
102
RTVSPost2010PropOp40
 70
     1
102
RTVSPost2010Prop41ColorIndex
 90
       18
102
RTVSPost2010Prop41ColorRGB
 90
        0
102
RTVSPost2010PropOp41
 70
     1
102
RTVSPost2010Prop42
 90
       50
102
RTVSPost2010PropOp42
 70
     1
102
RTVSPost2010Prop43
 90
        3
102
RTVSPost2010PropOp43
 70
     1
102
RTVSPost2010Prop44ColorIndex
 90
        5
102
RTVSPost2010Prop44ColorRGB
 90
      255
102
RTVSPost2010PropOp44
 70
     1
102
RTVSPost2010Prop45
280
     0
102
RTVSPost2010PropOp45
 70
     1
102
RTVSPost2010Prop46
 90
       50
102
RTVSPost2010PropOp46
 70
     1
102
RTVSPost2010Prop47
 90
       50
102
RTVSPost2010PropOp47
 70
     1
102
RTVSPost2010Prop48
 90
       50
102
RTVSPost2010PropOp48
 70
     1
102
RTVSPost2010Prop49
280
     0
102
RTVSPost2010PropOp49
 70
     1
102
RTVSPost2010Prop50
 90
       50
102
RTVSPost2010PropOp50
 70
     1
102
RTVSPost2010Prop51ColorIndex
 90
      256
102
RTVSPost2010Prop51ColorRGB
 90
-16777216
102
RTVSPost2010PropOp51
 70
     0
102
RTVSPost2010Prop52
140
1.0
102
RTVSPost2010PropOp52
 70
     0
102
RTVSPost2010Prop53
 90
        2
102
RTVSPost2010PropOp53
 70
     1
102
RTVSPost2010Prop54
  1
strokes_ogs.tif
102
RTVSPost2010PropOp54
 70
     1
102
RTVSPost2010Prop55
280
     0
102
RTVSPost2010PropOp55
 70
     1
102
RTVSPost2010Prop56
140
1.0
102
RTVSPost2010PropOp56
 70
     1
102
RTVSPost2010Prop57
140
1.0
102
RTVSPost2010PropOp57
 70
     1
102
RTVSPropertyOp0
 70
     1
102
RTVSPropertyOp1
 70
     1
102
RTVSPropertyOp2
 70
     1
102
RTVSPropertyOp3
 70
     1
102
RTVSPropertyOp4
 70
     1
102
RTVSPropertyOp5
 70
     1
102
RTVSPropertyOp6
 70
     1
102
RTVSPropertyOp7
 70
     1
102
RTVSPropertyOp8
 70
     1
102
RTVSPropertyOp9
 70
     1
102
RTVSPropertyOp10
 70
     1
102
RTVSPropertyOp11
 70
     1
102
RTVSPropertyOp12
 70
     1
102
RTVSPropertyOp13
 70
     1
102
RTVSPropertyOp14
 70
     1
102
RTVSPropertyOp15
 70
     1
102
RTVSPropertyOp16
 70
     1
102
RTVSPropertyOp17
 70
     1
102
RTVSPropertyOp18
 70
     1
102
RTVSPropertyOp19
 70
     1
102
RTVSPropertyOp20
 70
     1
102
RTVSPropertyOp21
 70
     1
102
RTVSPropertyOp22
 70
     1
102
RTVSPropertyOp23
 70
     1
102
RTVSPropertyOp24
 70
     1
102
RTVSPropertyOp25
 70
     1
102
RTVSPropertyOp26
 70
     1
102
RTVSPropertyOp27
 70
     1
102
RTVSPropertyOp28
 70
     1
102
RTVSPropertyOp29
 70
     1
102
RTVSPropertyOp30
 70
     1
102
RTVSPropertyOp31
 70
     1
102
RTVSPropertyOp32
 70
     1
102
RTVSPropertyOp33
 70
     1
102
RTVSPropertyOp34
 70
     1
102
RTVSPropertyOp35
 70
     1
102
RTVSPropertyOp36
 70
     1
102
RTVSPropertyOp37
 70
     1
102
RTVSPropertyOp38
 70
     1
102
RTVSPropertyOp39
 70
     1
102
RTVSPropertyOp40
 70
     1
102
RTVSPropertyOp41
 70
     1
102
RTVSPropertyOp42
 70
     1
102
RTVSPropertyOp43
 70
     1
102
RTVSPropertyOp44
 70
     1
102
RTVSPropertyOp45
 70
     1
102
RTVSPropertyOp46
 70
     1
102
RTVSPropertyOp47
 70
     1
102
RTVSPropertyOp48
 70
     1
102
RTVSPropertyOp49
 70
     1
102
RTVSPropertyOp50
 70
     1
102
RTVSPropertyOp51
 70
     0
102
RTVSPropertyOp52
 70
     0
102
RTVSPropertyOp53
 70
     1
102
RTVSPropertyOp54
 70
     1
102
RTVSPropertyOp55
 70
     1
102
RTVSPropertyOp56
 70
     1
102
RTVSPropertyOp57
 70
     1
102
RTVSPropertyOp58
 70
     1
102
RTVSPropertyOp59
 70
     1
102
RTVSPropertyOp60
 70
     1
102
RTVSPropertyOp61
 70
     1
102
RTVSPropertyOp62
 70
     1
  0
XRECORD
  5
2889
102
{ACAD_REACTORS
330
2888
102
}
330
2888
100
AcDbXrecord
280
     1
102
RTVSPost2010Prop28
280
     0
102
RTVSPost2010PropOp28
 70
     1
102
RTVSPost2010Prop29
280
     1
102
RTVSPost2010PropOp29
 70
     1
102
RTVSPost2010Prop30
280
     1
102
RTVSPost2010PropOp30
 70
     1
102
RTVSPost2010Prop31
280
     0
102
RTVSPost2010PropOp31
 70
     1
102
RTVSPost2010Prop32
280
     0
102
RTVSPost2010PropOp32
 70
     1
102
RTVSPost2010Prop33
280
     0
102
RTVSPost2010PropOp33
 70
     1
102
RTVSPost2010Prop34
280
     0
102
RTVSPost2010PropOp34
 70
     1
102
RTVSPost2010Prop35
280
     0
102
RTVSPost2010PropOp35
 70
     1
102
RTVSPost2010Prop36
280
     0
102
RTVSPost2010PropOp36
 70
     1
102
RTVSPost2010Prop37
 90
       50
102
RTVSPost2010PropOp37
 70
     1
102
RTVSPost2010Prop38
140
0.0
102
RTVSPost2010PropOp38
 70
     1
102
RTVSPost2010Prop39
140
1.0
102
RTVSPost2010PropOp39
 70
     1
102
RTVSPost2010Prop40
 90
        0
102
RTVSPost2010PropOp40
 70
     1
102
RTVSPost2010Prop41ColorIndex
 90
       18
102
RTVSPost2010Prop41ColorRGB
 90
        0
102
RTVSPost2010PropOp41
 70
     1
102
RTVSPost2010Prop42
 90
       50
102
RTVSPost2010PropOp42
 70
     1
102
RTVSPost2010Prop43
 90
        3
102
RTVSPost2010PropOp43
 70
     1
102
RTVSPost2010Prop44ColorIndex
 90
        5
102
RTVSPost2010Prop44ColorRGB
 90
      255
102
RTVSPost2010PropOp44
 70
     1
102
RTVSPost2010Prop45
280
     0
102
RTVSPost2010PropOp45
 70
     1
102
RTVSPost2010Prop46
 90
       50
102
RTVSPost2010PropOp46
 70
     1
102
RTVSPost2010Prop47
 90
       50
102
RTVSPost2010PropOp47
 70
     1
102
RTVSPost2010Prop48
 90
       50
102
RTVSPost2010PropOp48
 70
     1
102
RTVSPost2010Prop49
280
     0
102
RTVSPost2010PropOp49
 70
     1
102
RTVSPost2010Prop50
 90
       50
102
RTVSPost2010PropOp50
 70
     1
102
RTVSPost2010Prop51ColorIndex
 90
      256
102
RTVSPost2010Prop51ColorRGB
 90
-16777216
102
RTVSPost2010PropOp51
 70
     0
102
RTVSPost2010Prop52
140
1.0
102
RTVSPost2010PropOp52
 70
     0
102
RTVSPost2010Prop53
 90
        2
102
RTVSPost2010PropOp53
 70
     1
102
RTVSPost2010Prop54
  1
strokes_ogs.tif
102
RTVSPost2010PropOp54
 70
     1
102
RTVSPost2010Prop55
280
     0
102
RTVSPost2010PropOp55
 70
     1
102
RTVSPost2010Prop56
140
1.0
102
RTVSPost2010PropOp56
 70
     1
102
RTVSPost2010Prop57
140
1.0
102
RTVSPost2010PropOp57
 70
     1
102
RTVSPropertyOp0
 70
     1
102
RTVSPropertyOp1
 70
     1
102
RTVSPropertyOp2
 70
     1
102
RTVSPropertyOp3
 70
     1
102
RTVSPropertyOp4
 70
     1
102
RTVSPropertyOp5
 70
     1
102
RTVSPropertyOp6
 70
     1
102
RTVSPropertyOp7
 70
     1
102
RTVSPropertyOp8
 70
     1
102
RTVSPropertyOp9
 70
     1
102
RTVSPropertyOp10
 70
     1
102
RTVSPropertyOp11
 70
     1
102
RTVSPropertyOp12
 70
     1
102
RTVSPropertyOp13
 70
     1
102
RTVSPropertyOp14
 70
     1
102
RTVSPropertyOp15
 70
     1
102
RTVSPropertyOp16
 70
     1
102
RTVSPropertyOp17
 70
     1
102
RTVSPropertyOp18
 70
     1
102
RTVSPropertyOp19
 70
     1
102
RTVSPropertyOp20
 70
     1
102
RTVSPropertyOp21
 70
     1
102
RTVSPropertyOp22
 70
     1
102
RTVSPropertyOp23
 70
     1
102
RTVSPropertyOp24
 70
     1
102
RTVSPropertyOp25
 70
     1
102
RTVSPropertyOp26
 70
     1
102
RTVSPropertyOp27
 70
     1
102
RTVSPropertyOp28
 70
     1
102
RTVSPropertyOp29
 70
     1
102
RTVSPropertyOp30
 70
     1
102
RTVSPropertyOp31
 70
     1
102
RTVSPropertyOp32
 70
     1
102
RTVSPropertyOp33
 70
     1
102
RTVSPropertyOp34
 70
     1
102
RTVSPropertyOp35
 70
     1
102
RTVSPropertyOp36
 70
     1
102
RTVSPropertyOp37
 70
     1
102
RTVSPropertyOp38
 70
     1
102
RTVSPropertyOp39
 70
     1
102
RTVSPropertyOp40
 70
     1
102
RTVSPropertyOp41
 70
     1
102
RTVSPropertyOp42
 70
     1
102
RTVSPropertyOp43
 70
     1
102
RTVSPropertyOp44
 70
     1
102
RTVSPropertyOp45
 70
     1
102
RTVSPropertyOp46
 70
     1
102
RTVSPropertyOp47
 70
     1
102
RTVSPropertyOp48
 70
     1
102
RTVSPropertyOp49
 70
     1
102
RTVSPropertyOp50
 70
     1
102
RTVSPropertyOp51
 70
     0
102
RTVSPropertyOp52
 70
     0
102
RTVSPropertyOp53
 70
     1
102
RTVSPropertyOp54
 70
     1
102
RTVSPropertyOp55
 70
     1
102
RTVSPropertyOp56
 70
     1
102
RTVSPropertyOp57
 70
     1
102
RTVSPropertyOp58
 70
     1
102
RTVSPropertyOp59
 70
     1
102
RTVSPropertyOp60
 70
     1
102
RTVSPropertyOp61
 70
     1
102
RTVSPropertyOp62
 70
     1
  0
XRECORD
  5
289B
102
{ACAD_REACTORS
330
289A
102
}
330
289A
100
AcDbXrecord
280
     1
102
RTVSPost2010Prop28
280
     0
102
RTVSPost2010PropOp28
 70
     1
102
RTVSPost2010Prop29
280
     1
102
RTVSPost2010PropOp29
 70
     1
102
RTVSPost2010Prop30
280
     1
102
RTVSPost2010PropOp30
 70
     1
102
RTVSPost2010Prop31
280
     0
102
RTVSPost2010PropOp31
 70
     1
102
RTVSPost2010Prop32
280
     0
102
RTVSPost2010PropOp32
 70
     1
102
RTVSPost2010Prop33
280
     0
102
RTVSPost2010PropOp33
 70
     1
102
RTVSPost2010Prop34
280
     0
102
RTVSPost2010PropOp34
 70
     1
102
RTVSPost2010Prop35
280
     0
102
RTVSPost2010PropOp35
 70
     1
102
RTVSPost2010Prop36
280
     0
102
RTVSPost2010PropOp36
 70
     1
102
RTVSPost2010Prop37
 90
       50
102
RTVSPost2010PropOp37
 70
     1
102
RTVSPost2010Prop38
140
0.0
102
RTVSPost2010PropOp38
 70
     1
102
RTVSPost2010Prop39
140
1.0
102
RTVSPost2010PropOp39
 70
     1
102
RTVSPost2010Prop40
 90
        0
102
RTVSPost2010PropOp40
 70
     1
102
RTVSPost2010Prop41ColorIndex
 90
       18
102
RTVSPost2010Prop41ColorRGB
 90
        0
102
RTVSPost2010PropOp41
 70
     1
102
RTVSPost2010Prop42
 90
       50
102
RTVSPost2010PropOp42
 70
     1
102
RTVSPost2010Prop43
 90
        3
102
RTVSPost2010PropOp43
 70
     1
102
RTVSPost2010Prop44ColorIndex
 90
        5
102
RTVSPost2010Prop44ColorRGB
 90
      255
102
RTVSPost2010PropOp44
 70
     1
102
RTVSPost2010Prop45
280
     0
102
RTVSPost2010PropOp45
 70
     1
102
RTVSPost2010Prop46
 90
       50
102
RTVSPost2010PropOp46
 70
     1
102
RTVSPost2010Prop47
 90
       50
102
RTVSPost2010PropOp47
 70
     1
102
RTVSPost2010Prop48
 90
       50
102
RTVSPost2010PropOp48
 70
     1
102
RTVSPost2010Prop49
280
     0
102
RTVSPost2010PropOp49
 70
     1
102
RTVSPost2010Prop50
 90
       50
102
RTVSPost2010PropOp50
 70
     1
102
RTVSPost2010Prop51ColorIndex
 90
      256
102
RTVSPost2010Prop51ColorRGB
 90
-16777216
102
RTVSPost2010PropOp51
 70
     0
102
RTVSPost2010Prop52
140
1.0
102
RTVSPost2010PropOp52
 70
     0
102
RTVSPost2010Prop53
 90
        2
102
RTVSPost2010PropOp53
 70
     1
102
RTVSPost2010Prop54
  1
strokes_ogs.tif
102
RTVSPost2010PropOp54
 70
     1
102
RTVSPost2010Prop55
280
     0
102
RTVSPost2010PropOp55
 70
     1
102
RTVSPost2010Prop56
140
1.0
102
RTVSPost2010PropOp56
 70
     1
102
RTVSPost2010Prop57
140
1.0
102
RTVSPost2010PropOp57
 70
     1
102
RTVSPropertyOp0
 70
     0
102
RTVSPropertyOp1
 70
     0
102
RTVSPropertyOp2
 70
     0
102
RTVSPropertyOp3
 70
     0
102
RTVSPropertyOp4
 70
     0
102
RTVSPropertyOp5
 70
     0
102
RTVSPropertyOp6
 70
     0
102
RTVSPropertyOp7
 70
     0
102
RTVSPropertyOp8
 70
     0
102
RTVSPropertyOp9
 70
     0
102
RTVSPropertyOp10
 70
     0
102
RTVSPropertyOp11
 70
     0
102
RTVSPropertyOp12
 70
     0
102
RTVSPropertyOp13
 70
     0
102
RTVSPropertyOp14
 70
     2
102
RTVSPropertyOp15
 70
     0
102
RTVSPropertyOp16
 70
     0
102
RTVSPropertyOp17
 70
     0
102
RTVSPropertyOp18
 70
     0
102
RTVSPropertyOp19
 70
     0
102
RTVSPropertyOp20
 70
     0
102
RTVSPropertyOp21
 70
     0
102
RTVSPropertyOp22
 70
     0
102
RTVSPropertyOp23
 70
     0
102
RTVSPropertyOp24
 70
     0
102
RTVSPropertyOp25
 70
     0
102
RTVSPropertyOp26
 70
     0
102
RTVSPropertyOp27
 70
     0
102
RTVSPropertyOp28
 70
     1
102
RTVSPropertyOp29
 70
     1
102
RTVSPropertyOp30
 70
     1
102
RTVSPropertyOp31
 70
     1
102
RTVSPropertyOp32
 70
     1
102
RTVSPropertyOp33
 70
     1
102
RTVSPropertyOp34
 70
     1
102
RTVSPropertyOp35
 70
     1
102
RTVSPropertyOp36
 70
     1
102
RTVSPropertyOp37
 70
     1
102
RTVSPropertyOp38
 70
     1
102
RTVSPropertyOp39
 70
     1
102
RTVSPropertyOp40
 70
     1
102
RTVSPropertyOp41
 70
     1
102
RTVSPropertyOp42
 70
     1
102
RTVSPropertyOp43
 70
     1
102
RTVSPropertyOp44
 70
     1
102
RTVSPropertyOp45
 70
     1
102
RTVSPropertyOp46
 70
     1
102
RTVSPropertyOp47
 70
     1
102
RTVSPropertyOp48
 70
     1
102
RTVSPropertyOp49
 70
     1
102
RTVSPropertyOp50
 70
     1
102
RTVSPropertyOp51
 70
     0
102
RTVSPropertyOp52
 70
     0
102
RTVSPropertyOp53
 70
     1
102
RTVSPropertyOp54
 70
     1
102
RTVSPropertyOp55
 70
     1
102
RTVSPropertyOp56
 70
     1
102
RTVSPropertyOp57
 70
     1
102
RTVSPropertyOp58
 70
     1
102
RTVSPropertyOp59
 70
     1
102
RTVSPropertyOp60
 70
     1
102
RTVSPropertyOp61
 70
     1
102
RTVSPropertyOp62
 70
     1
  0
XRECORD
  5
2891
102
{ACAD_REACTORS
330
2890
102
}
330
2890
100
AcDbXrecord
280
     1
102
RTVSPost2010Prop28
280
     0
102
RTVSPost2010PropOp28
 70
     1
102
RTVSPost2010Prop29
280
     1
102
RTVSPost2010PropOp29
 70
     1
102
RTVSPost2010Prop30
280
     1
102
RTVSPost2010PropOp30
 70
     1
102
RTVSPost2010Prop31
280
     0
102
RTVSPost2010PropOp31
 70
     1
102
RTVSPost2010Prop32
280
     0
102
RTVSPost2010PropOp32
 70
     1
102
RTVSPost2010Prop33
280
     0
102
RTVSPost2010PropOp33
 70
     1
102
RTVSPost2010Prop34
280
     0
102
RTVSPost2010PropOp34
 70
     1
102
RTVSPost2010Prop35
280
     0
102
RTVSPost2010PropOp35
 70
     1
102
RTVSPost2010Prop36
280
     0
102
RTVSPost2010PropOp36
 70
     1
102
RTVSPost2010Prop37
 90
       50
102
RTVSPost2010PropOp37
 70
     1
102
RTVSPost2010Prop38
140
0.0
102
RTVSPost2010PropOp38
 70
     1
102
RTVSPost2010Prop39
140
1.0
102
RTVSPost2010PropOp39
 70
     1
102
RTVSPost2010Prop40
 90
        0
102
RTVSPost2010PropOp40
 70
     1
102
RTVSPost2010Prop41ColorIndex
 90
       18
102
RTVSPost2010Prop41ColorRGB
 90
        0
102
RTVSPost2010PropOp41
 70
     1
102
RTVSPost2010Prop42
 90
       50
102
RTVSPost2010PropOp42
 70
     1
102
RTVSPost2010Prop43
 90
        3
102
RTVSPost2010PropOp43
 70
     1
102
RTVSPost2010Prop44ColorIndex
 90
        5
102
RTVSPost2010Prop44ColorRGB
 90
      255
102
RTVSPost2010PropOp44
 70
     1
102
RTVSPost2010Prop45
280
     0
102
RTVSPost2010PropOp45
 70
     1
102
RTVSPost2010Prop46
 90
       50
102
RTVSPost2010PropOp46
 70
     1
102
RTVSPost2010Prop47
 90
       50
102
RTVSPost2010PropOp47
 70
     1
102
RTVSPost2010Prop48
 90
       50
102
RTVSPost2010PropOp48
 70
     1
102
RTVSPost2010Prop49
280
     0
102
RTVSPost2010PropOp49
 70
     1
102
RTVSPost2010Prop50
 90
       50
102
RTVSPost2010PropOp50
 70
     1
102
RTVSPost2010Prop51ColorIndex
 90
      256
102
RTVSPost2010Prop51ColorRGB
 90
-16777216
102
RTVSPost2010PropOp51
 70
     0
102
RTVSPost2010Prop52
140
1.0
102
RTVSPost2010PropOp52
 70
     0
102
RTVSPost2010Prop53
 90
        2
102
RTVSPost2010PropOp53
 70
     1
102
RTVSPost2010Prop54
  1
strokes_ogs.tif
102
RTVSPost2010PropOp54
 70
     1
102
RTVSPost2010Prop55
280
     0
102
RTVSPost2010PropOp55
 70
     1
102
RTVSPost2010Prop56
140
1.0
102
RTVSPost2010PropOp56
 70
     1
102
RTVSPost2010Prop57
140
1.0
102
RTVSPost2010PropOp57
 70
     1
102
RTVSPropertyOp0
 70
     1
102
RTVSPropertyOp1
 70
     1
102
RTVSPropertyOp2
 70
     1
102
RTVSPropertyOp3
 70
     1
102
RTVSPropertyOp4
 70
     1
102
RTVSPropertyOp5
 70
     1
102
RTVSPropertyOp6
 70
     1
102
RTVSPropertyOp7
 70
     1
102
RTVSPropertyOp8
 70
     1
102
RTVSPropertyOp9
 70
     1
102
RTVSPropertyOp10
 70
     1
102
RTVSPropertyOp11
 70
     1
102
RTVSPropertyOp12
 70
     1
102
RTVSPropertyOp13
 70
     1
102
RTVSPropertyOp14
 70
     1
102
RTVSPropertyOp15
 70
     1
102
RTVSPropertyOp16
 70
     1
102
RTVSPropertyOp17
 70
     1
102
RTVSPropertyOp18
 70
     1
102
RTVSPropertyOp19
 70
     1
102
RTVSPropertyOp20
 70
     1
102
RTVSPropertyOp21
 70
     1
102
RTVSPropertyOp22
 70
     1
102
RTVSPropertyOp23
 70
     1
102
RTVSPropertyOp24
 70
     1
102
RTVSPropertyOp25
 70
     1
102
RTVSPropertyOp26
 70
     1
102
RTVSPropertyOp27
 70
     1
102
RTVSPropertyOp28
 70
     1
102
RTVSPropertyOp29
 70
     1
102
RTVSPropertyOp30
 70
     1
102
RTVSPropertyOp31
 70
     1
102
RTVSPropertyOp32
 70
     1
102
RTVSPropertyOp33
 70
     1
102
RTVSPropertyOp34
 70
     1
102
RTVSPropertyOp35
 70
     1
102
RTVSPropertyOp36
 70
     1
102
RTVSPropertyOp37
 70
     1
102
RTVSPropertyOp38
 70
     1
102
RTVSPropertyOp39
 70
     1
102
RTVSPropertyOp40
 70
     1
102
RTVSPropertyOp41
 70
     1
102
RTVSPropertyOp42
 70
     1
102
RTVSPropertyOp43
 70
     1
102
RTVSPropertyOp44
 70
     1
102
RTVSPropertyOp45
 70
     1
102
RTVSPropertyOp46
 70
     1
102
RTVSPropertyOp47
 70
     1
102
RTVSPropertyOp48
 70
     1
102
RTVSPropertyOp49
 70
     1
102
RTVSPropertyOp50
 70
     1
102
RTVSPropertyOp51
 70
     0
102
RTVSPropertyOp52
 70
     0
102
RTVSPropertyOp53
 70
     1
102
RTVSPropertyOp54
 70
     1
102
RTVSPropertyOp55
 70
     1
102
RTVSPropertyOp56
 70
     1
102
RTVSPropertyOp57
 70
     1
102
RTVSPropertyOp58
 70
     1
102
RTVSPropertyOp59
 70
     1
102
RTVSPropertyOp60
 70
     1
102
RTVSPropertyOp61
 70
     1
102
RTVSPropertyOp62
 70
     1
  0
XRECORD
  5
2875
102
{ACAD_REACTORS
330
2874
102
}
330
2874
100
AcDbXrecord
280
     1
102
RTVSPost2010Prop28
280
     0
102
RTVSPost2010PropOp28
 70
     1
102
RTVSPost2010Prop29
280
     1
102
RTVSPost2010PropOp29
 70
     1
102
RTVSPost2010Prop30
280
     1
102
RTVSPost2010PropOp30
 70
     1
102
RTVSPost2010Prop31
280
     0
102
RTVSPost2010PropOp31
 70
     1
102
RTVSPost2010Prop32
280
     0
102
RTVSPost2010PropOp32
 70
     1
102
RTVSPost2010Prop33
280
     0
102
RTVSPost2010PropOp33
 70
     1
102
RTVSPost2010Prop34
280
     0
102
RTVSPost2010PropOp34
 70
     1
102
RTVSPost2010Prop35
280
     0
102
RTVSPost2010PropOp35
 70
     1
102
RTVSPost2010Prop36
280
     0
102
RTVSPost2010PropOp36
 70
     1
102
RTVSPost2010Prop37
 90
       50
102
RTVSPost2010PropOp37
 70
     1
102
RTVSPost2010Prop38
140
0.0
102
RTVSPost2010PropOp38
 70
     1
102
RTVSPost2010Prop39
140
1.0
102
RTVSPost2010PropOp39
 70
     1
102
RTVSPost2010Prop40
 90
        0
102
RTVSPost2010PropOp40
 70
     1
102
RTVSPost2010Prop41ColorIndex
 90
       18
102
RTVSPost2010Prop41ColorRGB
 90
        0
102
RTVSPost2010PropOp41
 70
     1
102
RTVSPost2010Prop42
 90
       50
102
RTVSPost2010PropOp42
 70
     1
102
RTVSPost2010Prop43
 90
        3
102
RTVSPost2010PropOp43
 70
     1
102
RTVSPost2010Prop44ColorIndex
 90
        5
102
RTVSPost2010Prop44ColorRGB
 90
      255
102
RTVSPost2010PropOp44
 70
     1
102
RTVSPost2010Prop45
280
     0
102
RTVSPost2010PropOp45
 70
     1
102
RTVSPost2010Prop46
 90
       50
102
RTVSPost2010PropOp46
 70
     1
102
RTVSPost2010Prop47
 90
       50
102
RTVSPost2010PropOp47
 70
     1
102
RTVSPost2010Prop48
 90
       50
102
RTVSPost2010PropOp48
 70
     1
102
RTVSPost2010Prop49
280
     0
102
RTVSPost2010PropOp49
 70
     1
102
RTVSPost2010Prop50
 90
       50
102
RTVSPost2010PropOp50
 70
     1
102
RTVSPost2010Prop51ColorIndex
 90
      256
102
RTVSPost2010Prop51ColorRGB
 90
-16777216
102
RTVSPost2010PropOp51
 70
     0
102
RTVSPost2010Prop52
140
1.0
102
RTVSPost2010PropOp52
 70
     0
102
RTVSPost2010Prop53
 90
        2
102
RTVSPost2010PropOp53
 70
     1
102
RTVSPost2010Prop54
  1
strokes_ogs.tif
102
RTVSPost2010PropOp54
 70
     1
102
RTVSPost2010Prop55
280
     0
102
RTVSPost2010PropOp55
 70
     1
102
RTVSPost2010Prop56
140
1.0
102
RTVSPost2010PropOp56
 70
     1
102
RTVSPost2010Prop57
140
1.0
102
RTVSPost2010PropOp57
 70
     1
102
RTVSPropertyOp0
 70
     1
102
RTVSPropertyOp1
 70
     1
102
RTVSPropertyOp2
 70
     1
102
RTVSPropertyOp3
 70
     1
102
RTVSPropertyOp4
 70
     1
102
RTVSPropertyOp5
 70
     1
102
RTVSPropertyOp6
 70
     1
102
RTVSPropertyOp7
 70
     1
102
RTVSPropertyOp8
 70
     1
102
RTVSPropertyOp9
 70
     1
102
RTVSPropertyOp10
 70
     1
102
RTVSPropertyOp11
 70
     1
102
RTVSPropertyOp12
 70
     1
102
RTVSPropertyOp13
 70
     1
102
RTVSPropertyOp14
 70
     1
102
RTVSPropertyOp15
 70
     1
102
RTVSPropertyOp16
 70
     1
102
RTVSPropertyOp17
 70
     1
102
RTVSPropertyOp18
 70
     1
102
RTVSPropertyOp19
 70
     1
102
RTVSPropertyOp20
 70
     1
102
RTVSPropertyOp21
 70
     1
102
RTVSPropertyOp22
 70
     1
102
RTVSPropertyOp23
 70
     1
102
RTVSPropertyOp24
 70
     1
102
RTVSPropertyOp25
 70
     1
102
RTVSPropertyOp26
 70
     1
102
RTVSPropertyOp27
 70
     1
102
RTVSPropertyOp28
 70
     1
102
RTVSPropertyOp29
 70
     1
102
RTVSPropertyOp30
 70
     1
102
RTVSPropertyOp31
 70
     1
102
RTVSPropertyOp32
 70
     1
102
RTVSPropertyOp33
 70
     1
102
RTVSPropertyOp34
 70
     1
102
RTVSPropertyOp35
 70
     1
102
RTVSPropertyOp36
 70
     1
102
RTVSPropertyOp37
 70
     1
102
RTVSPropertyOp38
 70
     1
102
RTVSPropertyOp39
 70
     1
102
RTVSPropertyOp40
 70
     1
102
RTVSPropertyOp41
 70
     1
102
RTVSPropertyOp42
 70
     1
102
RTVSPropertyOp43
 70
     1
102
RTVSPropertyOp44
 70
     1
102
RTVSPropertyOp45
 70
     1
102
RTVSPropertyOp46
 70
     1
102
RTVSPropertyOp47
 70
     1
102
RTVSPropertyOp48
 70
     1
102
RTVSPropertyOp49
 70
     1
102
RTVSPropertyOp50
 70
     1
102
RTVSPropertyOp51
 70
     0
102
RTVSPropertyOp52
 70
     0
102
RTVSPropertyOp53
 70
     1
102
RTVSPropertyOp54
 70
     1
102
RTVSPropertyOp55
 70
     1
102
RTVSPropertyOp56
 70
     1
102
RTVSPropertyOp57
 70
     1
102
RTVSPropertyOp58
 70
     1
102
RTVSPropertyOp59
 70
     1
102
RTVSPropertyOp60
 70
     1
102
RTVSPropertyOp61
 70
     1
102
RTVSPropertyOp62
 70
     1
  0
XRECORD
  5
2877
102
{ACAD_REACTORS
330
2876
102
}
330
2876
100
AcDbXrecord
280
     1
102
RTVSPost2010Prop28
280
     0
102
RTVSPost2010PropOp28
 70
     1
102
RTVSPost2010Prop29
280
     1
102
RTVSPost2010PropOp29
 70
     1
102
RTVSPost2010Prop30
280
     1
102
RTVSPost2010PropOp30
 70
     1
102
RTVSPost2010Prop31
280
     0
102
RTVSPost2010PropOp31
 70
     1
102
RTVSPost2010Prop32
280
     0
102
RTVSPost2010PropOp32
 70
     1
102
RTVSPost2010Prop33
280
     0
102
RTVSPost2010PropOp33
 70
     1
102
RTVSPost2010Prop34
280
     0
102
RTVSPost2010PropOp34
 70
     1
102
RTVSPost2010Prop35
280
     0
102
RTVSPost2010PropOp35
 70
     1
102
RTVSPost2010Prop36
280
     0
102
RTVSPost2010PropOp36
 70
     1
102
RTVSPost2010Prop37
 90
       50
102
RTVSPost2010PropOp37
 70
     1
102
RTVSPost2010Prop38
140
0.0
102
RTVSPost2010PropOp38
 70
     1
102
RTVSPost2010Prop39
140
1.0
102
RTVSPost2010PropOp39
 70
     1
102
RTVSPost2010Prop40
 90
        0
102
RTVSPost2010PropOp40
 70
     1
102
RTVSPost2010Prop41ColorIndex
 90
       18
102
RTVSPost2010Prop41ColorRGB
 90
        0
102
RTVSPost2010PropOp41
 70
     1
102
RTVSPost2010Prop42
 90
       50
102
RTVSPost2010PropOp42
 70
     1
102
RTVSPost2010Prop43
 90
        3
102
RTVSPost2010PropOp43
 70
     1
102
RTVSPost2010Prop44ColorIndex
 90
        5
102
RTVSPost2010Prop44ColorRGB
 90
      255
102
RTVSPost2010PropOp44
 70
     1
102
RTVSPost2010Prop45
280
     0
102
RTVSPost2010PropOp45
 70
     1
102
RTVSPost2010Prop46
 90
       50
102
RTVSPost2010PropOp46
 70
     1
102
RTVSPost2010Prop47
 90
       50
102
RTVSPost2010PropOp47
 70
     1
102
RTVSPost2010Prop48
 90
       50
102
RTVSPost2010PropOp48
 70
     1
102
RTVSPost2010Prop49
280
     0
102
RTVSPost2010PropOp49
 70
     1
102
RTVSPost2010Prop50
 90
       50
102
RTVSPost2010PropOp50
 70
     1
102
RTVSPost2010Prop51ColorIndex
 90
      256
102
RTVSPost2010Prop51ColorRGB
 90
-16777216
102
RTVSPost2010PropOp51
 70
     0
102
RTVSPost2010Prop52
140
1.0
102
RTVSPost2010PropOp52
 70
     0
102
RTVSPost2010Prop53
 90
        2
102
RTVSPost2010PropOp53
 70
     1
102
RTVSPost2010Prop54
  1
strokes_ogs.tif
102
RTVSPost2010PropOp54
 70
     1
102
RTVSPost2010Prop55
280
     0
102
RTVSPost2010PropOp55
 70
     1
102
RTVSPost2010Prop56
140
1.0
102
RTVSPost2010PropOp56
 70
     1
102
RTVSPost2010Prop57
140
1.0
102
RTVSPost2010PropOp57
 70
     1
102
RTVSPropertyOp0
 70
     1
102
RTVSPropertyOp1
 70
     1
102
RTVSPropertyOp2
 70
     1
102
RTVSPropertyOp3
 70
     1
102
RTVSPropertyOp4
 70
     1
102
RTVSPropertyOp5
 70
     1
102
RTVSPropertyOp6
 70
     1
102
RTVSPropertyOp7
 70
     1
102
RTVSPropertyOp8
 70
     1
102
RTVSPropertyOp9
 70
     1
102
RTVSPropertyOp10
 70
     1
102
RTVSPropertyOp11
 70
     1
102
RTVSPropertyOp12
 70
     1
102
RTVSPropertyOp13
 70
     1
102
RTVSPropertyOp14
 70
     1
102
RTVSPropertyOp15
 70
     1
102
RTVSPropertyOp16
 70
     1
102
RTVSPropertyOp17
 70
     1
102
RTVSPropertyOp18
 70
     1
102
RTVSPropertyOp19
 70
     1
102
RTVSPropertyOp20
 70
     1
102
RTVSPropertyOp21
 70
     1
102
RTVSPropertyOp22
 70
     1
102
RTVSPropertyOp23
 70
     1
102
RTVSPropertyOp24
 70
     1
102
RTVSPropertyOp25
 70
     1
102
RTVSPropertyOp26
 70
     1
102
RTVSPropertyOp27
 70
     1
102
RTVSPropertyOp28
 70
     1
102
RTVSPropertyOp29
 70
     1
102
RTVSPropertyOp30
 70
     1
102
RTVSPropertyOp31
 70
     1
102
RTVSPropertyOp32
 70
     1
102
RTVSPropertyOp33
 70
     1
102
RTVSPropertyOp34
 70
     1
102
RTVSPropertyOp35
 70
     1
102
RTVSPropertyOp36
 70
     1
102
RTVSPropertyOp37
 70
     1
102
RTVSPropertyOp38
 70
     1
102
RTVSPropertyOp39
 70
     1
102
RTVSPropertyOp40
 70
     1
102
RTVSPropertyOp41
 70
     1
102
RTVSPropertyOp42
 70
     1
102
RTVSPropertyOp43
 70
     1
102
RTVSPropertyOp44
 70
     1
102
RTVSPropertyOp45
 70
     1
102
RTVSPropertyOp46
 70
     1
102
RTVSPropertyOp47
 70
     1
102
RTVSPropertyOp48
 70
     1
102
RTVSPropertyOp49
 70
     1
102
RTVSPropertyOp50
 70
     1
102
RTVSPropertyOp51
 70
     0
102
RTVSPropertyOp52
 70
     0
102
RTVSPropertyOp53
 70
     1
102
RTVSPropertyOp54
 70
     1
102
RTVSPropertyOp55
 70
     1
102
RTVSPropertyOp56
 70
     1
102
RTVSPropertyOp57
 70
     1
102
RTVSPropertyOp58
 70
     1
102
RTVSPropertyOp59
 70
     1
102
RTVSPropertyOp60
 70
     1
102
RTVSPropertyOp61
 70
     1
102
RTVSPropertyOp62
 70
     1
  0
XRECORD
  5
2879
102
{ACAD_REACTORS
330
2878
102
}
330
2878
100
AcDbXrecord
280
     1
102
RTVSPost2010Prop28
280
     0
102
RTVSPost2010PropOp28
 70
     1
102
RTVSPost2010Prop29
280
     1
102
RTVSPost2010PropOp29
 70
     1
102
RTVSPost2010Prop30
280
     1
102
RTVSPost2010PropOp30
 70
     1
102
RTVSPost2010Prop31
280
     0
102
RTVSPost2010PropOp31
 70
     1
102
RTVSPost2010Prop32
280
     0
102
RTVSPost2010PropOp32
 70
     1
102
RTVSPost2010Prop33
280
     0
102
RTVSPost2010PropOp33
 70
     1
102
RTVSPost2010Prop34
280
     0
102
RTVSPost2010PropOp34
 70
     1
102
RTVSPost2010Prop35
280
     0
102
RTVSPost2010PropOp35
 70
     1
102
RTVSPost2010Prop36
280
     0
102
RTVSPost2010PropOp36
 70
     1
102
RTVSPost2010Prop37
 90
       50
102
RTVSPost2010PropOp37
 70
     1
102
RTVSPost2010Prop38
140
0.0
102
RTVSPost2010PropOp38
 70
     1
102
RTVSPost2010Prop39
140
1.0
102
RTVSPost2010PropOp39
 70
     1
102
RTVSPost2010Prop40
 90
        0
102
RTVSPost2010PropOp40
 70
     1
102
RTVSPost2010Prop41ColorIndex
 90
       18
102
RTVSPost2010Prop41ColorRGB
 90
        0
102
RTVSPost2010PropOp41
 70
     1
102
RTVSPost2010Prop42
 90
       50
102
RTVSPost2010PropOp42
 70
     1
102
RTVSPost2010Prop43
 90
        3
102
RTVSPost2010PropOp43
 70
     1
102
RTVSPost2010Prop44ColorIndex
 90
        5
102
RTVSPost2010Prop44ColorRGB
 90
      255
102
RTVSPost2010PropOp44
 70
     1
102
RTVSPost2010Prop45
280
     0
102
RTVSPost2010PropOp45
 70
     1
102
RTVSPost2010Prop46
 90
       50
102
RTVSPost2010PropOp46
 70
     1
102
RTVSPost2010Prop47
 90
       50
102
RTVSPost2010PropOp47
 70
     1
102
RTVSPost2010Prop48
 90
       50
102
RTVSPost2010PropOp48
 70
     1
102
RTVSPost2010Prop49
280
     0
102
RTVSPost2010PropOp49
 70
     1
102
RTVSPost2010Prop50
 90
       50
102
RTVSPost2010PropOp50
 70
     1
102
RTVSPost2010Prop51ColorIndex
 90
      256
102
RTVSPost2010Prop51ColorRGB
 90
-16777216
102
RTVSPost2010PropOp51
 70
     0
102
RTVSPost2010Prop52
140
1.0
102
RTVSPost2010PropOp52
 70
     0
102
RTVSPost2010Prop53
 90
        2
102
RTVSPost2010PropOp53
 70
     1
102
RTVSPost2010Prop54
  1
strokes_ogs.tif
102
RTVSPost2010PropOp54
 70
     1
102
RTVSPost2010Prop55
280
     0
102
RTVSPost2010PropOp55
 70
     1
102
RTVSPost2010Prop56
140
1.0
102
RTVSPost2010PropOp56
 70
     1
102
RTVSPost2010Prop57
140
1.0
102
RTVSPost2010PropOp57
 70
     1
102
RTVSPropertyOp0
 70
     1
102
RTVSPropertyOp1
 70
     1
102
RTVSPropertyOp2
 70
     1
102
RTVSPropertyOp3
 70
     1
102
RTVSPropertyOp4
 70
     1
102
RTVSPropertyOp5
 70
     1
102
RTVSPropertyOp6
 70
     1
102
RTVSPropertyOp7
 70
     1
102
RTVSPropertyOp8
 70
     1
102
RTVSPropertyOp9
 70
     1
102
RTVSPropertyOp10
 70
     1
102
RTVSPropertyOp11
 70
     1
102
RTVSPropertyOp12
 70
     1
102
RTVSPropertyOp13
 70
     1
102
RTVSPropertyOp14
 70
     1
102
RTVSPropertyOp15
 70
     1
102
RTVSPropertyOp16
 70
     1
102
RTVSPropertyOp17
 70
     1
102
RTVSPropertyOp18
 70
     1
102
RTVSPropertyOp19
 70
     1
102
RTVSPropertyOp20
 70
     1
102
RTVSPropertyOp21
 70
     1
102
RTVSPropertyOp22
 70
     1
102
RTVSPropertyOp23
 70
     1
102
RTVSPropertyOp24
 70
     1
102
RTVSPropertyOp25
 70
     1
102
RTVSPropertyOp26
 70
     1
102
RTVSPropertyOp27
 70
     1
102
RTVSPropertyOp28
 70
     1
102
RTVSPropertyOp29
 70
     1
102
RTVSPropertyOp30
 70
     1
102
RTVSPropertyOp31
 70
     1
102
RTVSPropertyOp32
 70
     1
102
RTVSPropertyOp33
 70
     1
102
RTVSPropertyOp34
 70
     1
102
RTVSPropertyOp35
 70
     1
102
RTVSPropertyOp36
 70
     1
102
RTVSPropertyOp37
 70
     1
102
RTVSPropertyOp38
 70
     1
102
RTVSPropertyOp39
 70
     1
102
RTVSPropertyOp40
 70
     1
102
RTVSPropertyOp41
 70
     1
102
RTVSPropertyOp42
 70
     1
102
RTVSPropertyOp43
 70
     1
102
RTVSPropertyOp44
 70
     1
102
RTVSPropertyOp45
 70
     1
102
RTVSPropertyOp46
 70
     1
102
RTVSPropertyOp47
 70
     1
102
RTVSPropertyOp48
 70
     1
102
RTVSPropertyOp49
 70
     1
102
RTVSPropertyOp50
 70
     1
102
RTVSPropertyOp51
 70
     0
102
RTVSPropertyOp52
 70
     0
102
RTVSPropertyOp53
 70
     1
102
RTVSPropertyOp54
 70
     1
102
RTVSPropertyOp55
 70
     1
102
RTVSPropertyOp56
 70
     1
102
RTVSPropertyOp57
 70
     1
102
RTVSPropertyOp58
 70
     1
102
RTVSPropertyOp59
 70
     1
102
RTVSPropertyOp60
 70
     1
102
RTVSPropertyOp61
 70
     1
102
RTVSPropertyOp62
 70
     1
  0
XRECORD
  5
287B
102
{ACAD_REACTORS
330
287A
102
}
330
287A
100
AcDbXrecord
280
     1
102
RTVSPost2010Prop28
280
     0
102
RTVSPost2010PropOp28
 70
     1
102
RTVSPost2010Prop29
280
     1
102
RTVSPost2010PropOp29
 70
     1
102
RTVSPost2010Prop30
280
     1
102
RTVSPost2010PropOp30
 70
     1
102
RTVSPost2010Prop31
280
     0
102
RTVSPost2010PropOp31
 70
     1
102
RTVSPost2010Prop32
280
     0
102
RTVSPost2010PropOp32
 70
     1
102
RTVSPost2010Prop33
280
     0
102
RTVSPost2010PropOp33
 70
     1
102
RTVSPost2010Prop34
280
     0
102
RTVSPost2010PropOp34
 70
     1
102
RTVSPost2010Prop35
280
     0
102
RTVSPost2010PropOp35
 70
     1
102
RTVSPost2010Prop36
280
     0
102
RTVSPost2010PropOp36
 70
     1
102
RTVSPost2010Prop37
 90
       50
102
RTVSPost2010PropOp37
 70
     1
102
RTVSPost2010Prop38
140
0.0
102
RTVSPost2010PropOp38
 70
     1
102
RTVSPost2010Prop39
140
1.0
102
RTVSPost2010PropOp39
 70
     1
102
RTVSPost2010Prop40
 90
        0
102
RTVSPost2010PropOp40
 70
     1
102
RTVSPost2010Prop41ColorIndex
 90
       18
102
RTVSPost2010Prop41ColorRGB
 90
        0
102
RTVSPost2010PropOp41
 70
     1
102
RTVSPost2010Prop42
 90
       50
102
RTVSPost2010PropOp42
 70
     1
102
RTVSPost2010Prop43
 90
        3
102
RTVSPost2010PropOp43
 70
     1
102
RTVSPost2010Prop44ColorIndex
 90
        5
102
RTVSPost2010Prop44ColorRGB
 90
      255
102
RTVSPost2010PropOp44
 70
     1
102
RTVSPost2010Prop45
280
     0
102
RTVSPost2010PropOp45
 70
     1
102
RTVSPost2010Prop46
 90
       50
102
RTVSPost2010PropOp46
 70
     1
102
RTVSPost2010Prop47
 90
       50
102
RTVSPost2010PropOp47
 70
     1
102
RTVSPost2010Prop48
 90
       50
102
RTVSPost2010PropOp48
 70
     1
102
RTVSPost2010Prop49
280
     0
102
RTVSPost2010PropOp49
 70
     1
102
RTVSPost2010Prop50
 90
       50
102
RTVSPost2010PropOp50
 70
     1
102
RTVSPost2010Prop51ColorIndex
 90
      256
102
RTVSPost2010Prop51ColorRGB
 90
-16777216
102
RTVSPost2010PropOp51
 70
     0
102
RTVSPost2010Prop52
140
1.0
102
RTVSPost2010PropOp52
 70
     0
102
RTVSPost2010Prop53
 90
        2
102
RTVSPost2010PropOp53
 70
     1
102
RTVSPost2010Prop54
  1
strokes_ogs.tif
102
RTVSPost2010PropOp54
 70
     1
102
RTVSPost2010Prop55
280
     0
102
RTVSPost2010PropOp55
 70
     1
102
RTVSPost2010Prop56
140
1.0
102
RTVSPost2010PropOp56
 70
     1
102
RTVSPost2010Prop57
140
1.0
102
RTVSPost2010PropOp57
 70
     1
102
RTVSPropertyOp0
 70
     1
102
RTVSPropertyOp1
 70
     1
102
RTVSPropertyOp2
 70
     1
102
RTVSPropertyOp3
 70
     1
102
RTVSPropertyOp4
 70
     1
102
RTVSPropertyOp5
 70
     1
102
RTVSPropertyOp6
 70
     1
102
RTVSPropertyOp7
 70
     1
102
RTVSPropertyOp8
 70
     1
102
RTVSPropertyOp9
 70
     1
102
RTVSPropertyOp10
 70
     1
102
RTVSPropertyOp11
 70
     1
102
RTVSPropertyOp12
 70
     1
102
RTVSPropertyOp13
 70
     1
102
RTVSPropertyOp14
 70
     1
102
RTVSPropertyOp15
 70
     1
102
RTVSPropertyOp16
 70
     1
102
RTVSPropertyOp17
 70
     1
102
RTVSPropertyOp18
 70
     1
102
RTVSPropertyOp19
 70
     1
102
RTVSPropertyOp20
 70
     1
102
RTVSPropertyOp21
 70
     1
102
RTVSPropertyOp22
 70
     1
102
RTVSPropertyOp23
 70
     1
102
RTVSPropertyOp24
 70
     1
102
RTVSPropertyOp25
 70
     1
102
RTVSPropertyOp26
 70
     1
102
RTVSPropertyOp27
 70
     1
102
RTVSPropertyOp28
 70
     1
102
RTVSPropertyOp29
 70
     1
102
RTVSPropertyOp30
 70
     1
102
RTVSPropertyOp31
 70
     1
102
RTVSPropertyOp32
 70
     1
102
RTVSPropertyOp33
 70
     1
102
RTVSPropertyOp34
 70
     1
102
RTVSPropertyOp35
 70
     1
102
RTVSPropertyOp36
 70
     1
102
RTVSPropertyOp37
 70
     1
102
RTVSPropertyOp38
 70
     1
102
RTVSPropertyOp39
 70
     1
102
RTVSPropertyOp40
 70
     1
102
RTVSPropertyOp41
 70
     1
102
RTVSPropertyOp42
 70
     1
102
RTVSPropertyOp43
 70
     1
102
RTVSPropertyOp44
 70
     1
102
RTVSPropertyOp45
 70
     1
102
RTVSPropertyOp46
 70
     1
102
RTVSPropertyOp47
 70
     1
102
RTVSPropertyOp48
 70
     1
102
RTVSPropertyOp49
 70
     1
102
RTVSPropertyOp50
 70
     1
102
RTVSPropertyOp51
 70
     0
102
RTVSPropertyOp52
 70
     0
102
RTVSPropertyOp53
 70
     1
102
RTVSPropertyOp54
 70
     1
102
RTVSPropertyOp55
 70
     1
102
RTVSPropertyOp56
 70
     1
102
RTVSPropertyOp57
 70
     1
102
RTVSPropertyOp58
 70
     1
102
RTVSPropertyOp59
 70
     1
102
RTVSPropertyOp60
 70
     1
102
RTVSPropertyOp61
 70
     1
102
RTVSPropertyOp62
 70
     1
  0
XRECORD
  5
2883
102
{ACAD_REACTORS
330
2882
102
}
330
2882
100
AcDbXrecord
280
     1
102
RTVSPost2010Prop28
280
     0
102
RTVSPost2010PropOp28
 70
     1
102
RTVSPost2010Prop29
280
     1
102
RTVSPost2010PropOp29
 70
     1
102
RTVSPost2010Prop30
280
     1
102
RTVSPost2010PropOp30
 70
     1
102
RTVSPost2010Prop31
280
     0
102
RTVSPost2010PropOp31
 70
     1
102
RTVSPost2010Prop32
280
     0
102
RTVSPost2010PropOp32
 70
     1
102
RTVSPost2010Prop33
280
     0
102
RTVSPost2010PropOp33
 70
     1
102
RTVSPost2010Prop34
280
     0
102
RTVSPost2010PropOp34
 70
     1
102
RTVSPost2010Prop35
280
     0
102
RTVSPost2010PropOp35
 70
     1
102
RTVSPost2010Prop36
280
     0
102
RTVSPost2010PropOp36
 70
     1
102
RTVSPost2010Prop37
 90
       50
102
RTVSPost2010PropOp37
 70
     1
102
RTVSPost2010Prop38
140
0.0
102
RTVSPost2010PropOp38
 70
     1
102
RTVSPost2010Prop39
140
1.0
102
RTVSPost2010PropOp39
 70
     1
102
RTVSPost2010Prop40
 90
        0
102
RTVSPost2010PropOp40
 70
     1
102
RTVSPost2010Prop41ColorIndex
 90
       18
102
RTVSPost2010Prop41ColorRGB
 90
        0
102
RTVSPost2010PropOp41
 70
     1
102
RTVSPost2010Prop42
 90
       50
102
RTVSPost2010PropOp42
 70
     1
102
RTVSPost2010Prop43
 90
        3
102
RTVSPost2010PropOp43
 70
     1
102
RTVSPost2010Prop44ColorIndex
 90
        5
102
RTVSPost2010Prop44ColorRGB
 90
      255
102
RTVSPost2010PropOp44
 70
     1
102
RTVSPost2010Prop45
280
     0
102
RTVSPost2010PropOp45
 70
     1
102
RTVSPost2010Prop46
 90
       50
102
RTVSPost2010PropOp46
 70
     1
102
RTVSPost2010Prop47
 90
       50
102
RTVSPost2010PropOp47
 70
     1
102
RTVSPost2010Prop48
 90
       50
102
RTVSPost2010PropOp48
 70
     1
102
RTVSPost2010Prop49
280
     0
102
RTVSPost2010PropOp49
 70
     1
102
RTVSPost2010Prop50
 90
       50
102
RTVSPost2010PropOp50
 70
     1
102
RTVSPost2010Prop51ColorIndex
 90
      256
102
RTVSPost2010Prop51ColorRGB
 90
-16777216
102
RTVSPost2010PropOp51
 70
     0
102
RTVSPost2010Prop52
140
1.0
102
RTVSPost2010PropOp52
 70
     0
102
RTVSPost2010Prop53
 90
        2
102
RTVSPost2010PropOp53
 70
     1
102
RTVSPost2010Prop54
  1
strokes_ogs.tif
102
RTVSPost2010PropOp54
 70
     1
102
RTVSPost2010Prop55
280
     0
102
RTVSPost2010PropOp55
 70
     1
102
RTVSPost2010Prop56
140
1.0
102
RTVSPost2010PropOp56
 70
     1
102
RTVSPost2010Prop57
140
1.0
102
RTVSPost2010PropOp57
 70
     1
102
RTVSPropertyOp0
 70
     1
102
RTVSPropertyOp1
 70
     1
102
RTVSPropertyOp2
 70
     1
102
RTVSPropertyOp3
 70
     1
102
RTVSPropertyOp4
 70
     1
102
RTVSPropertyOp5
 70
     1
102
RTVSPropertyOp6
 70
     1
102
RTVSPropertyOp7
 70
     1
102
RTVSPropertyOp8
 70
     1
102
RTVSPropertyOp9
 70
     1
102
RTVSPropertyOp10
 70
     1
102
RTVSPropertyOp11
 70
     1
102
RTVSPropertyOp12
 70
     1
102
RTVSPropertyOp13
 70
     1
102
RTVSPropertyOp14
 70
     1
102
RTVSPropertyOp15
 70
     1
102
RTVSPropertyOp16
 70
     1
102
RTVSPropertyOp17
 70
     1
102
RTVSPropertyOp18
 70
     1
102
RTVSPropertyOp19
 70
     1
102
RTVSPropertyOp20
 70
     1
102
RTVSPropertyOp21
 70
     1
102
RTVSPropertyOp22
 70
     1
102
RTVSPropertyOp23
 70
     1
102
RTVSPropertyOp24
 70
     1
102
RTVSPropertyOp25
 70
     1
102
RTVSPropertyOp26
 70
     1
102
RTVSPropertyOp27
 70
     1
102
RTVSPropertyOp28
 70
     1
102
RTVSPropertyOp29
 70
     1
102
RTVSPropertyOp30
 70
     1
102
RTVSPropertyOp31
 70
     1
102
RTVSPropertyOp32
 70
     1
102
RTVSPropertyOp33
 70
     1
102
RTVSPropertyOp34
 70
     1
102
RTVSPropertyOp35
 70
     1
102
RTVSPropertyOp36
 70
     1
102
RTVSPropertyOp37
 70
     1
102
RTVSPropertyOp38
 70
     1
102
RTVSPropertyOp39
 70
     1
102
RTVSPropertyOp40
 70
     1
102
RTVSPropertyOp41
 70
     1
102
RTVSPropertyOp42
 70
     1
102
RTVSPropertyOp43
 70
     1
102
RTVSPropertyOp44
 70
     1
102
RTVSPropertyOp45
 70
     1
102
RTVSPropertyOp46
 70
     1
102
RTVSPropertyOp47
 70
     1
102
RTVSPropertyOp48
 70
     1
102
RTVSPropertyOp49
 70
     1
102
RTVSPropertyOp50
 70
     1
102
RTVSPropertyOp51
 70
     0
102
RTVSPropertyOp52
 70
     0
102
RTVSPropertyOp53
 70
     1
102
RTVSPropertyOp54
 70
     1
102
RTVSPropertyOp55
 70
     1
102
RTVSPropertyOp56
 70
     1
102
RTVSPropertyOp57
 70
     1
102
RTVSPropertyOp58
 70
     1
102
RTVSPropertyOp59
 70
     1
102
RTVSPropertyOp60
 70
     1
102
RTVSPropertyOp61
 70
     1
102
RTVSPropertyOp62
 70
     1
  0
XRECORD
  5
2897
102
{ACAD_REACTORS
330
2896
102
}
330
2896
100
AcDbXrecord
280
     1
102
RTVSPost2010Prop28
280
     0
102
RTVSPost2010PropOp28
 70
     1
102
RTVSPost2010Prop29
280
     1
102
RTVSPost2010PropOp29
 70
     1
102
RTVSPost2010Prop30
280
     1
102
RTVSPost2010PropOp30
 70
     1
102
RTVSPost2010Prop31
280
     0
102
RTVSPost2010PropOp31
 70
     1
102
RTVSPost2010Prop32
280
     0
102
RTVSPost2010PropOp32
 70
     1
102
RTVSPost2010Prop33
280
     0
102
RTVSPost2010PropOp33
 70
     1
102
RTVSPost2010Prop34
280
     0
102
RTVSPost2010PropOp34
 70
     1
102
RTVSPost2010Prop35
280
     0
102
RTVSPost2010PropOp35
 70
     1
102
RTVSPost2010Prop36
280
     0
102
RTVSPost2010PropOp36
 70
     1
102
RTVSPost2010Prop37
 90
       50
102
RTVSPost2010PropOp37
 70
     1
102
RTVSPost2010Prop38
140
0.0
102
RTVSPost2010PropOp38
 70
     1
102
RTVSPost2010Prop39
140
1.0
102
RTVSPost2010PropOp39
 70
     1
102
RTVSPost2010Prop40
 90
        0
102
RTVSPost2010PropOp40
 70
     1
102
RTVSPost2010Prop41ColorIndex
 90
       18
102
RTVSPost2010Prop41ColorRGB
 90
        0
102
RTVSPost2010PropOp41
 70
     1
102
RTVSPost2010Prop42
 90
       50
102
RTVSPost2010PropOp42
 70
     1
102
RTVSPost2010Prop43
 90
        3
102
RTVSPost2010PropOp43
 70
     1
102
RTVSPost2010Prop44ColorIndex
 90
        5
102
RTVSPost2010Prop44ColorRGB
 90
      255
102
RTVSPost2010PropOp44
 70
     1
102
RTVSPost2010Prop45
280
     0
102
RTVSPost2010PropOp45
 70
     1
102
RTVSPost2010Prop46
 90
       50
102
RTVSPost2010PropOp46
 70
     1
102
RTVSPost2010Prop47
 90
       50
102
RTVSPost2010PropOp47
 70
     1
102
RTVSPost2010Prop48
 90
       50
102
RTVSPost2010PropOp48
 70
     1
102
RTVSPost2010Prop49
280
     0
102
RTVSPost2010PropOp49
 70
     1
102
RTVSPost2010Prop50
 90
       50
102
RTVSPost2010PropOp50
 70
     1
102
RTVSPost2010Prop51ColorIndex
 90
      256
102
RTVSPost2010Prop51ColorRGB
 90
-16777216
102
RTVSPost2010PropOp51
 70
     0
102
RTVSPost2010Prop52
140
1.0
102
RTVSPost2010PropOp52
 70
     0
102
RTVSPost2010Prop53
 90
        2
102
RTVSPost2010PropOp53
 70
     1
102
RTVSPost2010Prop54
  1
strokes_ogs.tif
102
RTVSPost2010PropOp54
 70
     1
102
RTVSPost2010Prop55
280
     0
102
RTVSPost2010PropOp55
 70
     1
102
RTVSPost2010Prop56
140
1.0
102
RTVSPost2010PropOp56
 70
     1
102
RTVSPost2010Prop57
140
1.0
102
RTVSPost2010PropOp57
 70
     1
102
RTVSPropertyOp0
 70
     0
102
RTVSPropertyOp1
 70
     0
102
RTVSPropertyOp2
 70
     0
102
RTVSPropertyOp3
 70
     0
102
RTVSPropertyOp4
 70
     0
102
RTVSPropertyOp5
 70
     0
102
RTVSPropertyOp6
 70
     0
102
RTVSPropertyOp7
 70
     0
102
RTVSPropertyOp8
 70
     0
102
RTVSPropertyOp9
 70
     0
102
RTVSPropertyOp10
 70
     0
102
RTVSPropertyOp11
 70
     0
102
RTVSPropertyOp12
 70
     0
102
RTVSPropertyOp13
 70
     0
102
RTVSPropertyOp14
 70
     2
102
RTVSPropertyOp15
 70
     0
102
RTVSPropertyOp16
 70
     0
102
RTVSPropertyOp17
 70
     0
102
RTVSPropertyOp18
 70
     0
102
RTVSPropertyOp19
 70
     0
102
RTVSPropertyOp20
 70
     0
102
RTVSPropertyOp21
 70
     0
102
RTVSPropertyOp22
 70
     0
102
RTVSPropertyOp23
 70
     0
102
RTVSPropertyOp24
 70
     0
102
RTVSPropertyOp25
 70
     0
102
RTVSPropertyOp26
 70
     0
102
RTVSPropertyOp27
 70
     0
102
RTVSPropertyOp28
 70
     1
102
RTVSPropertyOp29
 70
     1
102
RTVSPropertyOp30
 70
     1
102
RTVSPropertyOp31
 70
     1
102
RTVSPropertyOp32
 70
     1
102
RTVSPropertyOp33
 70
     1
102
RTVSPropertyOp34
 70
     1
102
RTVSPropertyOp35
 70
     1
102
RTVSPropertyOp36
 70
     1
102
RTVSPropertyOp37
 70
     1
102
RTVSPropertyOp38
 70
     1
102
RTVSPropertyOp39
 70
     1
102
RTVSPropertyOp40
 70
     1
102
RTVSPropertyOp41
 70
     1
102
RTVSPropertyOp42
 70
     1
102
RTVSPropertyOp43
 70
     1
102
RTVSPropertyOp44
 70
     1
102
RTVSPropertyOp45
 70
     1
102
RTVSPropertyOp46
 70
     1
102
RTVSPropertyOp47
 70
     1
102
RTVSPropertyOp48
 70
     1
102
RTVSPropertyOp49
 70
     1
102
RTVSPropertyOp50
 70
     1
102
RTVSPropertyOp51
 70
     0
102
RTVSPropertyOp52
 70
     0
102
RTVSPropertyOp53
 70
     1
102
RTVSPropertyOp54
 70
     1
102
RTVSPropertyOp55
 70
     1
102
RTVSPropertyOp56
 70
     1
102
RTVSPropertyOp57
 70
     1
102
RTVSPropertyOp58
 70
     1
102
RTVSPropertyOp59
 70
     1
102
RTVSPropertyOp60
 70
     1
102
RTVSPropertyOp61
 70
     1
102
RTVSPropertyOp62
 70
     1
  0
XRECORD
  5
288F
102
{ACAD_REACTORS
330
288E
102
}
330
288E
100
AcDbXrecord
280
     1
102
RTVSPost2010Prop28
280
     0
102
RTVSPost2010PropOp28
 70
     1
102
RTVSPost2010Prop29
280
     1
102
RTVSPost2010PropOp29
 70
     1
102
RTVSPost2010Prop30
280
     1
102
RTVSPost2010PropOp30
 70
     1
102
RTVSPost2010Prop31
280
     0
102
RTVSPost2010PropOp31
 70
     1
102
RTVSPost2010Prop32
280
     0
102
RTVSPost2010PropOp32
 70
     1
102
RTVSPost2010Prop33
280
     0
102
RTVSPost2010PropOp33
 70
     1
102
RTVSPost2010Prop34
280
     0
102
RTVSPost2010PropOp34
 70
     1
102
RTVSPost2010Prop35
280
     0
102
RTVSPost2010PropOp35
 70
     1
102
RTVSPost2010Prop36
280
     0
102
RTVSPost2010PropOp36
 70
     1
102
RTVSPost2010Prop37
 90
       50
102
RTVSPost2010PropOp37
 70
     1
102
RTVSPost2010Prop38
140
0.0
102
RTVSPost2010PropOp38
 70
     1
102
RTVSPost2010Prop39
140
1.0
102
RTVSPost2010PropOp39
 70
     1
102
RTVSPost2010Prop40
 90
        0
102
RTVSPost2010PropOp40
 70
     1
102
RTVSPost2010Prop41ColorIndex
 90
       18
102
RTVSPost2010Prop41ColorRGB
 90
        0
102
RTVSPost2010PropOp41
 70
     1
102
RTVSPost2010Prop42
 90
       50
102
RTVSPost2010PropOp42
 70
     1
102
RTVSPost2010Prop43
 90
        3
102
RTVSPost2010PropOp43
 70
     1
102
RTVSPost2010Prop44ColorIndex
 90
        5
102
RTVSPost2010Prop44ColorRGB
 90
      255
102
RTVSPost2010PropOp44
 70
     1
102
RTVSPost2010Prop45
280
     0
102
RTVSPost2010PropOp45
 70
     1
102
RTVSPost2010Prop46
 90
       50
102
RTVSPost2010PropOp46
 70
     1
102
RTVSPost2010Prop47
 90
       50
102
RTVSPost2010PropOp47
 70
     1
102
RTVSPost2010Prop48
 90
       50
102
RTVSPost2010PropOp48
 70
     1
102
RTVSPost2010Prop49
280
     0
102
RTVSPost2010PropOp49
 70
     1
102
RTVSPost2010Prop50
 90
       50
102
RTVSPost2010PropOp50
 70
     1
102
RTVSPost2010Prop51ColorIndex
 90
      256
102
RTVSPost2010Prop51ColorRGB
 90
-16777216
102
RTVSPost2010PropOp51
 70
     0
102
RTVSPost2010Prop52
140
1.0
102
RTVSPost2010PropOp52
 70
     0
102
RTVSPost2010Prop53
 90
        2
102
RTVSPost2010PropOp53
 70
     1
102
RTVSPost2010Prop54
  1
strokes_ogs.tif
102
RTVSPost2010PropOp54
 70
     1
102
RTVSPost2010Prop55
280
     0
102
RTVSPost2010PropOp55
 70
     1
102
RTVSPost2010Prop56
140
1.0
102
RTVSPost2010PropOp56
 70
     1
102
RTVSPost2010Prop57
140
1.0
102
RTVSPost2010PropOp57
 70
     1
102
RTVSPropertyOp0
 70
     1
102
RTVSPropertyOp1
 70
     1
102
RTVSPropertyOp2
 70
     1
102
RTVSPropertyOp3
 70
     1
102
RTVSPropertyOp4
 70
     1
102
RTVSPropertyOp5
 70
     1
102
RTVSPropertyOp6
 70
     1
102
RTVSPropertyOp7
 70
     1
102
RTVSPropertyOp8
 70
     1
102
RTVSPropertyOp9
 70
     1
102
RTVSPropertyOp10
 70
     1
102
RTVSPropertyOp11
 70
     1
102
RTVSPropertyOp12
 70
     1
102
RTVSPropertyOp13
 70
     1
102
RTVSPropertyOp14
 70
     1
102
RTVSPropertyOp15
 70
     1
102
RTVSPropertyOp16
 70
     1
102
RTVSPropertyOp17
 70
     1
102
RTVSPropertyOp18
 70
     1
102
RTVSPropertyOp19
 70
     1
102
RTVSPropertyOp20
 70
     1
102
RTVSPropertyOp21
 70
     1
102
RTVSPropertyOp22
 70
     1
102
RTVSPropertyOp23
 70
     1
102
RTVSPropertyOp24
 70
     1
102
RTVSPropertyOp25
 70
     1
102
RTVSPropertyOp26
 70
     1
102
RTVSPropertyOp27
 70
     1
102
RTVSPropertyOp28
 70
     1
102
RTVSPropertyOp29
 70
     1
102
RTVSPropertyOp30
 70
     1
102
RTVSPropertyOp31
 70
     1
102
RTVSPropertyOp32
 70
     1
102
RTVSPropertyOp33
 70
     1
102
RTVSPropertyOp34
 70
     1
102
RTVSPropertyOp35
 70
     1
102
RTVSPropertyOp36
 70
     1
102
RTVSPropertyOp37
 70
     1
102
RTVSPropertyOp38
 70
     1
102
RTVSPropertyOp39
 70
     1
102
RTVSPropertyOp40
 70
     1
102
RTVSPropertyOp41
 70
     1
102
RTVSPropertyOp42
 70
     1
102
RTVSPropertyOp43
 70
     1
102
RTVSPropertyOp44
 70
     1
102
RTVSPropertyOp45
 70
     1
102
RTVSPropertyOp46
 70
     1
102
RTVSPropertyOp47
 70
     1
102
RTVSPropertyOp48
 70
     1
102
RTVSPropertyOp49
 70
     1
102
RTVSPropertyOp50
 70
     1
102
RTVSPropertyOp51
 70
     0
102
RTVSPropertyOp52
 70
     0
102
RTVSPropertyOp53
 70
     1
102
RTVSPropertyOp54
 70
     1
102
RTVSPropertyOp55
 70
     1
102
RTVSPropertyOp56
 70
     1
102
RTVSPropertyOp57
 70
     1
102
RTVSPropertyOp58
 70
     1
102
RTVSPropertyOp59
 70
     1
102
RTVSPropertyOp60
 70
     1
102
RTVSPropertyOp61
 70
     1
102
RTVSPropertyOp62
 70
     1
  0
XRECORD
  5
2899
102
{ACAD_REACTORS
330
2898
102
}
330
2898
100
AcDbXrecord
280
     1
102
RTVSPost2010Prop28
280
     0
102
RTVSPost2010PropOp28
 70
     1
102
RTVSPost2010Prop29
280
     1
102
RTVSPost2010PropOp29
 70
     1
102
RTVSPost2010Prop30
280
     1
102
RTVSPost2010PropOp30
 70
     1
102
RTVSPost2010Prop31
280
     0
102
RTVSPost2010PropOp31
 70
     1
102
RTVSPost2010Prop32
280
     0
102
RTVSPost2010PropOp32
 70
     1
102
RTVSPost2010Prop33
280
     0
102
RTVSPost2010PropOp33
 70
     1
102
RTVSPost2010Prop34
280
     0
102
RTVSPost2010PropOp34
 70
     1
102
RTVSPost2010Prop35
280
     0
102
RTVSPost2010PropOp35
 70
     1
102
RTVSPost2010Prop36
280
     0
102
RTVSPost2010PropOp36
 70
     1
102
RTVSPost2010Prop37
 90
       50
102
RTVSPost2010PropOp37
 70
     1
102
RTVSPost2010Prop38
140
0.0
102
RTVSPost2010PropOp38
 70
     1
102
RTVSPost2010Prop39
140
1.0
102
RTVSPost2010PropOp39
 70
     1
102
RTVSPost2010Prop40
 90
        0
102
RTVSPost2010PropOp40
 70
     1
102
RTVSPost2010Prop41ColorIndex
 90
       18
102
RTVSPost2010Prop41ColorRGB
 90
        0
102
RTVSPost2010PropOp41
 70
     1
102
RTVSPost2010Prop42
 90
       50
102
RTVSPost2010PropOp42
 70
     1
102
RTVSPost2010Prop43
 90
        3
102
RTVSPost2010PropOp43
 70
     1
102
RTVSPost2010Prop44ColorIndex
 90
        5
102
RTVSPost2010Prop44ColorRGB
 90
      255
102
RTVSPost2010PropOp44
 70
     1
102
RTVSPost2010Prop45
280
     0
102
RTVSPost2010PropOp45
 70
     1
102
RTVSPost2010Prop46
 90
       50
102
RTVSPost2010PropOp46
 70
     1
102
RTVSPost2010Prop47
 90
       50
102
RTVSPost2010PropOp47
 70
     1
102
RTVSPost2010Prop48
 90
       50
102
RTVSPost2010PropOp48
 70
     1
102
RTVSPost2010Prop49
280
     0
102
RTVSPost2010PropOp49
 70
     1
102
RTVSPost2010Prop50
 90
       50
102
RTVSPost2010PropOp50
 70
     1
102
RTVSPost2010Prop51ColorIndex
 90
      256
102
RTVSPost2010Prop51ColorRGB
 90
-16777216
102
RTVSPost2010PropOp51
 70
     0
102
RTVSPost2010Prop52
140
1.0
102
RTVSPost2010PropOp52
 70
     0
102
RTVSPost2010Prop53
 90
        2
102
RTVSPost2010PropOp53
 70
     1
102
RTVSPost2010Prop54
  1
strokes_ogs.tif
102
RTVSPost2010PropOp54
 70
     1
102
RTVSPost2010Prop55
280
     0
102
RTVSPost2010PropOp55
 70
     1
102
RTVSPost2010Prop56
140
1.0
102
RTVSPost2010PropOp56
 70
     1
102
RTVSPost2010Prop57
140
1.0
102
RTVSPost2010PropOp57
 70
     1
102
RTVSPropertyOp0
 70
     0
102
RTVSPropertyOp1
 70
     0
102
RTVSPropertyOp2
 70
     0
102
RTVSPropertyOp3
 70
     0
102
RTVSPropertyOp4
 70
     0
102
RTVSPropertyOp5
 70
     0
102
RTVSPropertyOp6
 70
     0
102
RTVSPropertyOp7
 70
     0
102
RTVSPropertyOp8
 70
     0
102
RTVSPropertyOp9
 70
     0
102
RTVSPropertyOp10
 70
     0
102
RTVSPropertyOp11
 70
     0
102
RTVSPropertyOp12
 70
     0
102
RTVSPropertyOp13
 70
     0
102
RTVSPropertyOp14
 70
     2
102
RTVSPropertyOp15
 70
     0
102
RTVSPropertyOp16
 70
     0
102
RTVSPropertyOp17
 70
     0
102
RTVSPropertyOp18
 70
     0
102
RTVSPropertyOp19
 70
     0
102
RTVSPropertyOp20
 70
     0
102
RTVSPropertyOp21
 70
     0
102
RTVSPropertyOp22
 70
     0
102
RTVSPropertyOp23
 70
     0
102
RTVSPropertyOp24
 70
     0
102
RTVSPropertyOp25
 70
     0
102
RTVSPropertyOp26
 70
     0
102
RTVSPropertyOp27
 70
     0
102
RTVSPropertyOp28
 70
     1
102
RTVSPropertyOp29
 70
     1
102
RTVSPropertyOp30
 70
     1
102
RTVSPropertyOp31
 70
     1
102
RTVSPropertyOp32
 70
     1
102
RTVSPropertyOp33
 70
     1
102
RTVSPropertyOp34
 70
     1
102
RTVSPropertyOp35
 70
     1
102
RTVSPropertyOp36
 70
     1
102
RTVSPropertyOp37
 70
     1
102
RTVSPropertyOp38
 70
     1
102
RTVSPropertyOp39
 70
     1
102
RTVSPropertyOp40
 70
     1
102
RTVSPropertyOp41
 70
     1
102
RTVSPropertyOp42
 70
     1
102
RTVSPropertyOp43
 70
     1
102
RTVSPropertyOp44
 70
     1
102
RTVSPropertyOp45
 70
     1
102
RTVSPropertyOp46
 70
     1
102
RTVSPropertyOp47
 70
     1
102
RTVSPropertyOp48
 70
     1
102
RTVSPropertyOp49
 70
     1
102
RTVSPropertyOp50
 70
     1
102
RTVSPropertyOp51
 70
     0
102
RTVSPropertyOp52
 70
     0
102
RTVSPropertyOp53
 70
     1
102
RTVSPropertyOp54
 70
     1
102
RTVSPropertyOp55
 70
     1
102
RTVSPropertyOp56
 70
     1
102
RTVSPropertyOp57
 70
     1
102
RTVSPropertyOp58
 70
     1
102
RTVSPropertyOp59
 70
     1
102
RTVSPropertyOp60
 70
     1
102
RTVSPropertyOp61
 70
     1
102
RTVSPropertyOp62
 70
     1
  0
XRECORD
  5
2887
102
{ACAD_REACTORS
330
2886
102
}
330
2886
100
AcDbXrecord
280
     1
102
RTVSPost2010Prop28
280
     0
102
RTVSPost2010PropOp28
 70
     1
102
RTVSPost2010Prop29
280
     1
102
RTVSPost2010PropOp29
 70
     1
102
RTVSPost2010Prop30
280
     1
102
RTVSPost2010PropOp30
 70
     1
102
RTVSPost2010Prop31
280
     0
102
RTVSPost2010PropOp31
 70
     1
102
RTVSPost2010Prop32
280
     0
102
RTVSPost2010PropOp32
 70
     1
102
RTVSPost2010Prop33
280
     0
102
RTVSPost2010PropOp33
 70
     1
102
RTVSPost2010Prop34
280
     0
102
RTVSPost2010PropOp34
 70
     1
102
RTVSPost2010Prop35
280
     0
102
RTVSPost2010PropOp35
 70
     1
102
RTVSPost2010Prop36
280
     0
102
RTVSPost2010PropOp36
 70
     1
102
RTVSPost2010Prop37
 90
       50
102
RTVSPost2010PropOp37
 70
     1
102
RTVSPost2010Prop38
140
0.0
102
RTVSPost2010PropOp38
 70
     1
102
RTVSPost2010Prop39
140
1.0
102
RTVSPost2010PropOp39
 70
     1
102
RTVSPost2010Prop40
 90
        0
102
RTVSPost2010PropOp40
 70
     1
102
RTVSPost2010Prop41ColorIndex
 90
       18
102
RTVSPost2010Prop41ColorRGB
 90
        0
102
RTVSPost2010PropOp41
 70
     1
102
RTVSPost2010Prop42
 90
       50
102
RTVSPost2010PropOp42
 70
     1
102
RTVSPost2010Prop43
 90
        3
102
RTVSPost2010PropOp43
 70
     1
102
RTVSPost2010Prop44ColorIndex
 90
        5
102
RTVSPost2010Prop44ColorRGB
 90
      255
102
RTVSPost2010PropOp44
 70
     1
102
RTVSPost2010Prop45
280
     0
102
RTVSPost2010PropOp45
 70
     1
102
RTVSPost2010Prop46
 90
       50
102
RTVSPost2010PropOp46
 70
     1
102
RTVSPost2010Prop47
 90
       50
102
RTVSPost2010PropOp47
 70
     1
102
RTVSPost2010Prop48
 90
       50
102
RTVSPost2010PropOp48
 70
     1
102
RTVSPost2010Prop49
280
     0
102
RTVSPost2010PropOp49
 70
     1
102
RTVSPost2010Prop50
 90
       50
102
RTVSPost2010PropOp50
 70
     1
102
RTVSPost2010Prop51ColorIndex
 90
      256
102
RTVSPost2010Prop51ColorRGB
 90
-16777216
102
RTVSPost2010PropOp51
 70
     0
102
RTVSPost2010Prop52
140
1.0
102
RTVSPost2010PropOp52
 70
     0
102
RTVSPost2010Prop53
 90
        2
102
RTVSPost2010PropOp53
 70
     1
102
RTVSPost2010Prop54
  1
strokes_ogs.tif
102
RTVSPost2010PropOp54
 70
     1
102
RTVSPost2010Prop55
280
     0
102
RTVSPost2010PropOp55
 70
     1
102
RTVSPost2010Prop56
140
1.0
102
RTVSPost2010PropOp56
 70
     1
102
RTVSPost2010Prop57
140
1.0
102
RTVSPost2010PropOp57
 70
     1
102
RTVSPropertyOp0
 70
     1
102
RTVSPropertyOp1
 70
     1
102
RTVSPropertyOp2
 70
     1
102
RTVSPropertyOp3
 70
     1
102
RTVSPropertyOp4
 70
     1
102
RTVSPropertyOp5
 70
     1
102
RTVSPropertyOp6
 70
     1
102
RTVSPropertyOp7
 70
     1
102
RTVSPropertyOp8
 70
     1
102
RTVSPropertyOp9
 70
     1
102
RTVSPropertyOp10
 70
     1
102
RTVSPropertyOp11
 70
     1
102
RTVSPropertyOp12
 70
     1
102
RTVSPropertyOp13
 70
     1
102
RTVSPropertyOp14
 70
     1
102
RTVSPropertyOp15
 70
     1
102
RTVSPropertyOp16
 70
     1
102
RTVSPropertyOp17
 70
     1
102
RTVSPropertyOp18
 70
     1
102
RTVSPropertyOp19
 70
     1
102
RTVSPropertyOp20
 70
     1
102
RTVSPropertyOp21
 70
     1
102
RTVSPropertyOp22
 70
     1
102
RTVSPropertyOp23
 70
     1
102
RTVSPropertyOp24
 70
     1
102
RTVSPropertyOp25
 70
     1
102
RTVSPropertyOp26
 70
     1
102
RTVSPropertyOp27
 70
     1
102
RTVSPropertyOp28
 70
     1
102
RTVSPropertyOp29
 70
     1
102
RTVSPropertyOp30
 70
     1
102
RTVSPropertyOp31
 70
     1
102
RTVSPropertyOp32
 70
     1
102
RTVSPropertyOp33
 70
     1
102
RTVSPropertyOp34
 70
     1
102
RTVSPropertyOp35
 70
     1
102
RTVSPropertyOp36
 70
     1
102
RTVSPropertyOp37
 70
     1
102
RTVSPropertyOp38
 70
     1
102
RTVSPropertyOp39
 70
     1
102
RTVSPropertyOp40
 70
     1
102
RTVSPropertyOp41
 70
     1
102
RTVSPropertyOp42
 70
     1
102
RTVSPropertyOp43
 70
     1
102
RTVSPropertyOp44
 70
     1
102
RTVSPropertyOp45
 70
     1
102
RTVSPropertyOp46
 70
     1
102
RTVSPropertyOp47
 70
     1
102
RTVSPropertyOp48
 70
     1
102
RTVSPropertyOp49
 70
     1
102
RTVSPropertyOp50
 70
     1
102
RTVSPropertyOp51
 70
     0
102
RTVSPropertyOp52
 70
     0
102
RTVSPropertyOp53
 70
     1
102
RTVSPropertyOp54
 70
     1
102
RTVSPropertyOp55
 70
     1
102
RTVSPropertyOp56
 70
     1
102
RTVSPropertyOp57
 70
     1
102
RTVSPropertyOp58
 70
     1
102
RTVSPropertyOp59
 70
     1
102
RTVSPropertyOp60
 70
     1
102
RTVSPropertyOp61
 70
     1
102
RTVSPropertyOp62
 70
     1
  0
XRECORD
  5
28A5
102
{ACAD_REACTORS
330
28A4
102
}
330
28A4
100
AcDbXrecord
280
     1
102
RTVSPost2010Prop28
280
     0
102
RTVSPost2010PropOp28
 70
     1
102
RTVSPost2010Prop29
280
     1
102
RTVSPost2010PropOp29
 70
     1
102
RTVSPost2010Prop30
280
     1
102
RTVSPost2010PropOp30
 70
     1
102
RTVSPost2010Prop31
280
     0
102
RTVSPost2010PropOp31
 70
     1
102
RTVSPost2010Prop32
280
     0
102
RTVSPost2010PropOp32
 70
     1
102
RTVSPost2010Prop33
280
     0
102
RTVSPost2010PropOp33
 70
     1
102
RTVSPost2010Prop34
280
     0
102
RTVSPost2010PropOp34
 70
     1
102
RTVSPost2010Prop35
280
     0
102
RTVSPost2010PropOp35
 70
     1
102
RTVSPost2010Prop36
280
     0
102
RTVSPost2010PropOp36
 70
     1
102
RTVSPost2010Prop37
 90
       50
102
RTVSPost2010PropOp37
 70
     1
102
RTVSPost2010Prop38
140
0.0
102
RTVSPost2010PropOp38
 70
     1
102
RTVSPost2010Prop39
140
1.0
102
RTVSPost2010PropOp39
 70
     1
102
RTVSPost2010Prop40
 90
        0
102
RTVSPost2010PropOp40
 70
     1
102
RTVSPost2010Prop41ColorIndex
 90
       18
102
RTVSPost2010Prop41ColorRGB
 90
        0
102
RTVSPost2010PropOp41
 70
     1
102
RTVSPost2010Prop42
 90
       50
102
RTVSPost2010PropOp42
 70
     1
102
RTVSPost2010Prop43
 90
        3
102
RTVSPost2010PropOp43
 70
     1
102
RTVSPost2010Prop44ColorIndex
 90
        5
102
RTVSPost2010Prop44ColorRGB
 90
      255
102
RTVSPost2010PropOp44
 70
     1
102
RTVSPost2010Prop45
280
     0
102
RTVSPost2010PropOp45
 70
     1
102
RTVSPost2010Prop46
 90
       50
102
RTVSPost2010PropOp46
 70
     1
102
RTVSPost2010Prop47
 90
       50
102
RTVSPost2010PropOp47
 70
     1
102
RTVSPost2010Prop48
 90
       50
102
RTVSPost2010PropOp48
 70
     1
102
RTVSPost2010Prop49
280
     0
102
RTVSPost2010PropOp49
 70
     1
102
RTVSPost2010Prop50
 90
       50
102
RTVSPost2010PropOp50
 70
     1
102
RTVSPost2010Prop51ColorIndex
 90
      256
102
RTVSPost2010Prop51ColorRGB
 90
-16777216
102
RTVSPost2010PropOp51
 70
     0
102
RTVSPost2010Prop52
140
1.0
102
RTVSPost2010PropOp52
 70
     0
102
RTVSPost2010Prop53
 90
        2
102
RTVSPost2010PropOp53
 70
     1
102
RTVSPost2010Prop54
  1
strokes_ogs.tif
102
RTVSPost2010PropOp54
 70
     1
102
RTVSPost2010Prop55
280
     0
102
RTVSPost2010PropOp55
 70
     1
102
RTVSPost2010Prop56
140
1.0
102
RTVSPost2010PropOp56
 70
     1
102
RTVSPost2010Prop57
140
1.0
102
RTVSPost2010PropOp57
 70
     1
102
RTVSPropertyOp0
 70
     1
102
RTVSPropertyOp1
 70
     1
102
RTVSPropertyOp2
 70
     1
102
RTVSPropertyOp3
 70
     1
102
RTVSPropertyOp4
 70
     1
102
RTVSPropertyOp5
 70
     1
102
RTVSPropertyOp6
 70
     1
102
RTVSPropertyOp7
 70
     1
102
RTVSPropertyOp8
 70
     1
102
RTVSPropertyOp9
 70
     1
102
RTVSPropertyOp10
 70
     1
102
RTVSPropertyOp11
 70
     1
102
RTVSPropertyOp12
 70
     1
102
RTVSPropertyOp13
 70
     1
102
RTVSPropertyOp14
 70
     1
102
RTVSPropertyOp15
 70
     1
102
RTVSPropertyOp16
 70
     1
102
RTVSPropertyOp17
 70
     1
102
RTVSPropertyOp18
 70
     1
102
RTVSPropertyOp19
 70
     1
102
RTVSPropertyOp20
 70
     1
102
RTVSPropertyOp21
 70
     1
102
RTVSPropertyOp22
 70
     1
102
RTVSPropertyOp23
 70
     1
102
RTVSPropertyOp24
 70
     1
102
RTVSPropertyOp25
 70
     1
102
RTVSPropertyOp26
 70
     1
102
RTVSPropertyOp27
 70
     1
102
RTVSPropertyOp28
 70
     1
102
RTVSPropertyOp29
 70
     1
102
RTVSPropertyOp30
 70
     1
102
RTVSPropertyOp31
 70
     1
102
RTVSPropertyOp32
 70
     1
102
RTVSPropertyOp33
 70
     1
102
RTVSPropertyOp34
 70
     1
102
RTVSPropertyOp35
 70
     1
102
RTVSPropertyOp36
 70
     1
102
RTVSPropertyOp37
 70
     1
102
RTVSPropertyOp38
 70
     1
102
RTVSPropertyOp39
 70
     1
102
RTVSPropertyOp40
 70
     1
102
RTVSPropertyOp41
 70
     1
102
RTVSPropertyOp42
 70
     1
102
RTVSPropertyOp43
 70
     1
102
RTVSPropertyOp44
 70
     1
102
RTVSPropertyOp45
 70
     1
102
RTVSPropertyOp46
 70
     1
102
RTVSPropertyOp47
 70
     1
102
RTVSPropertyOp48
 70
     1
102
RTVSPropertyOp49
 70
     1
102
RTVSPropertyOp50
 70
     1
102
RTVSPropertyOp51
 70
     0
102
RTVSPropertyOp52
 70
     0
102
RTVSPropertyOp53
 70
     1
102
RTVSPropertyOp54
 70
     1
102
RTVSPropertyOp55
 70
     1
102
RTVSPropertyOp56
 70
     1
102
RTVSPropertyOp57
 70
     1
102
RTVSPropertyOp58
 70
     1
102
RTVSPropertyOp59
 70
     1
102
RTVSPropertyOp60
 70
     1
102
RTVSPropertyOp61
 70
     1
102
RTVSPropertyOp62
 70
     1
  0
XRECORD
  5
28A3
102
{ACAD_REACTORS
330
28A2
102
}
330
28A2
100
AcDbXrecord
280
     1
102
RTVSPost2010Prop28
280
     0
102
RTVSPost2010PropOp28
 70
     1
102
RTVSPost2010Prop29
280
     1
102
RTVSPost2010PropOp29
 70
     1
102
RTVSPost2010Prop30
280
     1
102
RTVSPost2010PropOp30
 70
     1
102
RTVSPost2010Prop31
280
     0
102
RTVSPost2010PropOp31
 70
     1
102
RTVSPost2010Prop32
280
     0
102
RTVSPost2010PropOp32
 70
     1
102
RTVSPost2010Prop33
280
     0
102
RTVSPost2010PropOp33
 70
     1
102
RTVSPost2010Prop34
280
     0
102
RTVSPost2010PropOp34
 70
     1
102
RTVSPost2010Prop35
280
     0
102
RTVSPost2010PropOp35
 70
     1
102
RTVSPost2010Prop36
280
     0
102
RTVSPost2010PropOp36
 70
     1
102
RTVSPost2010Prop37
 90
       50
102
RTVSPost2010PropOp37
 70
     1
102
RTVSPost2010Prop38
140
0.0
102
RTVSPost2010PropOp38
 70
     1
102
RTVSPost2010Prop39
140
1.0
102
RTVSPost2010PropOp39
 70
     1
102
RTVSPost2010Prop40
 90
        0
102
RTVSPost2010PropOp40
 70
     1
102
RTVSPost2010Prop41ColorIndex
 90
       18
102
RTVSPost2010Prop41ColorRGB
 90
        0
102
RTVSPost2010PropOp41
 70
     1
102
RTVSPost2010Prop42
 90
       50
102
RTVSPost2010PropOp42
 70
     1
102
RTVSPost2010Prop43
 90
        3
102
RTVSPost2010PropOp43
 70
     1
102
RTVSPost2010Prop44ColorIndex
 90
        5
102
RTVSPost2010Prop44ColorRGB
 90
      255
102
RTVSPost2010PropOp44
 70
     1
102
RTVSPost2010Prop45
280
     0
102
RTVSPost2010PropOp45
 70
     1
102
RTVSPost2010Prop46
 90
       50
102
RTVSPost2010PropOp46
 70
     1
102
RTVSPost2010Prop47
 90
       50
102
RTVSPost2010PropOp47
 70
     1
102
RTVSPost2010Prop48
 90
       50
102
RTVSPost2010PropOp48
 70
     1
102
RTVSPost2010Prop49
280
     0
102
RTVSPost2010PropOp49
 70
     1
102
RTVSPost2010Prop50
 90
       50
102
RTVSPost2010PropOp50
 70
     1
102
RTVSPost2010Prop51ColorIndex
 90
      256
102
RTVSPost2010Prop51ColorRGB
 90
-16777216
102
RTVSPost2010PropOp51
 70
     0
102
RTVSPost2010Prop52
140
1.0
102
RTVSPost2010PropOp52
 70
     0
102
RTVSPost2010Prop53
 90
        2
102
RTVSPost2010PropOp53
 70
     1
102
RTVSPost2010Prop54
  1
strokes_ogs.tif
102
RTVSPost2010PropOp54
 70
     1
102
RTVSPost2010Prop55
280
     0
102
RTVSPost2010PropOp55
 70
     1
102
RTVSPost2010Prop56
140
1.0
102
RTVSPost2010PropOp56
 70
     1
102
RTVSPost2010Prop57
140
1.0
102
RTVSPost2010PropOp57
 70
     1
102
RTVSPropertyOp0
 70
     1
102
RTVSPropertyOp1
 70
     1
102
RTVSPropertyOp2
 70
     1
102
RTVSPropertyOp3
 70
     1
102
RTVSPropertyOp4
 70
     1
102
RTVSPropertyOp5
 70
     1
102
RTVSPropertyOp6
 70
     1
102
RTVSPropertyOp7
 70
     1
102
RTVSPropertyOp8
 70
     1
102
RTVSPropertyOp9
 70
     1
102
RTVSPropertyOp10
 70
     1
102
RTVSPropertyOp11
 70
     1
102
RTVSPropertyOp12
 70
     1
102
RTVSPropertyOp13
 70
     1
102
RTVSPropertyOp14
 70
     1
102
RTVSPropertyOp15
 70
     1
102
RTVSPropertyOp16
 70
     1
102
RTVSPropertyOp17
 70
     1
102
RTVSPropertyOp18
 70
     1
102
RTVSPropertyOp19
 70
     1
102
RTVSPropertyOp20
 70
     1
102
RTVSPropertyOp21
 70
     1
102
RTVSPropertyOp22
 70
     1
102
RTVSPropertyOp23
 70
     1
102
RTVSPropertyOp24
 70
     1
102
RTVSPropertyOp25
 70
     1
102
RTVSPropertyOp26
 70
     1
102
RTVSPropertyOp27
 70
     1
102
RTVSPropertyOp28
 70
     1
102
RTVSPropertyOp29
 70
     1
102
RTVSPropertyOp30
 70
     1
102
RTVSPropertyOp31
 70
     1
102
RTVSPropertyOp32
 70
     1
102
RTVSPropertyOp33
 70
     1
102
RTVSPropertyOp34
 70
     1
102
RTVSPropertyOp35
 70
     1
102
RTVSPropertyOp36
 70
     1
102
RTVSPropertyOp37
 70
     1
102
RTVSPropertyOp38
 70
     1
102
RTVSPropertyOp39
 70
     1
102
RTVSPropertyOp40
 70
     1
102
RTVSPropertyOp41
 70
     1
102
RTVSPropertyOp42
 70
     1
102
RTVSPropertyOp43
 70
     1
102
RTVSPropertyOp44
 70
     1
102
RTVSPropertyOp45
 70
     1
102
RTVSPropertyOp46
 70
     1
102
RTVSPropertyOp47
 70
     1
102
RTVSPropertyOp48
 70
     1
102
RTVSPropertyOp49
 70
     1
102
RTVSPropertyOp50
 70
     1
102
RTVSPropertyOp51
 70
     0
102
RTVSPropertyOp52
 70
     0
102
RTVSPropertyOp53
 70
     1
102
RTVSPropertyOp54
 70
     1
102
RTVSPropertyOp55
 70
     1
102
RTVSPropertyOp56
 70
     1
102
RTVSPropertyOp57
 70
     1
102
RTVSPropertyOp58
 70
     1
102
RTVSPropertyOp59
 70
     1
102
RTVSPropertyOp60
 70
     1
102
RTVSPropertyOp61
 70
     1
102
RTVSPropertyOp62
 70
     1
  0
XRECORD
  5
289D
102
{ACAD_REACTORS
330
289C
102
}
330
289C
100
AcDbXrecord
280
     1
102
RTVSPost2010Prop28
280
     0
102
RTVSPost2010PropOp28
 70
     1
102
RTVSPost2010Prop29
280
     1
102
RTVSPost2010PropOp29
 70
     1
102
RTVSPost2010Prop30
280
     1
102
RTVSPost2010PropOp30
 70
     1
102
RTVSPost2010Prop31
280
     0
102
RTVSPost2010PropOp31
 70
     1
102
RTVSPost2010Prop32
280
     0
102
RTVSPost2010PropOp32
 70
     1
102
RTVSPost2010Prop33
280
     0
102
RTVSPost2010PropOp33
 70
     1
102
RTVSPost2010Prop34
280
     0
102
RTVSPost2010PropOp34
 70
     1
102
RTVSPost2010Prop35
280
     0
102
RTVSPost2010PropOp35
 70
     1
102
RTVSPost2010Prop36
280
     0
102
RTVSPost2010PropOp36
 70
     1
102
RTVSPost2010Prop37
 90
       50
102
RTVSPost2010PropOp37
 70
     1
102
RTVSPost2010Prop38
140
0.0
102
RTVSPost2010PropOp38
 70
     1
102
RTVSPost2010Prop39
140
1.0
102
RTVSPost2010PropOp39
 70
     1
102
RTVSPost2010Prop40
 90
        0
102
RTVSPost2010PropOp40
 70
     1
102
RTVSPost2010Prop41ColorIndex
 90
       18
102
RTVSPost2010Prop41ColorRGB
 90
        0
102
RTVSPost2010PropOp41
 70
     1
102
RTVSPost2010Prop42
 90
       50
102
RTVSPost2010PropOp42
 70
     1
102
RTVSPost2010Prop43
 90
        3
102
RTVSPost2010PropOp43
 70
     1
102
RTVSPost2010Prop44ColorIndex
 90
        5
102
RTVSPost2010Prop44ColorRGB
 90
      255
102
RTVSPost2010PropOp44
 70
     1
102
RTVSPost2010Prop45
280
     0
102
RTVSPost2010PropOp45
 70
     1
102
RTVSPost2010Prop46
 90
       50
102
RTVSPost2010PropOp46
 70
     1
102
RTVSPost2010Prop47
 90
       50
102
RTVSPost2010PropOp47
 70
     1
102
RTVSPost2010Prop48
 90
       50
102
RTVSPost2010PropOp48
 70
     1
102
RTVSPost2010Prop49
280
     0
102
RTVSPost2010PropOp49
 70
     1
102
RTVSPost2010Prop50
 90
       50
102
RTVSPost2010PropOp50
 70
     1
102
RTVSPost2010Prop51ColorIndex
 90
      256
102
RTVSPost2010Prop51ColorRGB
 90
-16777216
102
RTVSPost2010PropOp51
 70
     0
102
RTVSPost2010Prop52
140
1.0
102
RTVSPost2010PropOp52
 70
     0
102
RTVSPost2010Prop53
 90
        2
102
RTVSPost2010PropOp53
 70
     1
102
RTVSPost2010Prop54
  1
strokes_ogs.tif
102
RTVSPost2010PropOp54
 70
     1
102
RTVSPost2010Prop55
280
     0
102
RTVSPost2010PropOp55
 70
     1
102
RTVSPost2010Prop56
140
1.0
102
RTVSPost2010PropOp56
 70
     1
102
RTVSPost2010Prop57
140
1.0
102
RTVSPost2010PropOp57
 70
     1
102
RTVSPropertyOp0
 70
     1
102
RTVSPropertyOp1
 70
     1
102
RTVSPropertyOp2
 70
     1
102
RTVSPropertyOp3
 70
     1
102
RTVSPropertyOp4
 70
     1
102
RTVSPropertyOp5
 70
     1
102
RTVSPropertyOp6
 70
     1
102
RTVSPropertyOp7
 70
     1
102
RTVSPropertyOp8
 70
     1
102
RTVSPropertyOp9
 70
     1
102
RTVSPropertyOp10
 70
     1
102
RTVSPropertyOp11
 70
     1
102
RTVSPropertyOp12
 70
     1
102
RTVSPropertyOp13
 70
     1
102
RTVSPropertyOp14
 70
     1
102
RTVSPropertyOp15
 70
     1
102
RTVSPropertyOp16
 70
     1
102
RTVSPropertyOp17
 70
     1
102
RTVSPropertyOp18
 70
     1
102
RTVSPropertyOp19
 70
     1
102
RTVSPropertyOp20
 70
     1
102
RTVSPropertyOp21
 70
     1
102
RTVSPropertyOp22
 70
     1
102
RTVSPropertyOp23
 70
     1
102
RTVSPropertyOp24
 70
     1
102
RTVSPropertyOp25
 70
     1
102
RTVSPropertyOp26
 70
     1
102
RTVSPropertyOp27
 70
     1
102
RTVSPropertyOp28
 70
     1
102
RTVSPropertyOp29
 70
     1
102
RTVSPropertyOp30
 70
     1
102
RTVSPropertyOp31
 70
     1
102
RTVSPropertyOp32
 70
     1
102
RTVSPropertyOp33
 70
     1
102
RTVSPropertyOp34
 70
     1
102
RTVSPropertyOp35
 70
     1
102
RTVSPropertyOp36
 70
     1
102
RTVSPropertyOp37
 70
     1
102
RTVSPropertyOp38
 70
     1
102
RTVSPropertyOp39
 70
     1
102
RTVSPropertyOp40
 70
     1
102
RTVSPropertyOp41
 70
     1
102
RTVSPropertyOp42
 70
     1
102
RTVSPropertyOp43
 70
     1
102
RTVSPropertyOp44
 70
     1
102
RTVSPropertyOp45
 70
     1
102
RTVSPropertyOp46
 70
     1
102
RTVSPropertyOp47
 70
     1
102
RTVSPropertyOp48
 70
     1
102
RTVSPropertyOp49
 70
     1
102
RTVSPropertyOp50
 70
     1
102
RTVSPropertyOp51
 70
     0
102
RTVSPropertyOp52
 70
     0
102
RTVSPropertyOp53
 70
     1
102
RTVSPropertyOp54
 70
     1
102
RTVSPropertyOp55
 70
     1
102
RTVSPropertyOp56
 70
     1
102
RTVSPropertyOp57
 70
     1
102
RTVSPropertyOp58
 70
     1
102
RTVSPropertyOp59
 70
     1
102
RTVSPropertyOp60
 70
     1
102
RTVSPropertyOp61
 70
     1
102
RTVSPropertyOp62
 70
     1
  0
XRECORD
  5
289F
102
{ACAD_REACTORS
330
289E
102
}
330
289E
100
AcDbXrecord
280
     1
102
RTVSPost2010Prop28
280
     0
102
RTVSPost2010PropOp28
 70
     1
102
RTVSPost2010Prop29
280
     1
102
RTVSPost2010PropOp29
 70
     1
102
RTVSPost2010Prop30
280
     1
102
RTVSPost2010PropOp30
 70
     1
102
RTVSPost2010Prop31
280
     0
102
RTVSPost2010PropOp31
 70
     1
102
RTVSPost2010Prop32
280
     0
102
RTVSPost2010PropOp32
 70
     1
102
RTVSPost2010Prop33
280
     0
102
RTVSPost2010PropOp33
 70
     1
102
RTVSPost2010Prop34
280
     0
102
RTVSPost2010PropOp34
 70
     1
102
RTVSPost2010Prop35
280
     0
102
RTVSPost2010PropOp35
 70
     1
102
RTVSPost2010Prop36
280
     0
102
RTVSPost2010PropOp36
 70
     1
102
RTVSPost2010Prop37
 90
       50
102
RTVSPost2010PropOp37
 70
     1
102
RTVSPost2010Prop38
140
0.0
102
RTVSPost2010PropOp38
 70
     1
102
RTVSPost2010Prop39
140
1.0
102
RTVSPost2010PropOp39
 70
     1
102
RTVSPost2010Prop40
 90
        0
102
RTVSPost2010PropOp40
 70
     1
102
RTVSPost2010Prop41ColorIndex
 90
       18
102
RTVSPost2010Prop41ColorRGB
 90
        0
102
RTVSPost2010PropOp41
 70
     1
102
RTVSPost2010Prop42
 90
       50
102
RTVSPost2010PropOp42
 70
     1
102
RTVSPost2010Prop43
 90
        3
102
RTVSPost2010PropOp43
 70
     1
102
RTVSPost2010Prop44ColorIndex
 90
        5
102
RTVSPost2010Prop44ColorRGB
 90
      255
102
RTVSPost2010PropOp44
 70
     1
102
RTVSPost2010Prop45
280
     0
102
RTVSPost2010PropOp45
 70
     1
102
RTVSPost2010Prop46
 90
       50
102
RTVSPost2010PropOp46
 70
     1
102
RTVSPost2010Prop47
 90
       50
102
RTVSPost2010PropOp47
 70
     1
102
RTVSPost2010Prop48
 90
       50
102
RTVSPost2010PropOp48
 70
     1
102
RTVSPost2010Prop49
280
     0
102
RTVSPost2010PropOp49
 70
     1
102
RTVSPost2010Prop50
 90
       50
102
RTVSPost2010PropOp50
 70
     1
102
RTVSPost2010Prop51ColorIndex
 90
      256
102
RTVSPost2010Prop51ColorRGB
 90
-16777216
102
RTVSPost2010PropOp51
 70
     0
102
RTVSPost2010Prop52
140
1.0
102
RTVSPost2010PropOp52
 70
     0
102
RTVSPost2010Prop53
 90
        2
102
RTVSPost2010PropOp53
 70
     1
102
RTVSPost2010Prop54
  1
strokes_ogs.tif
102
RTVSPost2010PropOp54
 70
     1
102
RTVSPost2010Prop55
280
     0
102
RTVSPost2010PropOp55
 70
     1
102
RTVSPost2010Prop56
140
1.0
102
RTVSPost2010PropOp56
 70
     1
102
RTVSPost2010Prop57
140
1.0
102
RTVSPost2010PropOp57
 70
     1
102
RTVSPropertyOp0
 70
     1
102
RTVSPropertyOp1
 70
     1
102
RTVSPropertyOp2
 70
     1
102
RTVSPropertyOp3
 70
     1
102
RTVSPropertyOp4
 70
     1
102
RTVSPropertyOp5
 70
     1
102
RTVSPropertyOp6
 70
     1
102
RTVSPropertyOp7
 70
     1
102
RTVSPropertyOp8
 70
     1
102
RTVSPropertyOp9
 70
     1
102
RTVSPropertyOp10
 70
     1
102
RTVSPropertyOp11
 70
     1
102
RTVSPropertyOp12
 70
     1
102
RTVSPropertyOp13
 70
     1
102
RTVSPropertyOp14
 70
     1
102
RTVSPropertyOp15
 70
     1
102
RTVSPropertyOp16
 70
     1
102
RTVSPropertyOp17
 70
     1
102
RTVSPropertyOp18
 70
     1
102
RTVSPropertyOp19
 70
     1
102
RTVSPropertyOp20
 70
     1
102
RTVSPropertyOp21
 70
     1
102
RTVSPropertyOp22
 70
     1
102
RTVSPropertyOp23
 70
     1
102
RTVSPropertyOp24
 70
     1
102
RTVSPropertyOp25
 70
     1
102
RTVSPropertyOp26
 70
     1
102
RTVSPropertyOp27
 70
     1
102
RTVSPropertyOp28
 70
     1
102
RTVSPropertyOp29
 70
     1
102
RTVSPropertyOp30
 70
     1
102
RTVSPropertyOp31
 70
     1
102
RTVSPropertyOp32
 70
     1
102
RTVSPropertyOp33
 70
     1
102
RTVSPropertyOp34
 70
     1
102
RTVSPropertyOp35
 70
     1
102
RTVSPropertyOp36
 70
     1
102
RTVSPropertyOp37
 70
     1
102
RTVSPropertyOp38
 70
     1
102
RTVSPropertyOp39
 70
     1
102
RTVSPropertyOp40
 70
     1
102
RTVSPropertyOp41
 70
     1
102
RTVSPropertyOp42
 70
     1
102
RTVSPropertyOp43
 70
     1
102
RTVSPropertyOp44
 70
     1
102
RTVSPropertyOp45
 70
     1
102
RTVSPropertyOp46
 70
     1
102
RTVSPropertyOp47
 70
     1
102
RTVSPropertyOp48
 70
     1
102
RTVSPropertyOp49
 70
     1
102
RTVSPropertyOp50
 70
     1
102
RTVSPropertyOp51
 70
     0
102
RTVSPropertyOp52
 70
     0
102
RTVSPropertyOp53
 70
     1
102
RTVSPropertyOp54
 70
     1
102
RTVSPropertyOp55
 70
     1
102
RTVSPropertyOp56
 70
     1
102
RTVSPropertyOp57
 70
     1
102
RTVSPropertyOp58
 70
     1
102
RTVSPropertyOp59
 70
     1
102
RTVSPropertyOp60
 70
     1
102
RTVSPropertyOp61
 70
     1
102
RTVSPropertyOp62
 70
     1
  0
XRECORD
  5
288D
102
{ACAD_REACTORS
330
288C
102
}
330
288C
100
AcDbXrecord
280
     1
102
RTVSPost2010Prop28
280
     0
102
RTVSPost2010PropOp28
 70
     1
102
RTVSPost2010Prop29
280
     1
102
RTVSPost2010PropOp29
 70
     1
102
RTVSPost2010Prop30
280
     1
102
RTVSPost2010PropOp30
 70
     1
102
RTVSPost2010Prop31
280
     0
102
RTVSPost2010PropOp31
 70
     1
102
RTVSPost2010Prop32
280
     0
102
RTVSPost2010PropOp32
 70
     1
102
RTVSPost2010Prop33
280
     0
102
RTVSPost2010PropOp33
 70
     1
102
RTVSPost2010Prop34
280
     0
102
RTVSPost2010PropOp34
 70
     1
102
RTVSPost2010Prop35
280
     0
102
RTVSPost2010PropOp35
 70
     1
102
RTVSPost2010Prop36
280
     0
102
RTVSPost2010PropOp36
 70
     1
102
RTVSPost2010Prop37
 90
       50
102
RTVSPost2010PropOp37
 70
     1
102
RTVSPost2010Prop38
140
0.0
102
RTVSPost2010PropOp38
 70
     1
102
RTVSPost2010Prop39
140
1.0
102
RTVSPost2010PropOp39
 70
     1
102
RTVSPost2010Prop40
 90
        0
102
RTVSPost2010PropOp40
 70
     1
102
RTVSPost2010Prop41ColorIndex
 90
       18
102
RTVSPost2010Prop41ColorRGB
 90
        0
102
RTVSPost2010PropOp41
 70
     1
102
RTVSPost2010Prop42
 90
       50
102
RTVSPost2010PropOp42
 70
     1
102
RTVSPost2010Prop43
 90
        3
102
RTVSPost2010PropOp43
 70
     1
102
RTVSPost2010Prop44ColorIndex
 90
        5
102
RTVSPost2010Prop44ColorRGB
 90
      255
102
RTVSPost2010PropOp44
 70
     1
102
RTVSPost2010Prop45
280
     0
102
RTVSPost2010PropOp45
 70
     1
102
RTVSPost2010Prop46
 90
       50
102
RTVSPost2010PropOp46
 70
     1
102
RTVSPost2010Prop47
 90
       50
102
RTVSPost2010PropOp47
 70
     1
102
RTVSPost2010Prop48
 90
       50
102
RTVSPost2010PropOp48
 70
     1
102
RTVSPost2010Prop49
280
     0
102
RTVSPost2010PropOp49
 70
     1
102
RTVSPost2010Prop50
 90
       50
102
RTVSPost2010PropOp50
 70
     1
102
RTVSPost2010Prop51ColorIndex
 90
      256
102
RTVSPost2010Prop51ColorRGB
 90
-16777216
102
RTVSPost2010PropOp51
 70
     0
102
RTVSPost2010Prop52
140
1.0
102
RTVSPost2010PropOp52
 70
     0
102
RTVSPost2010Prop53
 90
        2
102
RTVSPost2010PropOp53
 70
     1
102
RTVSPost2010Prop54
  1
strokes_ogs.tif
102
RTVSPost2010PropOp54
 70
     1
102
RTVSPost2010Prop55
280
     0
102
RTVSPost2010PropOp55
 70
     1
102
RTVSPost2010Prop56
140
1.0
102
RTVSPost2010PropOp56
 70
     1
102
RTVSPost2010Prop57
140
1.0
102
RTVSPost2010PropOp57
 70
     1
102
RTVSPropertyOp0
 70
     1
102
RTVSPropertyOp1
 70
     1
102
RTVSPropertyOp2
 70
     1
102
RTVSPropertyOp3
 70
     1
102
RTVSPropertyOp4
 70
     1
102
RTVSPropertyOp5
 70
     1
102
RTVSPropertyOp6
 70
     1
102
RTVSPropertyOp7
 70
     1
102
RTVSPropertyOp8
 70
     1
102
RTVSPropertyOp9
 70
     1
102
RTVSPropertyOp10
 70
     1
102
RTVSPropertyOp11
 70
     1
102
RTVSPropertyOp12
 70
     1
102
RTVSPropertyOp13
 70
     1
102
RTVSPropertyOp14
 70
     1
102
RTVSPropertyOp15
 70
     1
102
RTVSPropertyOp16
 70
     1
102
RTVSPropertyOp17
 70
     1
102
RTVSPropertyOp18
 70
     1
102
RTVSPropertyOp19
 70
     1
102
RTVSPropertyOp20
 70
     1
102
RTVSPropertyOp21
 70
     1
102
RTVSPropertyOp22
 70
     1
102
RTVSPropertyOp23
 70
     1
102
RTVSPropertyOp24
 70
     1
102
RTVSPropertyOp25
 70
     1
102
RTVSPropertyOp26
 70
     1
102
RTVSPropertyOp27
 70
     1
102
RTVSPropertyOp28
 70
     1
102
RTVSPropertyOp29
 70
     1
102
RTVSPropertyOp30
 70
     1
102
RTVSPropertyOp31
 70
     1
102
RTVSPropertyOp32
 70
     1
102
RTVSPropertyOp33
 70
     1
102
RTVSPropertyOp34
 70
     1
102
RTVSPropertyOp35
 70
     1
102
RTVSPropertyOp36
 70
     1
102
RTVSPropertyOp37
 70
     1
102
RTVSPropertyOp38
 70
     1
102
RTVSPropertyOp39
 70
     1
102
RTVSPropertyOp40
 70
     1
102
RTVSPropertyOp41
 70
     1
102
RTVSPropertyOp42
 70
     1
102
RTVSPropertyOp43
 70
     1
102
RTVSPropertyOp44
 70
     1
102
RTVSPropertyOp45
 70
     1
102
RTVSPropertyOp46
 70
     1
102
RTVSPropertyOp47
 70
     1
102
RTVSPropertyOp48
 70
     1
102
RTVSPropertyOp49
 70
     1
102
RTVSPropertyOp50
 70
     1
102
RTVSPropertyOp51
 70
     0
102
RTVSPropertyOp52
 70
     0
102
RTVSPropertyOp53
 70
     1
102
RTVSPropertyOp54
 70
     1
102
RTVSPropertyOp55
 70
     1
102
RTVSPropertyOp56
 70
     1
102
RTVSPropertyOp57
 70
     1
102
RTVSPropertyOp58
 70
     1
102
RTVSPropertyOp59
 70
     1
102
RTVSPropertyOp60
 70
     1
102
RTVSPropertyOp61
 70
     1
102
RTVSPropertyOp62
 70
     1
  0
XRECORD
  5
2881
102
{ACAD_REACTORS
330
2880
102
}
330
2880
100
AcDbXrecord
280
     1
102
RTVSPost2010Prop28
280
     0
102
RTVSPost2010PropOp28
 70
     1
102
RTVSPost2010Prop29
280
     1
102
RTVSPost2010PropOp29
 70
     1
102
RTVSPost2010Prop30
280
     1
102
RTVSPost2010PropOp30
 70
     1
102
RTVSPost2010Prop31
280
     0
102
RTVSPost2010PropOp31
 70
     1
102
RTVSPost2010Prop32
280
     0
102
RTVSPost2010PropOp32
 70
     1
102
RTVSPost2010Prop33
280
     0
102
RTVSPost2010PropOp33
 70
     1
102
RTVSPost2010Prop34
280
     0
102
RTVSPost2010PropOp34
 70
     1
102
RTVSPost2010Prop35
280
     0
102
RTVSPost2010PropOp35
 70
     1
102
RTVSPost2010Prop36
280
     0
102
RTVSPost2010PropOp36
 70
     1
102
RTVSPost2010Prop37
 90
       50
102
RTVSPost2010PropOp37
 70
     1
102
RTVSPost2010Prop38
140
0.0
102
RTVSPost2010PropOp38
 70
     1
102
RTVSPost2010Prop39
140
1.0
102
RTVSPost2010PropOp39
 70
     1
102
RTVSPost2010Prop40
 90
        0
102
RTVSPost2010PropOp40
 70
     1
102
RTVSPost2010Prop41ColorIndex
 90
       18
102
RTVSPost2010Prop41ColorRGB
 90
        0
102
RTVSPost2010PropOp41
 70
     1
102
RTVSPost2010Prop42
 90
       50
102
RTVSPost2010PropOp42
 70
     1
102
RTVSPost2010Prop43
 90
        3
102
RTVSPost2010PropOp43
 70
     1
102
RTVSPost2010Prop44ColorIndex
 90
        5
102
RTVSPost2010Prop44ColorRGB
 90
      255
102
RTVSPost2010PropOp44
 70
     1
102
RTVSPost2010Prop45
280
     0
102
RTVSPost2010PropOp45
 70
     1
102
RTVSPost2010Prop46
 90
       50
102
RTVSPost2010PropOp46
 70
     1
102
RTVSPost2010Prop47
 90
       50
102
RTVSPost2010PropOp47
 70
     1
102
RTVSPost2010Prop48
 90
       50
102
RTVSPost2010PropOp48
 70
     1
102
RTVSPost2010Prop49
280
     0
102
RTVSPost2010PropOp49
 70
     1
102
RTVSPost2010Prop50
 90
       50
102
RTVSPost2010PropOp50
 70
     1
102
RTVSPost2010Prop51ColorIndex
 90
      256
102
RTVSPost2010Prop51ColorRGB
 90
-16777216
102
RTVSPost2010PropOp51
 70
     0
102
RTVSPost2010Prop52
140
1.0
102
RTVSPost2010PropOp52
 70
     0
102
RTVSPost2010Prop53
 90
        2
102
RTVSPost2010PropOp53
 70
     1
102
RTVSPost2010Prop54
  1
strokes_ogs.tif
102
RTVSPost2010PropOp54
 70
     1
102
RTVSPost2010Prop55
280
     0
102
RTVSPost2010PropOp55
 70
     1
102
RTVSPost2010Prop56
140
1.0
102
RTVSPost2010PropOp56
 70
     1
102
RTVSPost2010Prop57
140
1.0
102
RTVSPost2010PropOp57
 70
     1
102
RTVSPropertyOp0
 70
     1
102
RTVSPropertyOp1
 70
     1
102
RTVSPropertyOp2
 70
     1
102
RTVSPropertyOp3
 70
     1
102
RTVSPropertyOp4
 70
     1
102
RTVSPropertyOp5
 70
     1
102
RTVSPropertyOp6
 70
     1
102
RTVSPropertyOp7
 70
     1
102
RTVSPropertyOp8
 70
     1
102
RTVSPropertyOp9
 70
     1
102
RTVSPropertyOp10
 70
     1
102
RTVSPropertyOp11
 70
     1
102
RTVSPropertyOp12
 70
     1
102
RTVSPropertyOp13
 70
     1
102
RTVSPropertyOp14
 70
     1
102
RTVSPropertyOp15
 70
     1
102
RTVSPropertyOp16
 70
     1
102
RTVSPropertyOp17
 70
     1
102
RTVSPropertyOp18
 70
     1
102
RTVSPropertyOp19
 70
     1
102
RTVSPropertyOp20
 70
     1
102
RTVSPropertyOp21
 70
     1
102
RTVSPropertyOp22
 70
     1
102
RTVSPropertyOp23
 70
     1
102
RTVSPropertyOp24
 70
     1
102
RTVSPropertyOp25
 70
     1
102
RTVSPropertyOp26
 70
     1
102
RTVSPropertyOp27
 70
     1
102
RTVSPropertyOp28
 70
     1
102
RTVSPropertyOp29
 70
     1
102
RTVSPropertyOp30
 70
     1
102
RTVSPropertyOp31
 70
     1
102
RTVSPropertyOp32
 70
     1
102
RTVSPropertyOp33
 70
     1
102
RTVSPropertyOp34
 70
     1
102
RTVSPropertyOp35
 70
     1
102
RTVSPropertyOp36
 70
     1
102
RTVSPropertyOp37
 70
     1
102
RTVSPropertyOp38
 70
     1
102
RTVSPropertyOp39
 70
     1
102
RTVSPropertyOp40
 70
     1
102
RTVSPropertyOp41
 70
     1
102
RTVSPropertyOp42
 70
     1
102
RTVSPropertyOp43
 70
     1
102
RTVSPropertyOp44
 70
     1
102
RTVSPropertyOp45
 70
     1
102
RTVSPropertyOp46
 70
     1
102
RTVSPropertyOp47
 70
     1
102
RTVSPropertyOp48
 70
     1
102
RTVSPropertyOp49
 70
     1
102
RTVSPropertyOp50
 70
     1
102
RTVSPropertyOp51
 70
     0
102
RTVSPropertyOp52
 70
     0
102
RTVSPropertyOp53
 70
     1
102
RTVSPropertyOp54
 70
     1
102
RTVSPropertyOp55
 70
     1
102
RTVSPropertyOp56
 70
     1
102
RTVSPropertyOp57
 70
     1
102
RTVSPropertyOp58
 70
     1
102
RTVSPropertyOp59
 70
     1
102
RTVSPropertyOp60
 70
     1
102
RTVSPropertyOp61
 70
     1
102
RTVSPropertyOp62
 70
     1
  0
XRECORD
  5
28A1
102
{ACAD_REACTORS
330
28A0
102
}
330
28A0
100
AcDbXrecord
280
     1
102
RTVSPost2010Prop28
280
     0
102
RTVSPost2010PropOp28
 70
     1
102
RTVSPost2010Prop29
280
     1
102
RTVSPost2010PropOp29
 70
     1
102
RTVSPost2010Prop30
280
     1
102
RTVSPost2010PropOp30
 70
     1
102
RTVSPost2010Prop31
280
     0
102
RTVSPost2010PropOp31
 70
     1
102
RTVSPost2010Prop32
280
     0
102
RTVSPost2010PropOp32
 70
     1
102
RTVSPost2010Prop33
280
     0
102
RTVSPost2010PropOp33
 70
     1
102
RTVSPost2010Prop34
280
     0
102
RTVSPost2010PropOp34
 70
     1
102
RTVSPost2010Prop35
280
     0
102
RTVSPost2010PropOp35
 70
     1
102
RTVSPost2010Prop36
280
     0
102
RTVSPost2010PropOp36
 70
     1
102
RTVSPost2010Prop37
 90
       50
102
RTVSPost2010PropOp37
 70
     1
102
RTVSPost2010Prop38
140
0.0
102
RTVSPost2010PropOp38
 70
     1
102
RTVSPost2010Prop39
140
1.0
102
RTVSPost2010PropOp39
 70
     1
102
RTVSPost2010Prop40
 90
        0
102
RTVSPost2010PropOp40
 70
     1
102
RTVSPost2010Prop41ColorIndex
 90
       18
102
RTVSPost2010Prop41ColorRGB
 90
        0
102
RTVSPost2010PropOp41
 70
     1
102
RTVSPost2010Prop42
 90
       50
102
RTVSPost2010PropOp42
 70
     1
102
RTVSPost2010Prop43
 90
        3
102
RTVSPost2010PropOp43
 70
     1
102
RTVSPost2010Prop44ColorIndex
 90
        5
102
RTVSPost2010Prop44ColorRGB
 90
      255
102
RTVSPost2010PropOp44
 70
     1
102
RTVSPost2010Prop45
280
     0
102
RTVSPost2010PropOp45
 70
     1
102
RTVSPost2010Prop46
 90
       50
102
RTVSPost2010PropOp46
 70
     1
102
RTVSPost2010Prop47
 90
       50
102
RTVSPost2010PropOp47
 70
     1
102
RTVSPost2010Prop48
 90
       50
102
RTVSPost2010PropOp48
 70
     1
102
RTVSPost2010Prop49
280
     0
102
RTVSPost2010PropOp49
 70
     1
102
RTVSPost2010Prop50
 90
       50
102
RTVSPost2010PropOp50
 70
     1
102
RTVSPost2010Prop51ColorIndex
 90
      256
102
RTVSPost2010Prop51ColorRGB
 90
-16777216
102
RTVSPost2010PropOp51
 70
     0
102
RTVSPost2010Prop52
140
1.0
102
RTVSPost2010PropOp52
 70
     0
102
RTVSPost2010Prop53
 90
        2
102
RTVSPost2010PropOp53
 70
     1
102
RTVSPost2010Prop54
  1
strokes_ogs.tif
102
RTVSPost2010PropOp54
 70
     1
102
RTVSPost2010Prop55
280
     0
102
RTVSPost2010PropOp55
 70
     1
102
RTVSPost2010Prop56
140
1.0
102
RTVSPost2010PropOp56
 70
     1
102
RTVSPost2010Prop57
140
1.0
102
RTVSPost2010PropOp57
 70
     1
102
RTVSPropertyOp0
 70
     1
102
RTVSPropertyOp1
 70
     1
102
RTVSPropertyOp2
 70
     1
102
RTVSPropertyOp3
 70
     1
102
RTVSPropertyOp4
 70
     1
102
RTVSPropertyOp5
 70
     1
102
RTVSPropertyOp6
 70
     1
102
RTVSPropertyOp7
 70
     1
102
RTVSPropertyOp8
 70
     1
102
RTVSPropertyOp9
 70
     1
102
RTVSPropertyOp10
 70
     1
102
RTVSPropertyOp11
 70
     1
102
RTVSPropertyOp12
 70
     1
102
RTVSPropertyOp13
 70
     1
102
RTVSPropertyOp14
 70
     1
102
RTVSPropertyOp15
 70
     1
102
RTVSPropertyOp16
 70
     1
102
RTVSPropertyOp17
 70
     1
102
RTVSPropertyOp18
 70
     1
102
RTVSPropertyOp19
 70
     1
102
RTVSPropertyOp20
 70
     1
102
RTVSPropertyOp21
 70
     1
102
RTVSPropertyOp22
 70
     1
102
RTVSPropertyOp23
 70
     1
102
RTVSPropertyOp24
 70
     1
102
RTVSPropertyOp25
 70
     1
102
RTVSPropertyOp26
 70
     1
102
RTVSPropertyOp27
 70
     1
102
RTVSPropertyOp28
 70
     1
102
RTVSPropertyOp29
 70
     1
102
RTVSPropertyOp30
 70
     1
102
RTVSPropertyOp31
 70
     1
102
RTVSPropertyOp32
 70
     1
102
RTVSPropertyOp33
 70
     1
102
RTVSPropertyOp34
 70
     1
102
RTVSPropertyOp35
 70
     1
102
RTVSPropertyOp36
 70
     1
102
RTVSPropertyOp37
 70
     1
102
RTVSPropertyOp38
 70
     1
102
RTVSPropertyOp39
 70
     1
102
RTVSPropertyOp40
 70
     1
102
RTVSPropertyOp41
 70
     1
102
RTVSPropertyOp42
 70
     1
102
RTVSPropertyOp43
 70
     1
102
RTVSPropertyOp44
 70
     1
102
RTVSPropertyOp45
 70
     1
102
RTVSPropertyOp46
 70
     1
102
RTVSPropertyOp47
 70
     1
102
RTVSPropertyOp48
 70
     1
102
RTVSPropertyOp49
 70
     1
102
RTVSPropertyOp50
 70
     1
102
RTVSPropertyOp51
 70
     0
102
RTVSPropertyOp52
 70
     0
102
RTVSPropertyOp53
 70
     1
102
RTVSPropertyOp54
 70
     1
102
RTVSPropertyOp55
 70
     1
102
RTVSPropertyOp56
 70
     1
102
RTVSPropertyOp57
 70
     1
102
RTVSPropertyOp58
 70
     1
102
RTVSPropertyOp59
 70
     1
102
RTVSPropertyOp60
 70
     1
102
RTVSPropertyOp61
 70
     1
102
RTVSPropertyOp62
 70
     1
  0
ENDSEC
  0
EOF
