  0
SECTION
  2
HEADER
  9
$ACADVER
  1
AC1015
  9
$ACADMAINTVER
 70
    18
  9
$DWGCODEPAGE
  3
ANSI_1252
  9
$INSBASE
 10
0.0
 20
0.0
 30
0.0
  9
$EXTMIN
 10
-167.0233146462394
 20
-239.7444759059517
 30
-0.0015258207003583
  9
$EXTMAX
 10
183.1475837099688
 20
299.5015876084817
 30
0.0000000349246037
  9
$LIMMIN
 10
0.0
 20
0.0
  9
$LIMMAX
 10
420.0
 20
297.0
  9
$ORTHOMODE
 70
     0
  9
$REGENMODE
 70
     1
  9
$FILLMODE
 70
     1
  9
$QTEXTMODE
 70
     0
  9
$MIRRTEXT
 70
     0
  9
$LTSCALE
 40
1.0
  9
$ATTMODE
 70
     1
  9
$TEXTSIZE
 40
2.5
  9
$TRACEWID
 40
1.0
  9
$TEXTSTYLE
  7
Standard
  9
$CLAYER
  8
0
  9
$CELTYPE
  6
ByLayer
  9
$CECOLOR
 62
   256
  9
$CELTSCALE
 40
1.0
  9
$DISPSILH
 70
     0
  9
$DIMSCALE
 40
1.0
  9
$DIMASZ
 40
2.5
  9
$DIMEXO
 40
0.625
  9
$DIMDLI
 40
3.75
  9
$DIMRND
 40
0.0
  9
$DIMDLE
 40
0.0
  9
$DIMEXE
 40
1.25
  9
$DIMTP
 40
0.0
  9
$DIMTM
 40
0.0
  9
$DIMTXT
 40
2.5
  9
$DIMCEN
 40
2.5
  9
$DIMTSZ
 40
0.0
  9
$DIMTOL
 70
     0
  9
$DIMLIM
 70
     0
  9
$DIMTIH
 70
     0
  9
$DIMTOH
 70
     0
  9
$DIMSE1
 70
     0
  9
$DIMSE2
 70
     0
  9
$DIMTAD
 70
     1
  9
$DIMZIN
 70
     8
  9
$DIMBLK
  1

  9
$DIMASO
 70
     1
  9
$DIMSHO
 70
     1
  9
$DIMPOST
  1

  9
$DIMAPOST
  1

  9
$DIMALT
 70
     0
  9
$DIMALTD
 70
     3
  9
$DIMALTF
 40
0.03937007874016
  9
$DIMLFAC
 40
1.0
  9
$DIMTOFL
 70
     1
  9
$DIMTVP
 40
0.0
  9
$DIMTIX
 70
     0
  9
$DIMSOXD
 70
     0
  9
$DIMSAH
 70
     0
  9
$DIMBLK1
  1

  9
$DIMBLK2
  1

  9
$DIMSTYLE
  2
ISO-25
  9
$DIMCLRD
 70
     0
  9
$DIMCLRE
 70
     0
  9
$DIMCLRT
 70
     0
  9
$DIMTFAC
 40
1.0
  9
$DIMGAP
 40
0.625
  9
$DIMJUST
 70
     0
  9
$DIMSD1
 70
     0
  9
$DIMSD2
 70
     0
  9
$DIMTOLJ
 70
     0
  9
$DIMTZIN
 70
     8
  9
$DIMALTZ
 70
     0
  9
$DIMALTTZ
 70
     0
  9
$DIMUPT
 70
     0
  9
$DIMDEC
 70
     2
  9
$DIMTDEC
 70
     2
  9
$DIMALTU
 70
     2
  9
$DIMALTTD
 70
     3
  9
$DIMTXSTY
  7
Standard
  9
$DIMAUNIT
 70
     0
  9
$DIMADEC
 70
     0
  9
$DIMALTRND
 40
0.0
  9
$DIMAZIN
 70
     0
  9
$DIMDSEP
 70
    44
  9
$DIMATFIT
 70
     3
  9
$DIMFRAC
 70
     0
  9
$DIMLDRBLK
  1

  9
$DIMLUNIT
 70
     2
  9
$DIMLWD
 70
    -2
  9
$DIMLWE
 70
    -2
  9
$DIMTMOVE
 70
     0
  9
$LUNITS
 70
     2
  9
$LUPREC
 70
     4
  9
$SKETCHINC
 40
1.0
  9
$FILLETRAD
 40
0.0
  9
$AUNITS
 70
     0
  9
$AUPREC
 70
     0
  9
$MENU
  1
.
  9
$ELEVATION
 40
0.0
  9
$PELEVATION
 40
0.0
  9
$THICKNESS
 40
0.0
  9
$LIMCHECK
 70
     0
  9
$CHAMFERA
 40
0.0
  9
$CHAMFERB
 40
0.0
  9
$CHAMFERC
 40
0.0
  9
$CHAMFERD
 40
0.0
  9
$SKPOLY
 70
     0
  9
$TDCREATE
 40
2460572.688854167
  9
$TDUCREATE
 40
2460572.397187500
  9
$TDUPDATE
 40
2460573.368842593
  9
$TDUUPDATE
 40
2460573.077175926
  9
$TDINDWG
 40
0.6775694444
  9
$TDUSRTIMER
 40
0.6775694444
  9
$USRTIMER
 70
     1
  9
$ANGBASE
 50
0.0
  9
$ANGDIR
 70
     0
  9
$PDMODE
 70
     0
  9
$PDSIZE
 40
0.0
  9
$PLINEWID
 40
0.0
  9
$SPLFRAME
 70
     0
  9
$SPLINETYPE
 70
     6
  9
$SPLINESEGS
 70
     8
  9
$HANDSEED
  5
1807
  9
$SURFTAB1
 70
     6
  9
$SURFTAB2
 70
     6
  9
$SURFTYPE
 70
     6
  9
$SURFU
 70
     6
  9
$SURFV
 70
     6
  9
$UCSBASE
  2

  9
$UCSNAME
  2

  9
$UCSORG
 10
0.0
 20
0.0
 30
0.0
  9
$UCSXDIR
 10
1.0
 20
0.0
 30
0.0
  9
$UCSYDIR
 10
0.0
 20
1.0
 30
0.0
  9
$UCSORTHOREF
  2

  9
$UCSORTHOVIEW
 70
     0
  9
$UCSORGTOP
 10
0.0
 20
0.0
 30
0.0
  9
$UCSORGBOTTOM
 10
0.0
 20
0.0
 30
0.0
  9
$UCSORGLEFT
 10
0.0
 20
0.0
 30
0.0
  9
$UCSORGRIGHT
 10
0.0
 20
0.0
 30
0.0
  9
$UCSORGFRONT
 10
0.0
 20
0.0
 30
0.0
  9
$UCSORGBACK
 10
0.0
 20
0.0
 30
0.0
  9
$PUCSBASE
  2

  9
$PUCSNAME
  2

  9
$PUCSORG
 10
0.0
 20
0.0
 30
0.0
  9
$PUCSXDIR
 10
1.0
 20
0.0
 30
0.0
  9
$PUCSYDIR
 10
0.0
 20
1.0
 30
0.0
  9
$PUCSORTHOREF
  2

  9
$PUCSORTHOVIEW
 70
     0
  9
$PUCSORGTOP
 10
0.0
 20
0.0
 30
0.0
  9
$PUCSORGBOTTOM
 10
0.0
 20
0.0
 30
0.0
  9
$PUCSORGLEFT
 10
0.0
 20
0.0
 30
0.0
  9
$PUCSORGRIGHT
 10
0.0
 20
0.0
 30
0.0
  9
$PUCSORGFRONT
 10
0.0
 20
0.0
 30
0.0
  9
$PUCSORGBACK
 10
0.0
 20
0.0
 30
0.0
  9
$USERI1
 70
     0
  9
$USERI2
 70
     0
  9
$USERI3
 70
     0
  9
$USERI4
 70
     0
  9
$USERI5
 70
     0
  9
$USERR1
 40
0.0
  9
$USERR2
 40
0.0
  9
$USERR3
 40
0.0
  9
$USERR4
 40
0.0
  9
$USERR5
 40
0.0
  9
$WORLDVIEW
 70
     1
  9
$SHADEDGE
 70
     3
  9
$SHADEDIF
 70
    70
  9
$TILEMODE
 70
     1
  9
$MAXACTVP
 70
    48
  9
$PINSBASE
 10
0.0
 20
0.0
 30
0.0
  9
$PLIMCHECK
 70
     0
  9
$PEXTMIN
 10
0.0
 20
0.0
 30
0.0
  9
$PEXTMAX
 10
0.0
 20
0.0
 30
0.0
  9
$PLIMMIN
 10
0.0
 20
0.0
  9
$PLIMMAX
 10
12.0
 20
9.0
  9
$UNITMODE
 70
     0
  9
$VISRETAIN
 70
     1
  9
$PLINEGEN
 70
     0
  9
$PSLTSCALE
 70
     1
  9
$TREEDEPTH
 70
  3020
  9
$CMLSTYLE
  2
Standard
  9
$CMLJUST
 70
     0
  9
$CMLSCALE
 40
20.0
  9
$PROXYGRAPHICS
 70
     1
  9
$MEASUREMENT
 70
     1
  9
$CELWEIGHT
370
    -1
  9
$ENDCAPS
280
     0
  9
$JOINSTYLE
280
     0
  9
$LWDISPLAY
290
     0
  9
$INSUNITS
 70
     4
  9
$HYPERLINKBASE
  1

  9
$STYLESHEET
  1

  9
$XEDIT
290
     1
  9
$CEPSNTYPE
380
     0
  9
$PSTYLEMODE
290
     1
  9
$FINGERPRINTGUID
  2
{0174FB10-CBEE-A049-BD77-4D56BD155670}
  9
$VERSIONGUID
  2
{960F1B2B-957B-6D47-9368-7B3DDA7D7190}
  9
$EXTNAMES
290
     1
  9
$PSVPSCALE
 40
0.0
  9
$OLESTARTUP
290
     0
  0
ENDSEC
  0
SECTION
  2
CLASSES
  0
CLASS
  1
ACDBDICTIONARYWDFLT
  2
AcDbDictionaryWithDefault
  3
ObjectDBX Classes
 90
        0
280
     0
281
     0
  0
CLASS
  1
ACDBPLACEHOLDER
  2
AcDbPlaceHolder
  3
ObjectDBX Classes
 90
        0
280
     0
281
     0
  0
CLASS
  1
LAYOUT
  2
AcDbLayout
  3
ObjectDBX Classes
 90
        0
280
     0
281
     0
  0
CLASS
  1
DICTIONARYVAR
  2
AcDbDictionaryVar
  3
ObjectDBX Classes
 90
        0
280
     0
281
     0
  0
CLASS
  1
TABLESTYLE
  2
AcDbTableStyle
  3
ObjectDBX Classes
 90
     4095
280
     0
281
     0
  0
CLASS
  1
MATERIAL
  2
AcDbMaterial
  3
ObjectDBX Classes
 90
     1153
280
     0
281
     0
  0
CLASS
  1
VISUALSTYLE
  2
AcDbVisualStyle
  3
ObjectDBX Classes
 90
     4095
280
     0
281
     0
  0
CLASS
  1
SCALE
  2
AcDbScale
  3
ObjectDBX Classes
 90
     1153
280
     0
281
     0
  0
CLASS
  1
MLEADERSTYLE
  2
AcDbMLeaderStyle
  3
ACDB_MLEADERSTYLE_CLASS
 90
     4095
280
     0
281
     0
  0
CLASS
  1
CELLSTYLEMAP
  2
AcDbCellStyleMap
  3
ObjectDBX Classes
 90
     1152
280
     0
281
     0
  0
CLASS
  1
EXACXREFPANELOBJECT
  2
ExAcXREFPanelObject
  3
EXAC_ESW
 90
    33793
280
     0
281
     0
  0
CLASS
  1
NPOCOLLECTION
  2
AcDbImpNonPersistentObjectsCollection
  3
ObjectDBX Classes
 90
    33921
280
     0
281
     0
  0
CLASS
  1
LAYER_INDEX
  2
AcDbLayerIndex
  3
ObjectDBX Classes
 90
    32768
280
     0
281
     0
  0
CLASS
  1
SPATIAL_INDEX
  2
AcDbSpatialIndex
  3
ObjectDBX Classes
 90
    32768
280
     0
281
     0
  0
CLASS
  1
IDBUFFER
  2
AcDbIdBuffer
  3
ObjectDBX Classes
 90
    32768
280
     0
281
     0
  0
CLASS
  1
ACDBSECTIONVIEWSTYLE
  2
AcDbSectionViewStyle
  3
ObjectDBX Classes
 90
     1025
280
     0
281
     0
  0
CLASS
  1
ACDBDETAILVIEWSTYLE
  2
AcDbDetailViewStyle
  3
ObjectDBX Classes
 90
     1025
280
     0
281
     0
  0
CLASS
  1
XRECORD
  2
AcDbXrecord
  3
ObjectDBX Classes
 90
        0
280
     0
281
     0
  0
ENDSEC
  0
SECTION
  2
TABLES
  0
TABLE
  2
VPORT
  5
8
102
{ACAD_XDICTIONARY
360
1715
102
}
330
0
100
AcDbSymbolTable
 70
     1
  0
VPORT
  5
EA
330
8
100
AcDbSymbolTableRecord
100
AcDbViewportTableRecord
  2
*Active
 70
     0
 10
0.0
 20
0.0
 11
1.0
 21
1.0
 12
8.062134531864657
 22
29.87855585126505
 13
0.0
 23
0.0
 14
10.0
 24
10.0
 15
10.0
 25
10.0
 16
0.0
 26
0.0
 36
1.0
 17
0.0
 27
0.0
 37
0.0
 40
573.439320281201
 41
0.9846153846153846
 42
50.0
 43
0.0
 44
0.0
 50
0.0
 51
0.0
 71
     0
 72
  1000
 73
     1
 74
     3
 75
     0
 76
     1
 77
     0
 78
     0
281
     0
 65
     1
110
0.0
120
0.0
130
0.0
111
1.0
121
0.0
131
0.0
112
0.0
122
1.0
132
0.0
 79
     0
146
0.0
1001
ACAD_NAV_VCDISPLAY
1070
     3
  0
ENDTAB
  0
TABLE
  2
LTYPE
  5
5
330
0
100
AcDbSymbolTable
 70
     1
  0
LTYPE
  5
14
330
5
100
AcDbSymbolTableRecord
100
AcDbLinetypeTableRecord
  2
ByBlock
 70
     0
  3

 72
    65
 73
     0
 40
0.0
  0
LTYPE
  5
15
330
5
100
AcDbSymbolTableRecord
100
AcDbLinetypeTableRecord
  2
ByLayer
 70
     0
  3

 72
    65
 73
     0
 40
0.0
  0
LTYPE
  5
16
330
5
100
AcDbSymbolTableRecord
100
AcDbLinetypeTableRecord
  2
Continuous
 70
     0
  3
Solid line
 72
    65
 73
     0
 40
0.0
  0
ENDTAB
  0
TABLE
  2
LAYER
  5
2
102
{ACAD_XDICTIONARY
360
1FF
102
}
330
0
100
AcDbSymbolTable
 70
     1
  0
LAYER
  5
10
102
{ACAD_XDICTIONARY
360
13C
102
}
330
2
100
AcDbSymbolTableRecord
100
AcDbLayerTableRecord
  2
0
 70
     0
 62
     7
  6
Continuous
370
    -3
390
F
  0
ENDTAB
  0
TABLE
  2
STYLE
  5
3
330
0
100
AcDbSymbolTable
 70
     1
  0
STYLE
  5
11
330
3
100
AcDbSymbolTableRecord
100
AcDbTextStyleTableRecord
  2
Standard
 70
     0
 40
0.0
 41
1.0
 50
0.0
 71
     0
 42
2.5
  3
arial.ttf
  4

1001
ACAD
1000
Arial
1071
       34
  0
ENDTAB
  0
TABLE
  2
VIEW
  5
6
330
0
100
AcDbSymbolTable
 70
     0
  0
ENDTAB
  0
TABLE
  2
UCS
  5
7
330
0
100
AcDbSymbolTable
 70
     0
  0
ENDTAB
  0
TABLE
  2
APPID
  5
9
330
0
100
AcDbSymbolTable
 70
     8
  0
APPID
  5
12
330
9
100
AcDbSymbolTableRecord
100
AcDbRegAppTableRecord
  2
ACAD
 70
     0
  0
APPID
  5
9E
330
9
100
AcDbSymbolTableRecord
100
AcDbRegAppTableRecord
  2
ACAD_PSEXT
 70
     0
  0
APPID
  5
133
330
9
100
AcDbSymbolTableRecord
100
AcDbRegAppTableRecord
  2
AcadAnnoPO
 70
     0
  0
APPID
  5
134
330
9
100
AcDbSymbolTableRecord
100
AcDbRegAppTableRecord
  2
AcadAnnotative
 70
     0
  0
APPID
  5
135
330
9
100
AcDbSymbolTableRecord
100
AcDbRegAppTableRecord
  2
ACAD_DSTYLE_DIMJAG
 70
     0
  0
APPID
  5
136
330
9
100
AcDbSymbolTableRecord
100
AcDbRegAppTableRecord
  2
ACAD_DSTYLE_DIMTALN
 70
     0
  0
APPID
  5
165
330
9
100
AcDbSymbolTableRecord
100
AcDbRegAppTableRecord
  2
ACAD_MLEADERVER
 70
     0
  0
APPID
  5
217
330
9
100
AcDbSymbolTableRecord
100
AcDbRegAppTableRecord
  2
ACAD_NAV_VCDISPLAY
 70
     0
  0
ENDTAB
  0
TABLE
  2
DIMSTYLE
  5
A
330
0
100
AcDbSymbolTable
 70
     1
100
AcDbDimStyleTable
 71
     0
  0
DIMSTYLE
105
27
330
A
100
AcDbSymbolTableRecord
100
AcDbDimStyleTableRecord
  2
ISO-25
 70
     0
 41
2.5
 42
0.625
 43
3.75
 44
1.25
 73
     0
 74
     0
 77
     1
 78
     8
140
2.5
141
2.5
143
0.03937007874016
147
0.625
171
     3
172
     1
271
     2
272
     2
274
     3
278
    44
283
     0
284
     8
340
11
  0
ENDTAB
  0
TABLE
  2
BLOCK_RECORD
  5
1
330
0
100
AcDbSymbolTable
 70
     7
  0
BLOCK_RECORD
  5
1F
102
{ACAD_XDICTIONARY
360
1CE
102
}
330
1
100
AcDbSymbolTableRecord
100
AcDbBlockTableRecord
  2
*Model_Space
340
22
  0
BLOCK_RECORD
  5
D2
102
{ACAD_XDICTIONARY
360
16C8
102
}
330
1
100
AcDbSymbolTableRecord
100
AcDbBlockTableRecord
  2
*Paper_Space
340
D3
  0
BLOCK_RECORD
  5
D6
102
{ACAD_XDICTIONARY
360
16CA
102
}
330
1
100
AcDbSymbolTableRecord
100
AcDbBlockTableRecord
  2
*Paper_Space0
340
D7
  0
BLOCK_RECORD
  5
1521
330
1
100
AcDbSymbolTableRecord
100
AcDbBlockTableRecord
  2
AKR165X3-Front
340
0
102
{BLKREFS
331
16BE
102
}
  0
BLOCK_RECORD
  5
1571
330
1
100
AcDbSymbolTableRecord
100
AcDbBlockTableRecord
  2
AKR165X3-Left
340
0
102
{BLKREFS
331
16BF
102
}
  0
BLOCK_RECORD
  5
1595
330
1
100
AcDbSymbolTableRecord
100
AcDbBlockTableRecord
  2
AKR165X3-Right
340
0
102
{BLKREFS
331
16C0
102
}
  0
BLOCK_RECORD
  5
15BC
330
1
100
AcDbSymbolTableRecord
100
AcDbBlockTableRecord
  2
AKR165X3-Top
340
0
102
{BLKREFS
331
16C1
102
}
  0
BLOCK_RECORD
  5
1600
330
1
100
AcDbSymbolTableRecord
100
AcDbBlockTableRecord
  2
AKR165X3-Bottom
340
0
102
{BLKREFS
331
16C2
102
}
  0
BLOCK_RECORD
  5
162F
330
1
100
AcDbSymbolTableRecord
100
AcDbBlockTableRecord
  2
AKR165X3-ISO
340
0
102
{BLKREFS
331
16C3
102
}
  0
ENDTAB
  0
ENDSEC
  0
SECTION
  2
BLOCKS
  0
BLOCK
  5
20
330
1F
100
AcDbEntity
  8
0
100
AcDbBlockBegin
  2
*Model_Space
 70
     0
 10
0.0
 20
0.0
 30
0.0
  3
*Model_Space
  1

  0
ENDBLK
  5
21
330
1F
100
AcDbEntity
  8
0
100
AcDbBlockEnd
  0
BLOCK
  5
D4
330
D2
100
AcDbEntity
 67
     1
  8
0
100
AcDbBlockBegin
  2
*Paper_Space
 70
     0
 10
0.0
 20
0.0
 30
0.0
  3
*Paper_Space
  1

  0
ENDBLK
  5
D5
330
D2
100
AcDbEntity
 67
     1
  8
0
100
AcDbBlockEnd
  0
BLOCK
  5
D8
330
D6
100
AcDbEntity
 67
     1
  8
0
100
AcDbBlockBegin
  2
*Paper_Space0
 70
     0
 10
0.0
 20
0.0
 30
0.0
  3
*Paper_Space0
  1

  0
ENDBLK
  5
D9
330
D6
100
AcDbEntity
 67
     1
  8
0
100
AcDbBlockEnd
  0
BLOCK
  5
1522
330
1521
100
AcDbEntity
  8
0
100
AcDbBlockBegin
  2
AKR165X3-Front
 70
     0
 10
0.0
 20
0.0
 30
0.0
  3
AKR165X3-Front
  1

  0
CIRCLE
  5
1524
330
1521
100
AcDbEntity
  8
0
100
AcDbCircle
 10
22.50000000000001
 20
130.0
 30
0.0
 40
2.600000000000002
  0
CIRCLE
  5
1525
330
1521
100
AcDbEntity
  8
0
100
AcDbCircle
 10
22.50000000000002
 20
156.0
 30
0.0
 40
2.600000000000001
  0
CIRCLE
  5
1526
330
1521
100
AcDbEntity
  8
0
100
AcDbCircle
 10
-22.49999999999998
 20
156.0
 30
0.0
 40
2.599999999999999
  0
CIRCLE
  5
1527
330
1521
100
AcDbEntity
  8
0
100
AcDbCircle
 10
0.0000000000000162
 20
156.0
 30
0.0
 40
2.599999999999998
  0
CIRCLE
  5
1528
330
1521
100
AcDbEntity
  8
0
100
AcDbCircle
 10
-22.49999999999999
 20
130.0
 30
0.0
 40
2.6
  0
CIRCLE
  5
1529
330
1521
100
AcDbEntity
  8
0
100
AcDbCircle
 10
0.0000000000000122
 20
120.0
 30
0.0
 40
2.599999999999997
  0
CIRCLE
  5
152A
330
1521
100
AcDbEntity
  8
0
100
AcDbCircle
 10
0.00000000000001
 20
100.0
 30
0.0
 40
6.750000000000003
  0
CIRCLE
  5
152B
330
1521
100
AcDbEntity
  8
0
100
AcDbCircle
 10
-22.5
 20
87.00000000000001
 30
0.0
 40
2.600000000000006
  0
CIRCLE
  5
152C
330
1521
100
AcDbEntity
  8
0
100
AcDbCircle
 10
22.50000000000001
 20
87.00000000000001
 30
0.0
 40
2.600000000000001
  0
CIRCLE
  5
152D
330
1521
100
AcDbEntity
  8
0
100
AcDbCircle
 10
0.0000000000000034
 20
40.0
 30
0.0
 40
2.6
  0
CIRCLE
  5
152E
330
1521
100
AcDbEntity
  8
0
100
AcDbCircle
 10
14.00000000000001
 20
50.0
 30
0.0
 40
2.6
  0
CIRCLE
  5
152F
330
1521
100
AcDbEntity
  8
0
100
AcDbCircle
 10
-13.99999999999999
 20
50.0
 30
0.0
 40
2.6
  0
CIRCLE
  5
1530
330
1521
100
AcDbEntity
  8
0
100
AcDbCircle
 10
0.0000000000000056
 20
60.0
 30
0.0
 40
2.6
  0
CIRCLE
  5
1531
330
1521
100
AcDbEntity
  8
0
100
AcDbCircle
 10
20.00000000000001
 20
69.0
 30
0.0
 40
2.6
  0
CIRCLE
  5
1532
330
1521
100
AcDbEntity
  8
0
100
AcDbCircle
 10
-19.99999999999999
 20
69.0
 30
0.0
 40
2.6
  0
CIRCLE
  5
1533
330
1521
100
AcDbEntity
  8
0
100
AcDbCircle
 10
0.0000000000000076
 20
78.0
 30
0.0
 40
2.6
  0
LINE
  5
1534
330
1521
100
AcDbEntity
  8
0
100
AcDbLine
 10
32.50000000000003
 20
71.49999999999991
 30
0.0
 11
32.50000000000002
 21
158.0
 31
0.0
  0
LINE
  5
1535
330
1521
100
AcDbEntity
  8
0
100
AcDbLine
 10
-32.5
 20
71.49999999999991
 30
0.0
 11
-32.49999999999999
 21
158.0
 31
0.0
  0
LINE
  5
1536
330
1521
100
AcDbEntity
  8
0
100
AcDbLine
 10
19.40049474616514
 20
14.78494715841456
 30
0.0
 11
22.88089344101218
 21
9.483549287033994
 31
0.0
  0
ELLIPSE
  5
1537
330
1521
100
AcDbEntity
  8
0
100
AcDbEllipse
 10
21.84265019811887
 20
29.55706345359769
 30
0.0
 11
-2.149316260459677
 21
-14.99707715516457
 31
0.0
210
0.0
220
0.0
230
1.0
 40
0.13776599274178
 41
4.906663367072862
 42
6.128393843468897
  0
LINE
  5
1538
330
1521
100
AcDbEntity
  8
0
100
AcDbLine
 10
22.88089344101217
 20
57.01806215511449
 30
0.0
 11
19.40049474616513
 21
26.95234078859373
 31
0.0
  0
LINE
  5
1539
330
1521
100
AcDbEntity
  8
0
100
AcDbLine
 10
-19.40049474616515
 20
26.95234078859374
 30
0.0
 11
-22.88089344101218
 21
57.01806215511449
 31
0.0
  0
ELLIPSE
  5
153A
330
1521
100
AcDbEntity
  8
0
100
AcDbEllipse
 10
-21.84265019811889
 20
29.5570634535977
 30
0.0
 11
-2.149316260459887
 21
14.99707715516454
 31
0.0
210
0.0
220
0.0
230
1.0
 40
0.1377659927417807
 41
3.296384117292443
 42
4.518114593693586
  0
LINE
  5
153B
330
1521
100
AcDbEntity
  8
0
100
AcDbLine
 10
-22.88089344101225
 20
9.483549287033998
 30
0.0
 11
-19.40049474616517
 21
14.78494715841457
 31
0.0
  0
LINE
  5
153C
330
1521
100
AcDbEntity
  8
0
100
AcDbLine
 10
-25.50000000000003
 20
2.999999999999995
 30
0.0
 11
25.49999999999996
 21
2.999999999999989
 31
0.0
  0
SPLINE
  5
153D
330
1521
100
AcDbEntity
  8
0
100
AcDbSpline
210
0.0
220
0.0
230
1.0
 70
     8
 71
     3
 72
    20
 73
    16
 74
     0
 42
0.000000001
 43
0.0000000001
 40
-1.0
 40
-1.0
 40
-1.0
 40
-1.0
 40
-0.8557507846688567
 40
-0.8557507846688567
 40
-0.8557507846688567
 40
-0.4725410755545677
 40
-0.4725410755545677
 40
-0.4725410755545677
 40
-0.2262668722283631
 40
-0.2262668722283631
 40
-0.2262668722283631
 40
-0.054508876044864
 40
-0.054508876044864
 40
-0.054508876044864
 40
0.0
 40
0.0
 40
0.0
 40
0.0
 10
-32.50000000000002
 20
71.49999999999993
 30
0.0
 10
-32.49596368058165
 20
70.51422263202503
 30
0.0
 10
-32.37910965910497
 20
69.60755482004188
 30
0.0
 10
-32.16692343470406
 20
68.79579103749522
 30
0.0
 10
-31.60323356544499
 20
66.63927488407903
 30
0.0
 10
-30.41855420422015
 20
65.09164757619578
 30
0.0
 10
-29.21981211984214
 20
63.52662748021166
 30
0.0
 10
-28.44942649337633
 20
62.52084900393343
 30
0.0
 10
-27.6722133332742
 20
61.51295505185242
 30
0.0
 10
-27.05454655899466
 20
60.34589916494749
 30
0.0
 10
-26.6237697824321
 20
59.53196421820265
 30
0.0
 10
-26.26601864944478
 20
58.62483513656294
 30
0.0
 10
-26.05086466151857
 20
57.60015142178393
 30
0.0
 10
-25.98258369458239
 20
57.27495923955559
 30
0.0
 10
-25.93039957561445
 20
56.93850065069416
 30
0.0
 10
-25.89060973843285
 20
56.59507411448344
 30
0.0
  0
LINE
  5
153E
330
1521
100
AcDbEntity
  8
0
100
AcDbLine
 10
-25.17482914746681
 20
56.69567051617576
 30
0.0
 11
-25.89060973854643
 21
56.59507411444166
 31
0.0
  0
LINE
  5
153F
330
1521
100
AcDbEntity
  8
0
100
AcDbLine
 10
-22.88089344101222
 20
57.0180621551145
 30
0.0
 11
-25.17482914746681
 21
56.69567051617576
 31
0.0
  0
SPLINE
  5
1540
330
1521
100
AcDbEntity
  8
0
100
AcDbSpline
210
0.0
220
0.0
230
1.0
 70
     8
 71
     3
 72
    20
 73
    16
 74
     0
 42
0.000000001
 43
0.0000000001
 40
-1.0
 40
-1.0
 40
-1.0
 40
-1.0
 40
-0.9088430650615059
 40
-0.9088430650615059
 40
-0.9088430650615059
 40
-0.5823514910969569
 40
-0.5823514910969569
 40
-0.5823514910969569
 40
-0.2911757455484784
 40
-0.2911757455484784
 40
-0.2911757455484784
 40
-0.0929891979393971
 40
-0.0929891979393971
 40
-0.0929891979393971
 40
0.0
 40
0.0
 40
0.0
 40
0.0
 10
-22.8808934410122
 20
57.01806215511446
 30
0.0
 10
-22.95109662338786
 20
57.57958427956639
 30
0.0
 10
-23.07530094603553
 20
58.14396964148962
 30
0.0
 10
-23.26467875113499
 20
58.65029855632865
 30
0.0
 10
-23.94296239134947
 20
60.46378783677777
 30
0.0
 10
-25.33818934917151
 20
61.82576217278678
 30
0.0
 10
-26.83234240728302
 20
63.11905892732373
 30
0.0
 10
-28.16487643067683
 20
64.2724628027898
 30
0.0
 10
-29.57344291861566
 20
65.36239284430762
 30
0.0
 10
-30.66060035164473
 20
66.67307671725582
 30
0.0
 10
-31.4005657562279
 20
67.56518368618348
 30
0.0
 10
-31.98637480265191
 20
68.56096430398391
 30
0.0
 10
-32.28446159129545
 20
69.7237637118623
 30
0.0
 10
-32.42432401751303
 20
70.26934960357628
 30
0.0
 10
-32.49448814716041
 20
70.86258538925855
 30
0.0
 10
-32.50000000000144
 20
71.50000000006291
 30
0.0
  0
LINE
  5
1541
330
1521
100
AcDbEntity
  8
0
100
AcDbLine
 10
-22.34380262810205
 20
57.09354534627188
 30
0.0
 11
-22.88089344101218
 21
57.01806215511449
 31
0.0
  0
LINE
  5
1542
330
1521
100
AcDbEntity
  8
0
100
AcDbLine
 10
-19.40135808271012
 20
57.50707895874676
 30
0.0
 11
-22.34380262810205
 21
57.09354534627188
 31
0.0
  0
SPLINE
  5
1543
330
1521
100
AcDbEntity
  8
0
100
AcDbSpline
210
0.0
220
0.0
230
1.0
 70
     8
 71
     2
 72
     6
 73
     3
 74
     0
 42
0.000000001
 43
0.0000000001
 40
0.0
 40
0.0
 40
0.0
 40
1.0
 40
1.0
 40
1.0
 10
-19.40135808271012
 20
57.50707895874676
 30
0.0
 10
-20.8564637903276
 20
67.86069405359666
 30
0.0
 10
-32.49999999999999
 20
71.49999999999993
 30
0.0
  0
SPLINE
  5
1544
330
1521
100
AcDbEntity
  8
0
100
AcDbSpline
210
0.0
220
0.0
230
1.0
 70
     8
 71
     3
 72
    20
 73
    16
 74
     0
 42
0.000000001
 43
0.0000000001
 40
-1.0
 40
-1.0
 40
-1.0
 40
-1.0
 40
-0.8565140843578728
 40
-0.8565140843578728
 40
-0.8565140843578728
 40
-0.5402558541810202
 40
-0.5402558541810202
 40
-0.5402558541810202
 40
-0.2701279270905101
 40
-0.2701279270905101
 40
-0.2701279270905101
 40
-0.0852549168068872
 40
-0.0852549168068872
 40
-0.0852549168068872
 40
0.0
 40
0.0
 40
0.0
 40
0.0
 10
22.88089344101222
 20
57.01806215511448
 30
0.0
 10
22.98563906630185
 20
57.92230508727769
 30
0.0
 10
23.25108945202819
 20
58.75125606594882
 30
0.0
 10
23.64500443042325
 20
59.49063806023987
 30
0.0
 10
24.51323496963585
 20
61.12031467269805
 30
0.0
 10
25.9470948515656
 20
62.37298809436466
 30
0.0
 10
27.41482735378632
 20
63.61722483988604
 30
0.0
 10
28.66847232020044
 20
64.67997376088513
 30
0.0
 10
29.92402793119322
 20
65.70892477048134
 30
0.0
 10
30.88879741846614
 20
66.95682341169614
 30
0.0
 10
31.54907657309856
 20
67.81087349387416
 30
0.0
 10
32.05964361545371
 20
68.76547766490896
 30
0.0
 10
32.31762450953997
 20
69.85892594191833
 30
0.0
 10
32.43659341489478
 20
70.36317392136138
 30
0.0
 10
32.49484871723281
 20
70.90289999942939
 30
0.0
 10
32.50000000000147
 20
71.5000000000629
 30
0.0
  0
SPLINE
  5
1545
330
1521
100
AcDbEntity
  8
0
100
AcDbSpline
210
0.0
220
0.0
230
1.0
 70
     8
 71
     2
 72
     6
 73
     3
 74
     0
 42
0.000000001
 43
0.0000000001
 40
0.0
 40
0.0
 40
0.0
 40
1.0
 40
1.0
 40
1.0
 10
19.40135808271013
 20
57.50707895874676
 30
0.0
 10
20.85646379032763
 20
67.86069405359666
 30
0.0
 10
32.50000000000001
 20
71.49999999999993
 30
0.0
  0
LINE
  5
1546
330
1521
100
AcDbEntity
  8
0
100
AcDbLine
 10
22.34380262810205
 20
57.09354534627189
 30
0.0
 11
19.40135808271013
 21
57.50707895874676
 31
0.0
  0
LINE
  5
1547
330
1521
100
AcDbEntity
  8
0
100
AcDbLine
 10
22.88089344101218
 20
57.0180621551145
 30
0.0
 11
22.34380262810204
 21
57.09354534627188
 31
0.0
  0
SPLINE
  5
1548
330
1521
100
AcDbEntity
  8
0
100
AcDbSpline
210
0.0
220
0.0
230
1.0
 70
     8
 71
     3
 72
    20
 73
    16
 74
     0
 42
0.000000001
 43
0.0000000001
 40
-1.0
 40
-1.0
 40
-1.0
 40
-1.0
 40
-0.8557507846688567
 40
-0.8557507846688567
 40
-0.8557507846688567
 40
-0.4725410755545677
 40
-0.4725410755545677
 40
-0.4725410755545677
 40
-0.2262668722283631
 40
-0.2262668722283631
 40
-0.2262668722283631
 40
-0.054508876044864
 40
-0.054508876044864
 40
-0.054508876044864
 40
0.0
 40
0.0
 40
0.0
 40
0.0
 10
32.50000000000004
 20
71.49999999999993
 30
0.0
 10
32.49596368058167
 20
70.51422263202503
 30
0.0
 10
32.37910965910498
 20
69.60755482004188
 30
0.0
 10
32.16692343470407
 20
68.79579103749522
 30
0.0
 10
31.60323356544501
 20
66.63927488407903
 30
0.0
 10
30.41855420422017
 20
65.09164757619578
 30
0.0
 10
29.21981211984216
 20
63.52662748021166
 30
0.0
 10
28.44942649337634
 20
62.52084900393343
 30
0.0
 10
27.67221333327421
 20
61.51295505185242
 30
0.0
 10
27.05454655899468
 20
60.34589916494749
 30
0.0
 10
26.62376978243211
 20
59.53196421820265
 30
0.0
 10
26.2660186494448
 20
58.62483513656294
 30
0.0
 10
26.05086466151857
 20
57.60015142178393
 30
0.0
 10
25.9825836945824
 20
57.27495923955559
 30
0.0
 10
25.93039957561446
 20
56.93850065069416
 30
0.0
 10
25.89060973843286
 20
56.59507411448344
 30
0.0
  0
LINE
  5
1549
330
1521
100
AcDbEntity
  8
0
100
AcDbLine
 10
25.89060973854643
 20
56.59507411444166
 30
0.0
 11
25.17482914746681
 21
56.69567051617575
 31
0.0
  0
LINE
  5
154A
330
1521
100
AcDbEntity
  8
0
100
AcDbLine
 10
24.95106001328249
 20
56.72711921707464
 30
0.0
 11
22.88089344101223
 21
57.01806215511449
 31
0.0
  0
LINE
  5
154B
330
1521
100
AcDbEntity
  8
0
100
AcDbLine
 10
25.17482914746681
 20
56.69567051617575
 30
0.0
 11
24.95106001328249
 21
56.72711921707464
 31
0.0
  0
SPLINE
  5
154C
330
1521
100
AcDbEntity
  8
0
100
AcDbSpline
210
0.0
220
0.0
230
1.0
 70
     8
 71
     3
 72
    14
 73
    10
 74
     0
 42
0.000000001
 43
0.0000000001
 40
-0.4328643671700024
 40
-0.4328643671700024
 40
-0.4328643671700024
 40
-0.4328643671700024
 40
-0.2262668722283631
 40
-0.2262668722283631
 40
-0.2262668722283631
 40
-0.054508876044864
 40
-0.054508876044864
 40
-0.054508876044864
 40
0.0
 40
0.0
 40
0.0
 40
0.0
 10
28.84763067519016
 20
5.25851827107524
 30
0.0
 10
28.20313734938862
 20
6.188104257285436
 30
0.0
 10
27.57270236480517
 20
7.097107095483004
 30
0.0
 10
27.05454655899464
 20
7.846564790705801
 30
0.0
 10
26.62376978243208
 20
8.469637940707615
 30
0.0
 10
26.26601864944476
 20
8.98994188002044
 30
0.0
 10
26.05086466151854
 20
9.312718229940454
 30
0.0
 10
25.98258369458237
 20
9.415154078279106
 30
0.0
 10
25.93039957561443
 20
9.49446890698676
 30
0.0
 10
25.89060973843283
 20
9.558133491115093
 30
0.0
  0
SPLINE
  5
154D
330
1521
100
AcDbEntity
  8
0
100
AcDbSpline
210
0.0
220
0.0
230
1.0
 70
     8
 71
     3
 72
    20
 73
    16
 74
     0
 42
0.000000001
 43
0.0000000001
 40
-1.0
 40
-1.0
 40
-1.0
 40
-1.0
 40
-0.8565140843578728
 40
-0.8565140843578728
 40
-0.8565140843578728
 40
-0.5402558541810202
 40
-0.5402558541810202
 40
-0.5402558541810202
 40
-0.2701279270905101
 40
-0.2701279270905101
 40
-0.2701279270905101
 40
-0.0852549168068872
 40
-0.0852549168068872
 40
-0.0852549168068872
 40
0.0
 40
0.0
 40
0.0
 40
0.0
 10
22.88089344101219
 20
9.483549287033987
 30
0.0
 10
22.98563906630182
 20
9.32009246234228
 30
0.0
 10
23.25108945202816
 20
9.07246172505051
 30
0.0
 10
23.64500443042322
 20
8.763930907749193
 30
0.0
 10
24.51323496963581
 20
8.083896147556433
 30
0.0
 10
25.94709485156557
 20
7.12303551693852
 30
0.0
 10
27.41482735378629
 20
6.173960274806741
 30
0.0
 10
28.6684723202004
 20
5.36331978122459
 30
0.0
 10
29.92402793119318
 20
4.579673909802728
 30
0.0
 10
30.88879741846611
 20
3.984753324024858
 30
0.0
 10
31.54907657309853
 20
3.577595275773153
 30
0.0
 10
32.05964361545368
 20
3.265340377921956
 30
0.0
 10
32.31762450953993
 20
3.10856058405899
 30
0.0
 10
32.43659341489473
 20
3.036260964648443
 30
0.0
 10
32.49484871723276
 20
2.999954352938684
 30
0.0
 10
32.50000000000143
 20
2.999999999892052
 30
0.0
  0
LINE
  5
154E
330
1521
100
AcDbEntity
  8
0
100
AcDbLine
 10
22.34380262810205
 20
5.586466387525107
 30
0.0
 11
22.88089344101219
 21
9.483549287033994
 31
0.0
  0
ELLIPSE
  5
154F
330
1521
100
AcDbEntity
  8
0
100
AcDbEllipse
 10
19.40135808271008
 20
5.999999999999992
 30
0.0
 11
0.0000000000000108
 21
-3.0
 31
0.0
210
0.0
220
0.0
230
1.0
 40
0.9902680687415703
 41
0.0000000000000001
 42
1.432511480600925
  0
LINE
  5
1550
330
1521
100
AcDbEntity
  8
0
100
AcDbLine
 10
25.17482914747904
 20
9.540395631334018
 30
0.0
 11
25.89060973854639
 21
9.558133491121623
 31
0.0
  0
LINE
  5
1551
330
1521
100
AcDbEntity
  8
0
100
AcDbLine
 10
24.95106001326911
 20
9.534850376856677
 30
0.0
 11
25.17482914747904
 21
9.540395631334018
 31
0.0
  0
LINE
  5
1552
330
1521
100
AcDbEntity
  8
0
100
AcDbLine
 10
22.8808934410122
 20
9.483549287033991
 30
0.0
 11
24.95106001326911
 21
9.534850376856677
 31
0.0
  0
SPLINE
  5
1553
330
1521
100
AcDbEntity
  8
0
100
AcDbSpline
210
0.0
220
0.0
230
1.0
 70
     8
 71
     3
 72
    14
 73
    10
 74
     0
 42
0.000000001
 43
0.0000000001
 40
-0.4328643671700011
 40
-0.4328643671700011
 40
-0.4328643671700011
 40
-0.4328643671700011
 40
-0.2262668722283631
 40
-0.2262668722283631
 40
-0.2262668722283631
 40
-0.054508876044864
 40
-0.054508876044864
 40
-0.054508876044864
 40
0.0
 40
0.0
 40
0.0
 40
0.0
 10
-28.84763067519021
 20
5.258518271075265
 30
0.0
 10
-28.20313734938866
 20
6.188104257285456
 30
0.0
 10
-27.57270236480522
 20
7.097107095483016
 30
0.0
 10
-27.0545465589947
 20
7.846564790705807
 30
0.0
 10
-26.62376978243213
 20
8.46963794070762
 30
0.0
 10
-26.26601864944481
 20
8.989941880020445
 30
0.0
 10
-26.0508646615186
 20
9.312718229940459
 30
0.0
 10
-25.98258369458243
 20
9.415154078279112
 30
0.0
 10
-25.93039957561448
 20
9.494468906986766
 30
0.0
 10
-25.89060973843289
 20
9.558133491115098
 30
0.0
  0
SPLINE
  5
1554
330
1521
100
AcDbEntity
  8
0
100
AcDbSpline
210
0.0
220
0.0
230
1.0
 70
     8
 71
     3
 72
    20
 73
    16
 74
     0
 42
0.000000001
 43
0.0000000001
 40
-1.0
 40
-1.0
 40
-1.0
 40
-1.0
 40
-0.8565140843578728
 40
-0.8565140843578728
 40
-0.8565140843578728
 40
-0.5402558541810202
 40
-0.5402558541810202
 40
-0.5402558541810202
 40
-0.2701279270905101
 40
-0.2701279270905101
 40
-0.2701279270905101
 40
-0.0852549168068872
 40
-0.0852549168068872
 40
-0.0852549168068872
 40
0.0
 40
0.0
 40
0.0
 40
0.0
 10
-22.88089344101224
 20
9.483549287033993
 30
0.0
 10
-22.98563906630187
 20
9.320092462342286
 30
0.0
 10
-23.25108945202821
 20
9.072461725050516
 30
0.0
 10
-23.64500443042328
 20
8.763930907749198
 30
0.0
 10
-24.51323496963586
 20
8.083896147556439
 30
0.0
 10
-25.94709485156562
 20
7.123035516938527
 30
0.0
 10
-27.41482735378634
 20
6.173960274806748
 30
0.0
 10
-28.66847232020046
 20
5.363319781224596
 30
0.0
 10
-29.92402793119324
 20
4.579673909802735
 30
0.0
 10
-30.88879741846616
 20
3.984753324024865
 30
0.0
 10
-31.54907657309858
 20
3.577595275773159
 30
0.0
 10
-32.05964361545373
 20
3.265340377921963
 30
0.0
 10
-32.31762450953999
 20
3.108560584058997
 30
0.0
 10
-32.4365934148948
 20
3.03626096464845
 30
0.0
 10
-32.49484871723284
 20
2.999954352938691
 30
0.0
 10
-32.5000000000015
 20
2.99999999989206
 30
0.0
  0
ELLIPSE
  5
1555
330
1521
100
AcDbEntity
  8
0
100
AcDbEllipse
 10
-19.40135808271014
 20
5.999999999999997
 30
0.0
 11
-0.0000000000000033
 21
-3.0
 31
0.0
210
0.0
220
0.0
230
1.0
 40
0.9902680687415703
 41
4.850673826578658
 42
6.283185307179586
  0
LINE
  5
1556
330
1521
100
AcDbEntity
  8
0
100
AcDbLine
 10
-22.88089344101225
 20
9.483549287034001
 30
0.0
 11
-22.34380262810212
 21
5.586466387525113
 31
0.0
  0
LINE
  5
1557
330
1521
100
AcDbEntity
  8
0
100
AcDbLine
 10
-25.89060973854645
 20
9.558133491121626
 30
0.0
 11
-25.1748291474791
 21
9.540395631334021
 31
0.0
  0
LINE
  5
1558
330
1521
100
AcDbEntity
  8
0
100
AcDbLine
 10
-24.95106001326917
 20
9.534850376856681
 30
0.0
 11
-22.88089344101225
 21
9.483549287033994
 31
0.0
  0
LINE
  5
1559
330
1521
100
AcDbEntity
  8
0
100
AcDbLine
 10
-25.1748291474791
 20
9.540395631334021
 30
0.0
 11
-24.95106001326917
 21
9.534850376856681
 31
0.0
  0
LINE
  5
155A
330
1521
100
AcDbEntity
  8
0
100
AcDbLine
 10
25.49999999999996
 20
0.0
 30
0.0
 11
32.49999999999996
 21
0.0
 31
0.0
  0
LINE
  5
155B
330
1521
100
AcDbEntity
  8
0
100
AcDbLine
 10
-32.50000000000003
 20
0.0
 30
0.0
 11
-25.50000000000003
 21
0.0
 31
0.0
  0
LINE
  5
155C
330
1521
100
AcDbEntity
  8
0
100
AcDbLine
 10
25.50000000000002
 20
165.0
 30
0.0
 11
32.50000000000002
 21
158.0
 31
0.0
  0
LINE
  5
155D
330
1521
100
AcDbEntity
  8
0
100
AcDbLine
 10
-32.49999999999999
 20
158.0
 30
0.0
 11
-25.49999999999998
 21
165.0
 31
0.0
  0
LINE
  5
155E
330
1521
100
AcDbEntity
  8
0
100
AcDbLine
 10
-25.50000000000003
 20
2.999999999999995
 30
0.0
 11
-32.50000000000003
 21
2.999999999999996
 31
0.0
  0
LINE
  5
155F
330
1521
100
AcDbEntity
  8
0
100
AcDbLine
 10
32.49999999999996
 20
2.999999999999989
 30
0.0
 11
25.49999999999996
 21
2.999999999999989
 31
0.0
  0
LINE
  5
1560
330
1521
100
AcDbEntity
  8
0
100
AcDbLine
 10
25.49999999999996
 20
2.999999999999989
 30
0.0
 11
25.49999999999996
 21
0.0
 31
0.0
  0
LINE
  5
1561
330
1521
100
AcDbEntity
  8
0
100
AcDbLine
 10
-25.50000000000003
 20
0.0
 30
0.0
 11
-25.50000000000003
 21
2.999999999999995
 31
0.0
  0
LINE
  5
1562
330
1521
100
AcDbEntity
  8
0
100
AcDbLine
 10
-25.50000000000003
 20
0.0
 30
0.0
 11
25.49999999999996
 21
0.0
 31
0.0
  0
LINE
  5
1563
330
1521
100
AcDbEntity
  8
0
100
AcDbLine
 10
-25.89060973854646
 20
9.558133491121632
 30
0.0
 11
-22.45917600970657
 21
14.78494715841457
 31
0.0
  0
ELLIPSE
  5
1564
330
1521
100
AcDbEntity
  8
0
100
AcDbEllipse
 10
-24.90133146166029
 20
29.5570634535977
 30
0.0
 11
-2.149316260459887
 21
14.99707715516454
 31
0.0
210
0.0
220
0.0
230
1.0
 40
0.1377659927417807
 41
3.296384117292443
 42
4.518114593693586
  0
LINE
  5
1565
330
1521
100
AcDbEntity
  8
0
100
AcDbLine
 10
-22.45917600970655
 20
26.95234078859374
 30
0.0
 11
-25.89060973854638
 21
56.59507411444166
 31
0.0
  0
LINE
  5
1566
330
1521
100
AcDbEntity
  8
0
100
AcDbLine
 10
25.50000000000002
 20
165.0
 30
0.0
 11
-25.49999999999998
 21
165.0
 31
0.0
  0
LINE
  5
1567
330
1521
100
AcDbEntity
  8
0
100
AcDbLine
 10
-13.14629605568257
 20
13.00000000000001
 30
0.0
 11
-19.40135808271007
 21
57.50707895874676
 31
0.0
  0
LINE
  5
1568
330
1521
100
AcDbEntity
  8
0
100
AcDbLine
 10
19.40135808271008
 20
57.50707895874676
 30
0.0
 11
13.14629605568256
 21
13.0
 31
0.0
  0
ELLIPSE
  5
1569
330
1521
100
AcDbEntity
  8
0
100
AcDbEllipse
 10
14.13008189859931
 20
13.0
 30
0.0
 11
-0.9932598611245555
 21
-9.999531768717298
 31
0.0
210
0.0
220
0.0
230
1.0
 40
0.0974265314997314
 41
4.722066117737838
 42
6.292862444532738
  0
ELLIPSE
  5
156A
330
1521
100
AcDbEntity
  8
0
100
AcDbEllipse
 10
-14.13008189859932
 20
13.00000000000001
 30
0.0
 11
-0.9932598611246527
 21
9.999531768717288
 31
0.0
210
0.0
220
0.0
230
0.9999999999999998
 40
0.0974265314997322
 41
3.131915516220319
 42
4.702711843026095
  0
LINE
  5
156B
330
1521
100
AcDbEntity
  8
0
100
AcDbLine
 10
10.66504250456364
 20
7.956249513346445
 30
0.0
 11
-10.65496162148929
 21
7.956249513346447
 31
0.0
  0
LINE
  5
156C
330
1521
100
AcDbEntity
  8
0
100
AcDbLine
 10
22.45917600970654
 20
14.78494715841456
 30
0.0
 11
25.89060973854639
 21
9.558133491121624
 31
0.0
  0
LINE
  5
156D
330
1521
100
AcDbEntity
  8
0
100
AcDbLine
 10
25.89060973854638
 20
56.59507411444167
 30
0.0
 11
22.45917600970654
 21
26.95234078859373
 31
0.0
  0
ELLIPSE
  5
156E
330
1521
100
AcDbEntity
  8
0
100
AcDbEllipse
 10
24.90133146166027
 20
29.55706345359769
 30
0.0
 11
-2.149316260459677
 21
-14.99707715516457
 31
0.0
210
0.0
220
0.0
230
1.0
 40
0.13776599274178
 41
4.906663367072861
 42
6.128393843468897
  0
LINE
  5
156F
330
1521
100
AcDbEntity
  8
0
100
AcDbLine
 10
32.49999999999996
 20
0.0
 30
0.0
 11
32.49999999999996
 21
2.999999999999989
 31
0.0
  0
LINE
  5
1570
330
1521
100
AcDbEntity
  8
0
100
AcDbLine
 10
-32.50000000000003
 20
2.999999999999996
 30
0.0
 11
-32.50000000000003
 21
0.0
 31
0.0
  0
ENDBLK
  5
1523
330
1521
100
AcDbEntity
  8
0
100
AcDbBlockEnd
  0
BLOCK
  5
1572
330
1571
100
AcDbEntity
  8
0
100
AcDbBlockBegin
  2
AKR165X3-Left
 70
     0
 10
0.0
 20
0.0
 30
0.0
  3
AKR165X3-Left
  1

  0
ELLIPSE
  5
1574
330
1571
100
AcDbEntity
  8
0
100
AcDbEllipse
 10
6.000000000000003
 20
57.50707895874676
 30
0.0
 11
-6.000000000000001
 21
-0.0000000000000009
 31
0.0
210
0.0
220
0.0
230
1.0
 40
0.1391731009600659
 41
0.0
 42
1.432511480600927
  0
LINE
  5
1575
330
1571
100
AcDbEntity
  8
0
100
AcDbLine
 10
9.558133491121635
 20
56.59507411444166
 30
0.0
 11
5.172932775050226
 21
56.68001173379699
 31
0.0
  0
SPLINE
  5
1576
330
1571
100
AcDbEntity
  8
0
100
AcDbSpline
210
0.0
220
0.0
230
1.0
 70
     8
 71
     3
 72
    20
 73
    16
 74
     0
 42
0.000000001
 43
0.0000000001
 40
-1.0
 40
-1.0
 40
-1.0
 40
-1.0
 40
-0.8557507846688567
 40
-0.8557507846688567
 40
-0.8557507846688567
 40
-0.4725410755545677
 40
-0.4725410755545677
 40
-0.4725410755545677
 40
-0.2262668722283631
 40
-0.2262668722283631
 40
-0.2262668722283631
 40
-0.054508876044864
 40
-0.054508876044864
 40
-0.054508876044864
 40
0.0
 40
0.0
 40
0.0
 40
0.0
 10
-0.0000000000000131
 20
71.49999999999993
 30
0.0
 10
-0.0000078262250673
 20
70.51422263202503
 30
0.0
 10
0.1669297411107419
 20
69.60755482004188
 30
0.0
 10
0.4742787332276388
 20
68.79579103749522
 30
0.0
 10
1.290776192817338
 20
66.63927488407903
 30
0.0
 10
2.992237894645611
 20
65.09164757619578
 30
0.0
 10
4.721648724159976
 20
63.52662748021166
 30
0.0
 10
5.833074828803211
 20
62.52084900393343
 30
0.0
 10
6.953174980389722
 20
61.51295505185242
 30
0.0
 10
7.846564790705801
 20
60.34589916494749
 30
0.0
 10
8.469637940707615
 20
59.53196421820265
 30
0.0
 10
8.98994188002044
 20
58.62483513656295
 30
0.0
 10
9.312718229940454
 20
57.60015142178395
 30
0.0
 10
9.415154078279105
 20
57.2749592395556
 30
0.0
 10
9.494468906986758
 20
56.93850065069418
 30
0.0
 10
9.558133491115093
 20
56.59507411448345
 30
0.0
  0
LINE
  5
1577
330
1571
100
AcDbEntity
  8
0
100
AcDbLine
 10
0.0
 20
57.50707895874676
 30
0.0
 11
0.0
 21
71.49999999999993
 31
0.0
  0
LINE
  5
1578
330
1571
100
AcDbEntity
  8
0
100
AcDbLine
 10
9.540395631333698
 20
56.69567051617576
 30
0.0
 11
9.558133491121607
 21
56.59507411444167
 31
0.0
  0
LINE
  5
1579
330
1571
100
AcDbEntity
  8
0
100
AcDbLine
 10
9.483549287033973
 20
57.0180621551145
 30
0.0
 11
9.540395631333698
 21
56.69567051617576
 31
0.0
  0
SPLINE
  5
157A
330
1571
100
AcDbEntity
  8
0
100
AcDbSpline
210
0.0
220
0.0
230
1.0
 70
     8
 71
     3
 72
    20
 73
    16
 74
     0
 42
0.000000001
 43
0.0000000001
 40
-1.0
 40
-1.0
 40
-1.0
 40
-1.0
 40
-0.9088430650615059
 40
-0.9088430650615059
 40
-0.9088430650615059
 40
-0.5823514910969569
 40
-0.5823514910969569
 40
-0.5823514910969569
 40
-0.2911757455484784
 40
-0.2911757455484784
 40
-0.2911757455484784
 40
-0.0929891979393971
 40
-0.0929891979393971
 40
-0.0929891979393971
 40
0.0
 40
0.0
 40
0.0
 40
0.0
 10
9.48354928703398
 20
57.01806215511446
 30
0.0
 10
9.381169593258512
 20
57.57958427956639
 30
0.0
 10
9.242772734434606
 20
58.14396964148962
 30
0.0
 10
9.075441588596273
 20
58.65029855632865
 30
0.0
 10
8.476121205403147
 20
60.46378783677777
 30
0.0
 10
7.529947235270064
 20
61.82576217278678
 30
0.0
 10
6.552968196330138
 20
63.11905892732373
 30
0.0
 10
5.681666690462002
 20
64.2724628027898
 30
0.0
 10
4.797133478937063
 20
65.36239284430762
 30
0.0
 10
4.125019842461213
 20
66.67307671725584
 30
0.0
 10
3.66755082847029
 20
67.5651836861835
 30
0.0
 10
3.313074295069413
 20
68.56096430398392
 30
0.0
 10
3.127679985966596
 20
69.7237637118623
 30
0.0
 10
3.040692910839759
 20
70.2693496035763
 30
0.0
 10
3.002604749032581
 20
70.86258538925857
 30
0.0
 10
2.999999999892111
 20
71.50000000006293
 30
0.0
  0
ELLIPSE
  5
157B
330
1571
100
AcDbEntity
  8
0
100
AcDbEllipse
 10
57.50707895874676
 20
5.999999999999997
 30
0.0
 11
0.0000000000000006
 21
-6.000000000000001
 31
0.0
210
0.0
220
0.0
230
1.0
 40
0.1391731009600662
 41
4.850673826578663
 42
6.283185307179603
  0
LINE
  5
157C
330
1571
100
AcDbEntity
  8
0
100
AcDbLine
 10
57.50707895874676
 20
0.0
 30
0.0
 11
71.49999999999991
 21
0.0
 31
0.0
  0
SPLINE
  5
157D
330
1571
100
AcDbEntity
  8
0
100
AcDbSpline
210
0.0
220
0.0
230
1.0
 70
     8
 71
     3
 72
    20
 73
    16
 74
     0
 42
0.000000001
 43
0.0000000001
 40
-1.0
 40
-1.0
 40
-1.0
 40
-1.0
 40
-0.8557507846688567
 40
-0.8557507846688567
 40
-0.8557507846688567
 40
-0.4725410755545677
 40
-0.4725410755545677
 40
-0.4725410755545677
 40
-0.2262668722283631
 40
-0.2262668722283631
 40
-0.2262668722283631
 40
-0.054508876044864
 40
-0.054508876044864
 40
-0.054508876044864
 40
0.0
 40
0.0
 40
0.0
 40
0.0
 10
71.49999999999993
 20
-0.0000000000000016
 30
0.0
 10
70.51422263202502
 20
-0.0000078262250557
 30
0.0
 10
69.60755482004187
 20
0.1669297411107534
 30
0.0
 10
68.79579103749522
 20
0.4742787332276503
 30
0.0
 10
66.63927488407901
 20
1.290776192817349
 30
0.0
 10
65.09164757619577
 20
2.992237894645621
 30
0.0
 10
63.52662748021164
 20
4.721648724159987
 30
0.0
 10
62.52084900393342
 20
5.83307482880322
 30
0.0
 10
61.51295505185242
 20
6.953174980389732
 30
0.0
 10
60.34589916494748
 20
7.846564790705809
 30
0.0
 10
59.53196421820263
 20
8.469637940707622
 30
0.0
 10
58.62483513656293
 20
8.989941880020447
 30
0.0
 10
57.60015142178392
 20
9.312718229940461
 30
0.0
 10
57.27495923955558
 20
9.415154078279114
 30
0.0
 10
56.93850065069415
 20
9.494468906986767
 30
0.0
 10
56.59507411448342
 20
9.5581334911151
 30
0.0
  0
LINE
  5
157E
330
1571
100
AcDbEntity
  8
0
100
AcDbLine
 10
56.68001173379697
 20
5.172932775050229
 30
0.0
 11
56.59507411444163
 21
9.558133491121637
 31
0.0
  0
SPLINE
  5
157F
330
1571
100
AcDbEntity
  8
0
100
AcDbSpline
210
0.0
220
0.0
230
1.0
 70
     8
 71
     3
 72
    20
 73
    16
 74
     0
 42
0.000000001
 43
0.0000000001
 40
-1.0
 40
-1.0
 40
-1.0
 40
-1.0
 40
-0.8565140843578728
 40
-0.8565140843578728
 40
-0.8565140843578728
 40
-0.5402558541810202
 40
-0.5402558541810202
 40
-0.5402558541810202
 40
-0.2701279270905101
 40
-0.2701279270905101
 40
-0.2701279270905101
 40
-0.0852549168068872
 40
-0.0852549168068872
 40
-0.0852549168068872
 40
0.0
 40
0.0
 40
0.0
 40
0.0
 10
57.01806215511447
 20
9.483549287033994
 30
0.0
 10
57.92230508727768
 20
9.320092462342286
 30
0.0
 10
58.75125606594881
 20
9.072461725050517
 30
0.0
 10
59.49063806023986
 20
8.7639309077492
 30
0.0
 10
61.12031467269805
 20
8.083896147556441
 30
0.0
 10
62.37298809436464
 20
7.123035516938528
 30
0.0
 10
63.61722483988602
 20
6.173960274806749
 30
0.0
 10
64.67997376088511
 20
5.363319781224599
 30
0.0
 10
65.70892477048133
 20
4.579673909802737
 30
0.0
 10
66.95682341169614
 20
3.984753324024867
 30
0.0
 10
67.81087349387414
 20
3.577595275773162
 30
0.0
 10
68.76547766490894
 20
3.265340377921965
 30
0.0
 10
69.85892594191833
 20
3.108560584058999
 30
0.0
 10
70.36317392136137
 20
3.036260964648452
 30
0.0
 10
70.90289999942938
 20
2.999954352938694
 30
0.0
 10
71.5000000000629
 20
2.999999999892062
 30
0.0
  0
LINE
  5
1580
330
1571
100
AcDbEntity
  8
0
100
AcDbLine
 10
56.59507411444164
 20
9.558133491121628
 30
0.0
 11
56.69567051617402
 21
9.540395631334023
 31
0.0
  0
LINE
  5
1581
330
1571
100
AcDbEntity
  8
0
100
AcDbLine
 10
56.72711921707652
 20
9.534850376856681
 30
0.0
 11
57.01806215511449
 21
9.483549287033994
 31
0.0
  0
LINE
  5
1582
330
1571
100
AcDbEntity
  8
0
100
AcDbLine
 10
56.69567051617402
 20
9.540395631334023
 30
0.0
 11
56.72711921707652
 21
9.534850376856681
 31
0.0
  0
LINE
  5
1583
330
1571
100
AcDbEntity
  8
0
100
AcDbLine
 10
0.0
 20
57.50707895874677
 30
0.0
 11
0.0
 21
10.0
 31
0.0
  0
ARC
  5
1584
330
1571
100
AcDbEntity
  8
0
100
AcDbCircle
 10
10.0
 20
10.0
 30
0.0
 40
9.999999999999998
100
AcDbArc
 50
180.0
 51
270.0
  0
LINE
  5
1585
330
1571
100
AcDbEntity
  8
0
100
AcDbLine
 10
10.0
 20
0.0
 30
0.0
 11
57.50707895874676
 21
0.0
 31
0.0
  0
LINE
  5
1586
330
1571
100
AcDbEntity
  8
0
100
AcDbLine
 10
0.0
 20
158.0
 30
0.0
 11
0.0
 21
71.49999999999991
 31
0.0
  0
LINE
  5
1587
330
1571
100
AcDbEntity
  8
0
100
AcDbLine
 10
0.0
 20
165.0
 30
0.0
 11
0.0
 21
158.0
 31
0.0
  0
LINE
  5
1588
330
1571
100
AcDbEntity
  8
0
100
AcDbLine
 10
77.99999999999998
 20
0.0
 30
0.0
 11
85.0
 21
0.0
 31
0.0
  0
LINE
  5
1589
330
1571
100
AcDbEntity
  8
0
100
AcDbLine
 10
3.000000000000001
 20
158.0
 30
0.0
 11
3.000000000000005
 21
165.0
 31
0.0
  0
LINE
  5
158A
330
1571
100
AcDbEntity
  8
0
100
AcDbLine
 10
85.0
 20
2.999999999999997
 30
0.0
 11
77.99999999999998
 21
2.999999999999998
 31
0.0
  0
LINE
  5
158B
330
1571
100
AcDbEntity
  8
0
100
AcDbLine
 10
85.0
 20
0.0
 30
0.0
 11
85.0
 21
2.999999999999997
 31
0.0
  0
LINE
  5
158C
330
1571
100
AcDbEntity
  8
0
100
AcDbLine
 10
0.0
 20
158.0
 30
0.0
 11
3.000000000000001
 21
158.0
 31
0.0
  0
LINE
  5
158D
330
1571
100
AcDbEntity
  8
0
100
AcDbLine
 10
71.49999999999991
 20
0.0
 30
0.0
 11
77.99999999999998
 21
0.0
 31
0.0
  0
LINE
  5
158E
330
1571
100
AcDbEntity
  8
0
100
AcDbLine
 10
71.49999999999991
 20
2.999999999999999
 30
0.0
 11
77.99999999999998
 21
2.999999999999998
 31
0.0
  0
LINE
  5
158F
330
1571
100
AcDbEntity
  8
0
100
AcDbLine
 10
77.99999999999998
 20
2.999999999999998
 30
0.0
 11
77.99999999999998
 21
0.0
 31
0.0
  0
LINE
  5
1590
330
1571
100
AcDbEntity
  8
0
100
AcDbLine
 10
56.59507411444166
 20
9.558133491121633
 30
0.0
 11
26.95234078859373
 21
14.78494715841457
 31
0.0
  0
ARC
  5
1591
330
1571
100
AcDbEntity
  8
0
100
AcDbCircle
 10
29.55706345359767
 20
29.5570634535977
 30
0.0
 40
15.0
100
AcDbArc
 50
190.0
 51
260.0000000000001
  0
LINE
  5
1592
330
1571
100
AcDbEntity
  8
0
100
AcDbLine
 10
14.78494715841456
 20
26.95234078859374
 30
0.0
 11
9.55813349112161
 21
56.59507411444167
 31
0.0
  0
LINE
  5
1593
330
1571
100
AcDbEntity
  8
0
100
AcDbLine
 10
2.999999999999996
 20
71.49999999999993
 30
0.0
 11
3.000000000000001
 21
158.0
 31
0.0
  0
LINE
  5
1594
330
1571
100
AcDbEntity
  8
0
100
AcDbLine
 10
3.000000000000005
 20
165.0
 30
0.0
 11
0.0
 21
165.0
 31
0.0
  0
ENDBLK
  5
1573
330
1571
100
AcDbEntity
  8
0
100
AcDbBlockEnd
  0
BLOCK
  5
1596
330
1595
100
AcDbEntity
  8
0
100
AcDbBlockBegin
  2
AKR165X3-Right
 70
     0
 10
0.0
 20
0.0
 30
0.0
  3
AKR165X3-Right
  1

  0
SPLINE
  5
1598
330
1595
100
AcDbEntity
  8
0
100
AcDbSpline
210
0.0
220
0.0
230
1.0
 70
     8
 71
     3
 72
    14
 73
    10
 74
     0
 42
0.000000001
 43
0.0000000001
 40
-0.9977898711047703
 40
-0.9977898711047703
 40
-0.9977898711047703
 40
-0.9977898711047703
 40
-0.9088430650615059
 40
-0.9088430650615059
 40
-0.9088430650615059
 40
-0.5823514910969569
 40
-0.5823514910969569
 40
-0.5823514910969569
 40
-0.3934879732493273
 40
-0.3934879732493273
 40
-0.3934879732493273
 40
-0.3934879732493273
 10
-9.476039186717624
 20
57.05890918398785
 30
0.0
 10
-9.374441632894013
 20
57.60691755732157
 30
0.0
 10
-9.238715737556216
 20
58.15624574715214
 30
0.0
 10
-9.075441588596273
 20
58.65029855632865
 30
0.0
 10
-8.476121205403147
 20
60.46378783677777
 30
0.0
 10
-7.529947235270064
 20
61.82576217278678
 30
0.0
 10
-6.552968196330138
 20
63.11905892732373
 30
0.0
 10
-5.987821304736463
 20
63.86718412919891
 30
0.0
 10
-5.417107664799374
 20
64.58860507471088
 30
0.0
 10
-4.902403980489252
 20
65.36088304672261
 30
0.0
  0
SPLINE
  5
1599
330
1595
100
AcDbEntity
  8
0
100
AcDbSpline
210
0.0
220
0.0
230
1.0
 70
     8
 71
     3
 72
     8
 73
     4
 74
     0
 42
0.000000001
 43
0.0000000001
 40
-0.0207704457414997
 40
-0.0207704457414997
 40
-0.0207704457414997
 40
-0.0207704457414997
 40
0.0
 40
0.0
 40
0.0
 40
0.0
 10
-3.007205886830699
 20
71.07952456042823
 30
0.0
 10
-3.002933935594831
 20
71.21745310444604
 30
0.0
 10
-3.00058180726212
 20
71.35762447815361
 30
0.0
 10
-2.999999999892111
 20
71.50000000006293
 30
0.0
  0
SPLINE
  5
159A
330
1595
100
AcDbEntity
  8
0
100
AcDbSpline
210
0.0
220
0.0
230
1.0
 70
     8
 71
     3
 72
    20
 73
    16
 74
     0
 42
0.000000001
 43
0.0000000001
 40
-1.0
 40
-1.0
 40
-1.0
 40
-1.0
 40
-0.8565140843578728
 40
-0.8565140843578728
 40
-0.8565140843578728
 40
-0.5402558541810202
 40
-0.5402558541810202
 40
-0.5402558541810202
 40
-0.2701279270905101
 40
-0.2701279270905101
 40
-0.2701279270905101
 40
-0.0852549168068872
 40
-0.0852549168068872
 40
-0.0852549168068872
 40
0.0
 40
0.0
 40
0.0
 40
0.0
 10
-9.483549287034009
 20
57.01806215511448
 30
0.0
 10
-9.320092462342302
 20
57.92230508727769
 30
0.0
 10
-9.072461725050533
 20
58.75125606594882
 30
0.0
 10
-8.763930907749216
 20
59.49063806023987
 30
0.0
 10
-8.083896147556455
 20
61.12031467269805
 30
0.0
 10
-7.123035516938543
 20
62.37298809436466
 30
0.0
 10
-6.173960274806765
 20
63.61722483988604
 30
0.0
 10
-5.363319781224616
 20
64.67997376088513
 30
0.0
 10
-4.579673909802753
 20
65.70892477048134
 30
0.0
 10
-3.984753324024883
 20
66.95682341169614
 30
0.0
 10
-3.577595275773179
 20
67.81087349387416
 30
0.0
 10
-3.265340377921983
 20
68.76547766490896
 30
0.0
 10
-3.108560584059016
 20
69.85892594191833
 30
0.0
 10
-3.036260964648469
 20
70.36317392136138
 30
0.0
 10
-2.99995435293871
 20
70.90289999942939
 30
0.0
 10
-2.999999999892079
 20
71.5000000000629
 30
0.0
  0
ELLIPSE
  5
159B
330
1595
100
AcDbEntity
  8
0
100
AcDbEllipse
 10
-6.000000000000021
 20
57.50707895874676
 30
0.0
 11
6.0
 21
-0.0000000000000095
 31
0.0
210
0.0
220
0.0
230
1.0
 40
0.1391731009600659
 41
4.850673826579152
 42
6.28318530718056
  0
LINE
  5
159C
330
1595
100
AcDbEntity
  8
0
100
AcDbLine
 10
0.0
 20
57.50707895874676
 30
0.0
 11
0.0
 21
71.49999999999993
 31
0.0
  0
SPLINE
  5
159D
330
1595
100
AcDbEntity
  8
0
100
AcDbSpline
210
0.0
220
0.0
230
1.0
 70
     8
 71
     3
 72
    20
 73
    16
 74
     0
 42
0.000000001
 43
0.0000000001
 40
-1.0
 40
-1.0
 40
-1.0
 40
-1.0
 40
-0.8557507846688567
 40
-0.8557507846688567
 40
-0.8557507846688567
 40
-0.4725410755545677
 40
-0.4725410755545677
 40
-0.4725410755545677
 40
-0.2262668722283631
 40
-0.2262668722283631
 40
-0.2262668722283631
 40
-0.054508876044864
 40
-0.054508876044864
 40
-0.054508876044864
 40
0.0
 40
0.0
 40
0.0
 40
0.0
 10
-0.0000000000000157
 20
71.49999999999993
 30
0.0
 10
0.0000078262250385
 20
70.51422263202503
 30
0.0
 10
-0.1669297411107706
 20
69.60755482004188
 30
0.0
 10
-0.4742787332276674
 20
68.79579103749522
 30
0.0
 10
-1.290776192817366
 20
66.63927488407903
 30
0.0
 10
-2.992237894645637
 20
65.09164757619578
 30
0.0
 10
-4.721648724160003
 20
63.52662748021166
 30
0.0
 10
-5.833074828803238
 20
62.52084900393343
 30
0.0
 10
-6.953174980389748
 20
61.51295505185242
 30
0.0
 10
-7.846564790705823
 20
60.34589916494749
 30
0.0
 10
-8.469637940707636
 20
59.53196421820265
 30
0.0
 10
-8.989941880020461
 20
58.62483513656294
 30
0.0
 10
-9.312718229940475
 20
57.60015142178393
 30
0.0
 10
-9.415154078279128
 20
57.27495923955559
 30
0.0
 10
-9.494468906986782
 20
56.93850065069416
 30
0.0
 10
-9.558133491115114
 20
56.59507411448344
 30
0.0
  0
LINE
  5
159E
330
1595
100
AcDbEntity
  8
0
100
AcDbLine
 10
-5.172932775050249
 20
56.68001173379699
 30
0.0
 11
-9.558133491121655
 21
56.59507411444164
 31
0.0
  0
LINE
  5
159F
330
1595
100
AcDbEntity
  8
0
100
AcDbLine
 10
-9.558133491121632
 20
56.59507411444166
 30
0.0
 11
-9.540395631333723
 21
56.69567051617575
 31
0.0
  0
LINE
  5
15A0
330
1595
100
AcDbEntity
  8
0
100
AcDbLine
 10
-9.534850376857015
 20
56.72711921707464
 30
0.0
 11
-9.483549287033998
 21
57.01806215511449
 31
0.0
  0
LINE
  5
15A1
330
1595
100
AcDbEntity
  8
0
100
AcDbLine
 10
-9.540395631333723
 20
56.69567051617575
 30
0.0
 11
-9.534850376857015
 21
56.72711921707464
 31
0.0
  0
ELLIPSE
  5
15A2
330
1595
100
AcDbEntity
  8
0
100
AcDbEllipse
 10
-57.50707895874676
 20
5.999999999999992
 30
0.0
 11
0.0000000000000007
 21
-6.000000000000001
 31
0.0
210
0.0
220
0.0
230
1.0
 40
0.1391731009600658
 41
0.0
 42
1.432511480600928
  0
LINE
  5
15A3
330
1595
100
AcDbEntity
  8
0
100
AcDbLine
 10
-56.59507411444167
 20
9.558133491121628
 30
0.0
 11
-56.68001173379701
 21
5.17293277505022
 31
0.0
  0
SPLINE
  5
15A4
330
1595
100
AcDbEntity
  8
0
100
AcDbSpline
210
0.0
220
0.0
230
1.0
 70
     8
 71
     3
 72
    20
 73
    16
 74
     0
 42
0.000000001
 43
0.0000000001
 40
-1.0
 40
-1.0
 40
-1.0
 40
-1.0
 40
-0.8557507846688567
 40
-0.8557507846688567
 40
-0.8557507846688567
 40
-0.4725410755545677
 40
-0.4725410755545677
 40
-0.4725410755545677
 40
-0.2262668722283631
 40
-0.2262668722283631
 40
-0.2262668722283631
 40
-0.054508876044864
 40
-0.054508876044864
 40
-0.054508876044864
 40
0.0
 40
0.0
 40
0.0
 40
0.0
 10
-71.49999999999995
 20
-0.0000000000000102
 30
0.0
 10
-70.51422263202507
 20
-0.0000078262250643
 30
0.0
 10
-69.60755482004191
 20
0.1669297411107448
 30
0.0
 10
-68.79579103749525
 20
0.4742787332276416
 30
0.0
 10
-66.63927488407906
 20
1.290776192817341
 30
0.0
 10
-65.09164757619581
 20
2.992237894645613
 30
0.0
 10
-63.52662748021168
 20
4.721648724159979
 30
0.0
 10
-62.52084900393346
 20
5.833074828803214
 30
0.0
 10
-61.51295505185245
 20
6.953174980389725
 30
0.0
 10
-60.34589916494752
 20
7.846564790705802
 30
0.0
 10
-59.53196421820266
 20
8.469637940707615
 30
0.0
 10
-58.62483513656297
 20
8.98994188002044
 30
0.0
 10
-57.60015142178396
 20
9.312718229940454
 30
0.0
 10
-57.27495923955562
 20
9.415154078279106
 30
0.0
 10
-56.93850065069419
 20
9.49446890698676
 30
0.0
 10
-56.59507411448346
 20
9.558133491115093
 30
0.0
  0
LINE
  5
15A5
330
1595
100
AcDbEntity
  8
0
100
AcDbLine
 10
-57.50707895874676
 20
0.0
 30
0.0
 11
-71.49999999999995
 21
0.0
 31
0.0
  0
SPLINE
  5
15A6
330
1595
100
AcDbEntity
  8
0
100
AcDbSpline
210
0.0
220
0.0
230
1.0
 70
     8
 71
     3
 72
    20
 73
    16
 74
     0
 42
0.000000001
 43
0.0000000001
 40
-1.0
 40
-1.0
 40
-1.0
 40
-1.0
 40
-0.8565140843578728
 40
-0.8565140843578728
 40
-0.8565140843578728
 40
-0.5402558541810202
 40
-0.5402558541810202
 40
-0.5402558541810202
 40
-0.2701279270905101
 40
-0.2701279270905101
 40
-0.2701279270905101
 40
-0.0852549168068872
 40
-0.0852549168068872
 40
-0.0852549168068872
 40
0.0
 40
0.0
 40
0.0
 40
0.0
 10
-57.0180621551145
 20
9.483549287033989
 30
0.0
 10
-57.92230508727771
 20
9.32009246234228
 30
0.0
 10
-58.75125606594885
 20
9.072461725050512
 30
0.0
 10
-59.4906380602399
 20
8.763930907749195
 30
0.0
 10
-61.12031467269808
 20
8.083896147556433
 30
0.0
 10
-62.37298809436468
 20
7.123035516938521
 30
0.0
 10
-63.61722483988606
 20
6.173960274806741
 30
0.0
 10
-64.67997376088516
 20
5.363319781224591
 30
0.0
 10
-65.70892477048136
 20
4.579673909802729
 30
0.0
 10
-66.95682341169618
 20
3.984753324024859
 30
0.0
 10
-67.81087349387418
 20
3.577595275773153
 30
0.0
 10
-68.76547766490898
 20
3.265340377921956
 30
0.0
 10
-69.85892594191835
 20
3.10856058405899
 30
0.0
 10
-70.36317392136139
 20
3.036260964648444
 30
0.0
 10
-70.90289999942942
 20
2.999954352938685
 30
0.0
 10
-71.50000000006293
 20
2.999999999892053
 30
0.0
  0
LINE
  5
15A7
330
1595
100
AcDbEntity
  8
0
100
AcDbLine
 10
-56.69567051617406
 20
9.540395631334018
 30
0.0
 11
-56.59507411444168
 21
9.558133491121623
 31
0.0
  0
LINE
  5
15A8
330
1595
100
AcDbEntity
  8
0
100
AcDbLine
 10
-56.72711921707655
 20
9.534850376856677
 30
0.0
 11
-56.69567051617406
 21
9.540395631334018
 31
0.0
  0
LINE
  5
15A9
330
1595
100
AcDbEntity
  8
0
100
AcDbLine
 10
-57.01806215511453
 20
9.483549287033991
 30
0.0
 11
-56.72711921707655
 21
9.534850376856677
 31
0.0
  0
LINE
  5
15AA
330
1595
100
AcDbEntity
  8
0
100
AcDbLine
 10
0.0
 20
9.999999999999996
 30
0.0
 11
0.0
 21
57.50707895874677
 31
0.0
  0
ARC
  5
15AB
330
1595
100
AcDbEntity
  8
0
100
AcDbCircle
 10
-10.00000000000001
 20
9.999999999999996
 30
0.0
 40
10.0
100
AcDbArc
 50
270.0
 51
0.0
  0
LINE
  5
15AC
330
1595
100
AcDbEntity
  8
0
100
AcDbLine
 10
-57.50707895874676
 20
0.0
 30
0.0
 11
-10.00000000000001
 21
0.0
 31
0.0
  0
LINE
  5
15AD
330
1595
100
AcDbEntity
  8
0
100
AcDbLine
 10
0.0
 20
158.0
 30
0.0
 11
0.0
 21
165.0
 31
0.0
  0
LINE
  5
15AE
330
1595
100
AcDbEntity
  8
0
100
AcDbLine
 10
-85.0
 20
0.0
 30
0.0
 11
-78.00000000000003
 21
0.0
 31
0.0
  0
LINE
  5
15AF
330
1595
100
AcDbEntity
  8
0
100
AcDbLine
 10
-3.000000000000027
 20
165.0
 30
0.0
 11
-3.00000000000003
 21
158.0
 31
0.0
  0
LINE
  5
15B0
330
1595
100
AcDbEntity
  8
0
100
AcDbLine
 10
-78.00000000000003
 20
2.999999999999989
 30
0.0
 11
-85.0
 21
2.99999999999999
 31
0.0
  0
LINE
  5
15B1
330
1595
100
AcDbEntity
  8
0
100
AcDbLine
 10
-85.0
 20
2.99999999999999
 30
0.0
 11
-85.0
 21
0.0
 31
0.0
  0
LINE
  5
15B2
330
1595
100
AcDbEntity
  8
0
100
AcDbLine
 10
-3.00000000000003
 20
158.0
 30
0.0
 11
0.0
 21
158.0
 31
0.0
  0
LINE
  5
15B3
330
1595
100
AcDbEntity
  8
0
100
AcDbLine
 10
0.0
 20
71.49999999999991
 30
0.0
 11
0.0
 21
158.0
 31
0.0
  0
LINE
  5
15B4
330
1595
100
AcDbEntity
  8
0
100
AcDbLine
 10
-78.00000000000003
 20
0.0
 30
0.0
 11
-71.49999999999995
 21
0.0
 31
0.0
  0
LINE
  5
15B5
330
1595
100
AcDbEntity
  8
0
100
AcDbLine
 10
-78.00000000000003
 20
2.999999999999989
 30
0.0
 11
-71.49999999999995
 21
2.99999999999999
 31
0.0
  0
LINE
  5
15B6
330
1595
100
AcDbEntity
  8
0
100
AcDbLine
 10
-78.00000000000003
 20
0.0
 30
0.0
 11
-78.00000000000003
 21
2.999999999999989
 31
0.0
  0
LINE
  5
15B7
330
1595
100
AcDbEntity
  8
0
100
AcDbLine
 10
-3.000000000000024
 20
71.49999999999991
 30
0.0
 11
-3.00000000000003
 21
158.0
 31
0.0
  0
LINE
  5
15B8
330
1595
100
AcDbEntity
  8
0
100
AcDbLine
 10
-26.95234078859375
 20
14.78494715841456
 30
0.0
 11
-56.59507411444167
 21
9.558133491121624
 31
0.0
  0
LINE
  5
15B9
330
1595
100
AcDbEntity
  8
0
100
AcDbLine
 10
-9.55813349112163
 20
56.59507411444167
 30
0.0
 11
-14.78494715841457
 21
26.95234078859373
 31
0.0
  0
ARC
  5
15BA
330
1595
100
AcDbEntity
  8
0
100
AcDbCircle
 10
-29.55706345359769
 20
29.55706345359769
 30
0.0
 40
15.0
100
AcDbArc
 50
280.0
 51
350.0
  0
LINE
  5
15BB
330
1595
100
AcDbEntity
  8
0
100
AcDbLine
 10
0.0
 20
165.0
 30
0.0
 11
-3.000000000000027
 21
165.0
 31
0.0
  0
ENDBLK
  5
1597
330
1595
100
AcDbEntity
  8
0
100
AcDbBlockEnd
  0
BLOCK
  5
15BD
330
15BC
100
AcDbEntity
  8
0
100
AcDbBlockBegin
  2
AKR165X3-Top
 70
     0
 10
0.0
 20
0.0
 30
0.0
  3
AKR165X3-Top
  1

  0
CIRCLE
  5
15BF
330
15BC
100
AcDbEntity
  8
0
100
AcDbCircle
 10
-0.0000000000000105
 20
-25.00000000000001
 30
0.0
 40
6.749999999999996
  0
CIRCLE
  5
15C0
330
15BC
100
AcDbEntity
  8
0
100
AcDbCircle
 10
-0.0000000000000283
 20
-65.00000000000001
 30
0.0
 40
5.5
  0
CIRCLE
  5
15C1
330
15BC
100
AcDbEntity
  8
0
100
AcDbCircle
 10
-22.50000000000003
 20
-74.99999999999999
 30
0.0
 40
2.6
  0
CIRCLE
  5
15C2
330
15BC
100
AcDbEntity
  8
0
100
AcDbCircle
 10
22.49999999999996
 20
-75.00000000000003
 30
0.0
 40
2.6
  0
LINE
  5
15C3
330
15BC
100
AcDbEntity
  8
0
100
AcDbLine
 10
19.40049474616514
 20
-26.95234078859375
 30
0.0
 11
22.88089344101218
 21
-57.01806215511452
 31
0.0
  0
ELLIPSE
  5
15C4
330
15BC
100
AcDbEntity
  8
0
100
AcDbEllipse
 10
21.84265019811887
 20
-29.55706345359769
 30
0.0
 11
2.149316260459895
 21
-14.99707715516453
 31
0.0
210
0.0
220
0.0
230
0.9999999999999998
 40
0.1377659927417796
 41
3.296384117292443
 42
4.518114593693587
  0
LINE
  5
15C5
330
15BC
100
AcDbEntity
  8
0
100
AcDbLine
 10
22.88089344101217
 20
-9.483549287034
 30
0.0
 11
19.40049474616513
 21
-14.78494715841457
 31
0.0
  0
LINE
  5
15C6
330
15BC
100
AcDbEntity
  8
0
100
AcDbLine
 10
-19.40049474616515
 20
-14.78494715841456
 30
0.0
 11
-22.88089344101218
 21
-9.483549287033977
 31
0.0
  0
ELLIPSE
  5
15C7
330
15BC
100
AcDbEntity
  8
0
100
AcDbEllipse
 10
-21.84265019811889
 20
-29.55706345359767
 30
0.0
 11
2.149316260459694
 21
14.99707715516456
 31
0.0
210
0.0
220
0.0
230
1.0
 40
0.1377659927417793
 41
4.906663367072857
 42
6.128393843468884
  0
LINE
  5
15C8
330
15BC
100
AcDbEntity
  8
0
100
AcDbLine
 10
-22.88089344101225
 20
-57.01806215511449
 30
0.0
 11
-19.40049474616517
 21
-26.95234078859373
 31
0.0
  0
LINE
  5
15C9
330
15BC
100
AcDbEntity
  8
0
100
AcDbLine
 10
-25.50000000000003
 20
-85.0
 30
0.0
 11
25.49999999999996
 21
-85.0
 31
0.0
  0
SPLINE
  5
15CA
330
15BC
100
AcDbEntity
  8
0
100
AcDbSpline
210
0.0
220
0.0
230
1.0
 70
     8
 71
     3
 72
    14
 73
    10
 74
     0
 42
0.000000001
 43
0.0000000001
 40
-0.432864367170001
 40
-0.432864367170001
 40
-0.432864367170001
 40
-0.432864367170001
 40
-0.2262668722283631
 40
-0.2262668722283631
 40
-0.2262668722283631
 40
-0.054508876044864
 40
-0.054508876044864
 40
-0.054508876044864
 40
0.0
 40
0.0
 40
0.0
 40
0.0
 10
-28.84763067519017
 20
-5.258518271075258
 30
0.0
 10
-28.20313734938863
 20
-6.188104257285447
 30
0.0
 10
-27.57270236480518
 20
-7.097107095483008
 30
0.0
 10
-27.05454655899466
 20
-7.846564790705801
 30
0.0
 10
-26.6237697824321
 20
-8.469637940707615
 30
0.0
 10
-26.26601864944478
 20
-8.98994188002044
 30
0.0
 10
-26.05086466151857
 20
-9.312718229940454
 30
0.0
 10
-25.98258369458239
 20
-9.415154078279105
 30
0.0
 10
-25.93039957561445
 20
-9.494468906986758
 30
0.0
 10
-25.89060973843285
 20
-9.558133491115091
 30
0.0
  0
LINE
  5
15CB
330
15BC
100
AcDbEntity
  8
0
100
AcDbLine
 10
-25.17482914746681
 20
-9.540395631333696
 30
0.0
 11
-25.89060973854643
 21
-9.558133491121607
 31
0.0
  0
LINE
  5
15CC
330
15BC
100
AcDbEntity
  8
0
100
AcDbLine
 10
-22.88089344101222
 20
-9.483549287033973
 30
0.0
 11
-25.17482914746681
 21
-9.540395631333696
 31
0.0
  0
SPLINE
  5
15CD
330
15BC
100
AcDbEntity
  8
0
100
AcDbSpline
210
0.0
220
0.0
230
1.0
 70
     8
 71
     3
 72
    20
 73
    16
 74
     0
 42
0.000000001
 43
0.0000000001
 40
-1.0
 40
-1.0
 40
-1.0
 40
-1.0
 40
-0.9088430650615059
 40
-0.9088430650615059
 40
-0.9088430650615059
 40
-0.5823514910969569
 40
-0.5823514910969569
 40
-0.5823514910969569
 40
-0.2911757455484784
 40
-0.2911757455484784
 40
-0.2911757455484784
 40
-0.0929891979393971
 40
-0.0929891979393971
 40
-0.0929891979393971
 40
0.0
 40
0.0
 40
0.0
 40
0.0
 10
-22.8808934410122
 20
-9.48354928703398
 30
0.0
 10
-22.95109662338786
 20
-9.381169593258512
 30
0.0
 10
-23.07530094603553
 20
-9.242772734434606
 30
0.0
 10
-23.26467875113499
 20
-9.075441588596273
 30
0.0
 10
-23.94296239134947
 20
-8.476121205403147
 30
0.0
 10
-25.33818934917151
 20
-7.529947235270064
 30
0.0
 10
-26.83234240728302
 20
-6.552968196330138
 30
0.0
 10
-28.16487643067683
 20
-5.681666690462002
 30
0.0
 10
-29.57344291861566
 20
-4.797133478937063
 30
0.0
 10
-30.66060035164473
 20
-4.125019842461213
 30
0.0
 10
-31.4005657562279
 20
-3.66755082847029
 30
0.0
 10
-31.98637480265191
 20
-3.313074295069412
 30
0.0
 10
-32.28446159129545
 20
-3.127679985966596
 30
0.0
 10
-32.42432401751303
 20
-3.040692910839759
 30
0.0
 10
-32.49448814716041
 20
-3.002604749032581
 30
0.0
 10
-32.50000000000144
 20
-2.999999999892111
 30
0.0
  0
LINE
  5
15CE
330
15BC
100
AcDbEntity
  8
0
100
AcDbLine
 10
-22.34380262810205
 20
-5.586466387525113
 30
0.0
 11
-22.88089344101218
 21
-9.483549287034001
 31
0.0
  0
ELLIPSE
  5
15CF
330
15BC
100
AcDbEntity
  8
0
100
AcDbEllipse
 10
-19.40135808271008
 20
-6.0
 30
0.0
 11
-0.0000000000000437
 21
3.0
 31
0.0
210
0.0
220
0.0
230
1.0
 40
0.9902680687415703
 41
0.0000000000000002
 42
1.432511480600914
  0
SPLINE
  5
15D0
330
15BC
100
AcDbEntity
  8
0
100
AcDbSpline
210
0.0
220
0.0
230
1.0
 70
     8
 71
     3
 72
    20
 73
    16
 74
     0
 42
0.000000001
 43
0.0000000001
 40
-1.0
 40
-1.0
 40
-1.0
 40
-1.0
 40
-0.8565140843578728
 40
-0.8565140843578728
 40
-0.8565140843578728
 40
-0.5402558541810202
 40
-0.5402558541810202
 40
-0.5402558541810202
 40
-0.2701279270905101
 40
-0.2701279270905101
 40
-0.2701279270905101
 40
-0.0852549168068872
 40
-0.0852549168068872
 40
-0.0852549168068872
 40
0.0
 40
0.0
 40
0.0
 40
0.0
 10
22.88089344101222
 20
-9.483549287034009
 30
0.0
 10
22.98563906630185
 20
-9.320092462342302
 30
0.0
 10
23.25108945202819
 20
-9.072461725050533
 30
0.0
 10
23.64500443042325
 20
-8.763930907749216
 30
0.0
 10
24.51323496963585
 20
-8.083896147556455
 30
0.0
 10
25.9470948515656
 20
-7.123035516938543
 30
0.0
 10
27.41482735378632
 20
-6.173960274806765
 30
0.0
 10
28.66847232020044
 20
-5.363319781224616
 30
0.0
 10
29.92402793119322
 20
-4.579673909802753
 30
0.0
 10
30.88879741846614
 20
-3.984753324024883
 30
0.0
 10
31.54907657309856
 20
-3.577595275773179
 30
0.0
 10
32.05964361545371
 20
-3.265340377921982
 30
0.0
 10
32.31762450953997
 20
-3.108560584059016
 30
0.0
 10
32.43659341489478
 20
-3.036260964648469
 30
0.0
 10
32.49484871723281
 20
-2.99995435293871
 30
0.0
 10
32.50000000000147
 20
-2.999999999892079
 30
0.0
  0
ELLIPSE
  5
15D1
330
15BC
100
AcDbEntity
  8
0
100
AcDbEllipse
 10
19.40135808271007
 20
-6.000000000000018
 30
0.0
 11
0.0000000000000025
 21
3.000000000000001
 31
0.0
210
0.0
220
0.0
230
1.0
 40
0.9902680687415704
 41
4.850673826578657
 42
6.283185307179568
  0
LINE
  5
15D2
330
15BC
100
AcDbEntity
  8
0
100
AcDbLine
 10
22.88089344101218
 20
-9.483549287034021
 30
0.0
 11
22.34380262810204
 21
-5.586466387525131
 31
0.0
  0
SPLINE
  5
15D3
330
15BC
100
AcDbEntity
  8
0
100
AcDbSpline
210
0.0
220
0.0
230
1.0
 70
     8
 71
     3
 72
    14
 73
    10
 74
     0
 42
0.000000001
 43
0.0000000001
 40
-0.4328643671700013
 40
-0.4328643671700013
 40
-0.4328643671700013
 40
-0.4328643671700013
 40
-0.2262668722283631
 40
-0.2262668722283631
 40
-0.2262668722283631
 40
-0.054508876044864
 40
-0.054508876044864
 40
-0.054508876044864
 40
0.0
 40
0.0
 40
0.0
 40
0.0
 10
28.84763067519019
 20
-5.258518271075281
 30
0.0
 10
28.20313734938865
 20
-6.188104257285472
 30
0.0
 10
27.57270236480521
 20
-7.097107095483032
 30
0.0
 10
27.05454655899468
 20
-7.846564790705823
 30
0.0
 10
26.62376978243211
 20
-8.469637940707636
 30
0.0
 10
26.2660186494448
 20
-8.989941880020461
 30
0.0
 10
26.05086466151857
 20
-9.312718229940475
 30
0.0
 10
25.9825836945824
 20
-9.415154078279128
 30
0.0
 10
25.93039957561446
 20
-9.494468906986782
 30
0.0
 10
25.89060973843286
 20
-9.558133491115114
 30
0.0
  0
LINE
  5
15D4
330
15BC
100
AcDbEntity
  8
0
100
AcDbLine
 10
25.89060973854643
 20
-9.55813349112163
 30
0.0
 11
25.17482914746681
 21
-9.540395631333721
 31
0.0
  0
LINE
  5
15D5
330
15BC
100
AcDbEntity
  8
0
100
AcDbLine
 10
24.95106001328249
 20
-9.534850376857015
 30
0.0
 11
22.88089344101223
 21
-9.483549287033998
 31
0.0
  0
LINE
  5
15D6
330
15BC
100
AcDbEntity
  8
0
100
AcDbLine
 10
25.17482914746681
 20
-9.540395631333721
 30
0.0
 11
24.95106001328249
 21
-9.534850376857015
 31
0.0
  0
SPLINE
  5
15D7
330
15BC
100
AcDbEntity
  8
0
100
AcDbSpline
210
0.0
220
0.0
230
1.0
 70
     8
 71
     3
 72
    20
 73
    16
 74
     0
 42
0.000000001
 43
0.0000000001
 40
-1.0
 40
-1.0
 40
-1.0
 40
-1.0
 40
-0.8557507846688567
 40
-0.8557507846688567
 40
-0.8557507846688567
 40
-0.4725410755545677
 40
-0.4725410755545677
 40
-0.4725410755545677
 40
-0.2262668722283631
 40
-0.2262668722283631
 40
-0.2262668722283631
 40
-0.054508876044864
 40
-0.054508876044864
 40
-0.054508876044864
 40
0.0
 40
0.0
 40
0.0
 40
0.0
 10
32.5
 20
-71.49999999999995
 30
0.0
 10
32.49596368058162
 20
-70.51422263202507
 30
0.0
 10
32.37910965910495
 20
-69.60755482004191
 30
0.0
 10
32.16692343470403
 20
-68.79579103749525
 30
0.0
 10
31.60323356544497
 20
-66.63927488407906
 30
0.0
 10
30.41855420422014
 20
-65.09164757619581
 30
0.0
 10
29.21981211984212
 20
-63.52662748021168
 30
0.0
 10
28.44942649337631
 20
-62.52084900393346
 30
0.0
 10
27.67221333327417
 20
-61.51295505185245
 30
0.0
 10
27.05454655899464
 20
-60.34589916494752
 30
0.0
 10
26.62376978243208
 20
-59.53196421820266
 30
0.0
 10
26.26601864944476
 20
-58.62483513656297
 30
0.0
 10
26.05086466151854
 20
-57.60015142178396
 30
0.0
 10
25.98258369458237
 20
-57.27495923955562
 30
0.0
 10
25.93039957561443
 20
-56.93850065069419
 30
0.0
 10
25.89060973843283
 20
-56.59507411448346
 30
0.0
  0
SPLINE
  5
15D8
330
15BC
100
AcDbEntity
  8
0
100
AcDbSpline
210
0.0
220
0.0
230
1.0
 70
     8
 71
     3
 72
    20
 73
    16
 74
     0
 42
0.000000001
 43
0.0000000001
 40
-1.0
 40
-1.0
 40
-1.0
 40
-1.0
 40
-0.8565140843578728
 40
-0.8565140843578728
 40
-0.8565140843578728
 40
-0.5402558541810202
 40
-0.5402558541810202
 40
-0.5402558541810202
 40
-0.2701279270905101
 40
-0.2701279270905101
 40
-0.2701279270905101
 40
-0.0852549168068872
 40
-0.0852549168068872
 40
-0.0852549168068872
 40
0.0
 40
0.0
 40
0.0
 40
0.0
 10
22.88089344101219
 20
-57.0180621551145
 30
0.0
 10
22.98563906630182
 20
-57.92230508727771
 30
0.0
 10
23.25108945202816
 20
-58.75125606594885
 30
0.0
 10
23.64500443042322
 20
-59.4906380602399
 30
0.0
 10
24.51323496963581
 20
-61.12031467269808
 30
0.0
 10
25.94709485156557
 20
-62.37298809436468
 30
0.0
 10
27.41482735378629
 20
-63.61722483988606
 30
0.0
 10
28.6684723202004
 20
-64.67997376088516
 30
0.0
 10
29.92402793119318
 20
-65.70892477048136
 30
0.0
 10
30.88879741846611
 20
-66.95682341169618
 30
0.0
 10
31.54907657309853
 20
-67.81087349387418
 30
0.0
 10
32.05964361545368
 20
-68.76547766490898
 30
0.0
 10
32.31762450953993
 20
-69.85892594191835
 30
0.0
 10
32.43659341489473
 20
-70.36317392136139
 30
0.0
 10
32.49484871723276
 20
-70.90289999942942
 30
0.0
 10
32.50000000000143
 20
-71.50000000006293
 30
0.0
  0
LINE
  5
15D9
330
15BC
100
AcDbEntity
  8
0
100
AcDbLine
 10
22.34380262810205
 20
-57.09354534627191
 30
0.0
 11
22.88089344101219
 21
-57.01806215511453
 31
0.0
  0
LINE
  5
15DA
330
15BC
100
AcDbEntity
  8
0
100
AcDbLine
 10
19.4013580827101
 20
-57.50707895874676
 30
0.0
 11
22.34380262810205
 21
-57.09354534627188
 31
0.0
  0
SPLINE
  5
15DB
330
15BC
100
AcDbEntity
  8
0
100
AcDbSpline
210
0.0
220
0.0
230
1.0
 70
     8
 71
     2
 72
     6
 73
     3
 74
     0
 42
0.000000001
 43
0.0000000001
 40
0.0
 40
0.0
 40
0.0
 40
1.0
 40
1.0
 40
1.0
 10
19.4013580827101
 20
-57.50707895874676
 30
0.0
 10
20.85646379032759
 20
-67.86069405359667
 30
0.0
 10
32.49999999999996
 20
-71.49999999999995
 30
0.0
  0
LINE
  5
15DC
330
15BC
100
AcDbEntity
  8
0
100
AcDbLine
 10
25.17482914747904
 20
-56.69567051617406
 30
0.0
 11
25.89060973854639
 21
-56.59507411444168
 31
0.0
  0
LINE
  5
15DD
330
15BC
100
AcDbEntity
  8
0
100
AcDbLine
 10
24.95106001326911
 20
-56.72711921707655
 30
0.0
 11
25.17482914747904
 21
-56.69567051617406
 31
0.0
  0
LINE
  5
15DE
330
15BC
100
AcDbEntity
  8
0
100
AcDbLine
 10
22.8808934410122
 20
-57.01806215511453
 30
0.0
 11
24.95106001326911
 21
-56.72711921707655
 31
0.0
  0
SPLINE
  5
15DF
330
15BC
100
AcDbEntity
  8
0
100
AcDbSpline
210
0.0
220
0.0
230
1.0
 70
     8
 71
     3
 72
    20
 73
    16
 74
     0
 42
0.000000001
 43
0.0000000001
 40
-1.0
 40
-1.0
 40
-1.0
 40
-1.0
 40
-0.8557507846688567
 40
-0.8557507846688567
 40
-0.8557507846688567
 40
-0.4725410755545677
 40
-0.4725410755545677
 40
-0.4725410755545677
 40
-0.2262668722283631
 40
-0.2262668722283631
 40
-0.2262668722283631
 40
-0.054508876044864
 40
-0.054508876044864
 40
-0.054508876044864
 40
0.0
 40
0.0
 40
0.0
 40
0.0
 10
-32.50000000000007
 20
-71.49999999999993
 30
0.0
 10
-32.4959636805817
 20
-70.51422263202502
 30
0.0
 10
-32.37910965910501
 20
-69.60755482004187
 30
0.0
 10
-32.16692343470409
 20
-68.79579103749522
 30
0.0
 10
-31.60323356544503
 20
-66.63927488407901
 30
0.0
 10
-30.41855420422019
 20
-65.09164757619577
 30
0.0
 10
-29.21981211984217
 20
-63.52662748021164
 30
0.0
 10
-28.44942649337636
 20
-62.52084900393342
 30
0.0
 10
-27.67221333327423
 20
-61.51295505185242
 30
0.0
 10
-27.0545465589947
 20
-60.34589916494748
 30
0.0
 10
-26.62376978243213
 20
-59.53196421820263
 30
0.0
 10
-26.26601864944481
 20
-58.62483513656293
 30
0.0
 10
-26.0508646615186
 20
-57.60015142178392
 30
0.0
 10
-25.98258369458243
 20
-57.27495923955558
 30
0.0
 10
-25.93039957561448
 20
-56.93850065069415
 30
0.0
 10
-25.89060973843289
 20
-56.59507411448342
 30
0.0
  0
SPLINE
  5
15E0
330
15BC
100
AcDbEntity
  8
0
100
AcDbSpline
210
0.0
220
0.0
230
1.0
 70
     8
 71
     3
 72
    20
 73
    16
 74
     0
 42
0.000000001
 43
0.0000000001
 40
-1.0
 40
-1.0
 40
-1.0
 40
-1.0
 40
-0.8565140843578728
 40
-0.8565140843578728
 40
-0.8565140843578728
 40
-0.5402558541810202
 40
-0.5402558541810202
 40
-0.5402558541810202
 40
-0.2701279270905101
 40
-0.2701279270905101
 40
-0.2701279270905101
 40
-0.0852549168068872
 40
-0.0852549168068872
 40
-0.0852549168068872
 40
0.0
 40
0.0
 40
0.0
 40
0.0
 10
-22.88089344101224
 20
-57.01806215511447
 30
0.0
 10
-22.98563906630187
 20
-57.92230508727768
 30
0.0
 10
-23.25108945202821
 20
-58.75125606594881
 30
0.0
 10
-23.64500443042328
 20
-59.49063806023986
 30
0.0
 10
-24.51323496963586
 20
-61.12031467269805
 30
0.0
 10
-25.94709485156562
 20
-62.37298809436464
 30
0.0
 10
-27.41482735378634
 20
-63.61722483988602
 30
0.0
 10
-28.66847232020046
 20
-64.67997376088511
 30
0.0
 10
-29.92402793119324
 20
-65.70892477048133
 30
0.0
 10
-30.88879741846616
 20
-66.95682341169614
 30
0.0
 10
-31.54907657309858
 20
-67.81087349387414
 30
0.0
 10
-32.05964361545373
 20
-68.76547766490894
 30
0.0
 10
-32.31762450953999
 20
-69.85892594191833
 30
0.0
 10
-32.4365934148948
 20
-70.36317392136137
 30
0.0
 10
-32.49484871723284
 20
-70.90289999942938
 30
0.0
 10
-32.5000000000015
 20
-71.5000000000629
 30
0.0
  0
SPLINE
  5
15E1
330
15BC
100
AcDbEntity
  8
0
100
AcDbSpline
210
0.0
220
0.0
230
1.0
 70
     8
 71
     2
 72
     6
 73
     3
 74
     0
 42
0.000000001
 43
0.0000000001
 40
0.0
 40
0.0
 40
0.0
 40
1.0
 40
1.0
 40
1.0
 10
-19.40135808271015
 20
-57.50707895874676
 30
0.0
 10
-20.85646379032764
 20
-67.86069405359665
 30
0.0
 10
-32.50000000000003
 20
-71.49999999999991
 30
0.0
  0
LINE
  5
15E2
330
15BC
100
AcDbEntity
  8
0
100
AcDbLine
 10
-22.34380262810212
 20
-57.09354534627188
 30
0.0
 11
-19.40135808271015
 21
-57.50707895874676
 31
0.0
  0
LINE
  5
15E3
330
15BC
100
AcDbEntity
  8
0
100
AcDbLine
 10
-22.88089344101225
 20
-57.01806215511448
 30
0.0
 11
-22.34380262810212
 21
-57.09354534627187
 31
0.0
  0
LINE
  5
15E4
330
15BC
100
AcDbEntity
  8
0
100
AcDbLine
 10
-25.89060973854645
 20
-56.59507411444164
 30
0.0
 11
-25.1748291474791
 21
-56.69567051617402
 31
0.0
  0
LINE
  5
15E5
330
15BC
100
AcDbEntity
  8
0
100
AcDbLine
 10
-24.95106001326917
 20
-56.72711921707652
 30
0.0
 11
-22.88089344101225
 21
-57.01806215511449
 31
0.0
  0
LINE
  5
15E6
330
15BC
100
AcDbEntity
  8
0
100
AcDbLine
 10
-25.1748291474791
 20
-56.69567051617402
 30
0.0
 11
-24.95106001326917
 21
-56.72711921707652
 31
0.0
  0
LINE
  5
15E7
330
15BC
100
AcDbEntity
  8
0
100
AcDbLine
 10
-25.49999999999998
 20
0.0
 30
0.0
 11
-32.49999999999999
 21
0.0
 31
0.0
  0
LINE
  5
15E8
330
15BC
100
AcDbEntity
  8
0
100
AcDbLine
 10
32.50000000000002
 20
0.0
 30
0.0
 11
25.50000000000002
 21
0.0
 31
0.0
  0
LINE
  5
15E9
330
15BC
100
AcDbEntity
  8
0
100
AcDbLine
 10
25.50000000000002
 20
-3.000000000000027
 30
0.0
 11
32.50000000000002
 21
-3.000000000000029
 31
0.0
  0
LINE
  5
15EA
330
15BC
100
AcDbEntity
  8
0
100
AcDbLine
 10
-32.49999999999999
 20
-3.0
 30
0.0
 11
-25.49999999999998
 21
-3.000000000000004
 31
0.0
  0
LINE
  5
15EB
330
15BC
100
AcDbEntity
  8
0
100
AcDbLine
 10
-25.50000000000003
 20
-85.0
 30
0.0
 11
-32.50000000000003
 21
-77.99999999999998
 31
0.0
  0
LINE
  5
15EC
330
15BC
100
AcDbEntity
  8
0
100
AcDbLine
 10
32.49999999999996
 20
-78.00000000000003
 30
0.0
 11
25.49999999999996
 21
-85.0
 31
0.0
  0
LINE
  5
15ED
330
15BC
100
AcDbEntity
  8
0
100
AcDbLine
 10
32.50000000000002
 20
-3.000000000000029
 30
0.0
 11
32.50000000000002
 21
0.0
 31
0.0
  0
LINE
  5
15EE
330
15BC
100
AcDbEntity
  8
0
100
AcDbLine
 10
-32.49999999999999
 20
0.0
 30
0.0
 11
-32.49999999999999
 21
-3.0
 31
0.0
  0
LINE
  5
15EF
330
15BC
100
AcDbEntity
  8
0
100
AcDbLine
 10
25.50000000000002
 20
0.0
 30
0.0
 11
-25.49999999999998
 21
0.0
 31
0.0
  0
LINE
  5
15F0
330
15BC
100
AcDbEntity
  8
0
100
AcDbLine
 10
25.50000000000002
 20
-3.000000000000027
 30
0.0
 11
-25.49999999999998
 21
-3.000000000000004
 31
0.0
  0
LINE
  5
15F1
330
15BC
100
AcDbEntity
  8
0
100
AcDbLine
 10
25.50000000000002
 20
0.0
 30
0.0
 11
25.50000000000002
 21
-3.000000000000027
 31
0.0
  0
LINE
  5
15F2
330
15BC
100
AcDbEntity
  8
0
100
AcDbLine
 10
-25.49999999999998
 20
-3.000000000000004
 30
0.0
 11
-25.49999999999998
 21
0.0
 31
0.0
  0
LINE
  5
15F3
330
15BC
100
AcDbEntity
  8
0
100
AcDbLine
 10
-25.89060973854646
 20
-56.59507411444166
 30
0.0
 11
-22.45917600970657
 21
-26.95234078859373
 31
0.0
  0
ELLIPSE
  5
15F4
330
15BC
100
AcDbEntity
  8
0
100
AcDbEllipse
 10
-24.90133146166029
 20
-29.55706345359767
 30
0.0
 11
2.149316260459694
 21
14.99707715516456
 31
0.0
210
0.0
220
0.0
230
1.0
 40
0.1377659927417793
 41
4.906663367072857
 42
6.128393843468884
  0
LINE
  5
15F5
330
15BC
100
AcDbEntity
  8
0
100
AcDbLine
 10
-22.45917600970655
 20
-14.78494715841456
 30
0.0
 11
-25.89060973854638
 21
-9.558133491121608
 31
0.0
  0
LINE
  5
15F6
330
15BC
100
AcDbEntity
  8
0
100
AcDbLine
 10
13.14629605568256
 20
-13.00000000000001
 30
0.0
 11
19.40135808271008
 21
-57.50707895874676
 31
0.0
  0
LINE
  5
15F7
330
15BC
100
AcDbEntity
  8
0
100
AcDbLine
 10
-19.40135808271015
 20
-57.50707895874676
 30
0.0
 11
-13.14629605568258
 21
-13.0
 31
0.0
  0
ELLIPSE
  5
15F8
330
15BC
100
AcDbEntity
  8
0
100
AcDbEllipse
 10
14.13008189859931
 20
-13.00000000000001
 30
0.0
 11
0.9932598611246566
 21
-9.999531768717286
 31
0.0
210
0.0
220
0.0
230
0.9999999999999998
 40
0.0974265314997314
 41
3.131915516220306
 42
4.702711843026092
  0
ELLIPSE
  5
15F9
330
15BC
100
AcDbEntity
  8
0
100
AcDbEllipse
 10
-14.13008189859932
 20
-13.0
 30
0.0
 11
0.993259861124563
 21
9.999531768717297
 31
0.0
210
0.0
220
0.0
230
1.0
 40
0.097426531499731
 41
4.722066117737838
 42
6.292862444532741
  0
LINE
  5
15FA
330
15BC
100
AcDbEntity
  8
0
100
AcDbLine
 10
22.45917600970654
 20
-26.95234078859375
 30
0.0
 11
25.89060973854639
 21
-56.59507411444167
 31
0.0
  0
LINE
  5
15FB
330
15BC
100
AcDbEntity
  8
0
100
AcDbLine
 10
25.89060973854638
 20
-9.558133491121628
 30
0.0
 11
22.45917600970654
 21
-14.78494715841457
 31
0.0
  0
ELLIPSE
  5
15FC
330
15BC
100
AcDbEntity
  8
0
100
AcDbEllipse
 10
24.90133146166027
 20
-29.55706345359769
 30
0.0
 11
2.149316260459895
 21
-14.99707715516453
 31
0.0
210
0.0
220
0.0
230
0.9999999999999998
 40
0.1377659927417796
 41
3.296384117292445
 42
4.518114593693587
  0
LINE
  5
15FD
330
15BC
100
AcDbEntity
  8
0
100
AcDbLine
 10
-13.14629605568258
 20
-13.0
 30
0.0
 11
13.14629605568256
 21
-13.00000000000001
 31
0.0
  0
LINE
  5
15FE
330
15BC
100
AcDbEntity
  8
0
100
AcDbLine
 10
-32.50000000000003
 20
-71.49999999999991
 30
0.0
 11
-32.50000000000003
 21
-77.99999999999998
 31
0.0
  0
LINE
  5
15FF
330
15BC
100
AcDbEntity
  8
0
100
AcDbLine
 10
32.49999999999996
 20
-78.00000000000003
 30
0.0
 11
32.49999999999996
 21
-71.49999999999995
 31
0.0
  0
ENDBLK
  5
15BE
330
15BC
100
AcDbEntity
  8
0
100
AcDbBlockEnd
  0
BLOCK
  5
1601
330
1600
100
AcDbEntity
  8
0
100
AcDbBlockBegin
  2
AKR165X3-Bottom
 70
     0
 10
0.0
 20
0.0
 30
0.0
  3
AKR165X3-Bottom
  1

  0
CIRCLE
  5
1603
330
1600
100
AcDbEntity
  8
0
100
AcDbCircle
 10
-0.0000000000000108
 20
25.00000000000001
 30
0.0
 40
6.749999999999996
  0
CIRCLE
  5
1604
330
1600
100
AcDbEntity
  8
0
100
AcDbCircle
 10
-0.0000000000000286
 20
65.00000000000001
 30
0.0
 40
5.5
  0
CIRCLE
  5
1605
330
1600
100
AcDbEntity
  8
0
100
AcDbCircle
 10
-22.50000000000003
 20
74.99999999999999
 30
0.0
 40
2.6
  0
CIRCLE
  5
1606
330
1600
100
AcDbEntity
  8
0
100
AcDbCircle
 10
22.49999999999996
 20
75.00000000000003
 30
0.0
 40
2.6
  0
LINE
  5
1607
330
1600
100
AcDbEntity
  8
0
100
AcDbLine
 10
-25.50000000000003
 20
85.0
 30
0.0
 11
25.49999999999996
 21
85.0
 31
0.0
  0
ELLIPSE
  5
1608
330
1600
100
AcDbEntity
  8
0
100
AcDbEllipse
 10
-19.40135808271008
 20
6.000000000000003
 30
0.0
 11
0.0000000000000168
 21
-6.000000000000001
 31
0.0
210
0.0
220
0.0
230
1.0
 40
0.9902680687415701
 41
4.850673826578655
 42
6.283185307179576
  0
LINE
  5
1609
330
1600
100
AcDbEntity
  8
0
100
AcDbLine
 10
-25.89060973854639
 20
9.558133491121633
 30
0.0
 11
-25.28624717349402
 21
5.172932775050225
 31
0.0
  0
SPLINE
  5
160A
330
1600
100
AcDbEntity
  8
0
100
AcDbSpline
210
0.0
220
0.0
230
1.0
 70
     8
 71
     3
 72
    20
 73
    16
 74
     0
 42
0.000000001
 43
0.0000000001
 40
-1.0
 40
-1.0
 40
-1.0
 40
-1.0
 40
-0.8557507846688567
 40
-0.8557507846688567
 40
-0.8557507846688567
 40
-0.4725410755545677
 40
-0.4725410755545677
 40
-0.4725410755545677
 40
-0.2262668722283631
 40
-0.2262668722283631
 40
-0.2262668722283631
 40
-0.054508876044864
 40
-0.054508876044864
 40
-0.054508876044864
 40
0.0
 40
0.0
 40
0.0
 40
0.0
 10
-32.50000000000002
 20
-0.0000000000000134
 30
0.0
 10
-32.49596368058165
 20
-0.0000078262250675
 30
0.0
 10
-32.37910965910497
 20
0.1669297411107416
 30
0.0
 10
-32.16692343470406
 20
0.4742787332276385
 30
0.0
 10
-31.60323356544499
 20
1.290776192817338
 30
0.0
 10
-30.41855420422015
 20
2.992237894645611
 30
0.0
 10
-29.21981211984214
 20
4.721648724159976
 30
0.0
 10
-28.44942649337633
 20
5.833074828803211
 30
0.0
 10
-27.6722133332742
 20
6.953174980389722
 30
0.0
 10
-27.05454655899466
 20
7.846564790705801
 30
0.0
 10
-26.6237697824321
 20
8.469637940707615
 30
0.0
 10
-26.26601864944478
 20
8.98994188002044
 30
0.0
 10
-26.05086466151857
 20
9.312718229940454
 30
0.0
 10
-25.98258369458239
 20
9.415154078279105
 30
0.0
 10
-25.93039957561445
 20
9.494468906986758
 30
0.0
 10
-25.89060973843285
 20
9.558133491115091
 30
0.0
  0
LINE
  5
160B
330
1600
100
AcDbEntity
  8
0
100
AcDbLine
 10
-19.40135808271012
 20
0.0
 30
0.0
 11
-32.49999999999999
 21
0.0
 31
0.0
  0
SPLINE
  5
160C
330
1600
100
AcDbEntity
  8
0
100
AcDbSpline
210
0.0
220
0.0
230
1.0
 70
     8
 71
     3
 72
    14
 73
    10
 74
     0
 42
0.000000001
 43
0.0000000001
 40
-0.4360718065967695
 40
-0.4360718065967695
 40
-0.4360718065967695
 40
-0.4360718065967695
 40
-0.2911757455484784
 40
-0.2911757455484784
 40
-0.2911757455484784
 40
-0.0929891979393971
 40
-0.0929891979393971
 40
-0.0929891979393971
 40
0.0
 40
0.0
 40
0.0
 40
0.0
 10
-28.84781724425526
 20
5.258397602268933
 30
0.0
 10
-29.49901849332225
 20
4.846541095688635
 30
0.0
 10
-30.11960463962703
 20
4.459479769124231
 30
0.0
 10
-30.66060035164473
 20
4.125019842461213
 30
0.0
 10
-31.4005657562279
 20
3.66755082847029
 30
0.0
 10
-31.98637480265191
 20
3.313074295069412
 30
0.0
 10
-32.28446159129545
 20
3.127679985966596
 30
0.0
 10
-32.42432401751303
 20
3.040692910839759
 30
0.0
 10
-32.49448814716041
 20
3.002604749032581
 30
0.0
 10
-32.50000000000144
 20
2.999999999892111
 30
0.0
  0
LINE
  5
160D
330
1600
100
AcDbEntity
  8
0
100
AcDbLine
 10
-32.50000000000001
 20
2.999999999999996
 30
0.0
 11
-32.50000000000001
 21
0.0
 31
0.0
  0
SPLINE
  5
160E
330
1600
100
AcDbEntity
  8
0
100
AcDbSpline
210
0.0
220
0.0
230
1.0
 70
     8
 71
     3
 72
    22
 73
    18
 74
     0
 42
0.000000001
 43
0.0000000001
 40
0.0711169074380642
 40
0.0711169074380642
 40
0.0711169074380642
 40
0.0711169074380642
 40
0.074758157104772
 40
0.074758157104772
 40
0.08261550293344
 40
0.08261550293344
 40
0.089417485473251
 40
0.089417485473251
 40
0.0938771354498448
 40
0.0938771354498448
 40
0.0967845628892946
 40
0.0967845628892946
 40
0.1012654617423164
 40
0.1012654617423164
 40
0.1049529991274081
 40
0.1049529991274081
 40
0.1070465380577352
 40
0.1070465380577352
 40
0.1070465380577352
 40
0.1070465380577352
 10
-19.84585058929444
 20
0.0168132243624569
 30
0.0
 10
-19.85763439277825
 20
0.0176372481493144
 30
0.0
 10
-19.86951121255497
 20
0.0185004741588899
 30
0.0
 10
-19.90716723450244
 20
0.0213466556305733
 30
0.0
 10
-19.93337900601218
 20
0.0234907856241988
 30
0.0
 10
-19.98204932975806
 20
0.0277960293186693
 30
0.0
 10
-20.00483632973037
 20
0.0299449826033206
 30
0.0
 10
-20.04096521244922
 20
0.0335511832480601
 30
0.0
 10
-20.05502579681721
 20
0.0350085445980042
 30
0.0
 10
-20.07643478440894
 20
0.037294055532686
 30
0.0
 10
-20.0844926438672
 20
0.0381724624963525
 30
0.0
 10
-20.10302399623359
 20
0.04022302869471
 30
0.0
 10
-20.11265713860386
 20
0.0413201661720128
 30
0.0
 10
-20.12495540998565
 20
0.0427335473045519
 30
0.0
 10
-20.12872461265876
 20
0.0431725231026269
 30
0.0
 10
-20.13172790973944
 20
0.0435219759555152
 30
0.0
 10
-20.13224919338547
 20
0.0435827000713302
 30
0.0
 10
-20.13224919305272
 20
0.0435827000326148
 30
0.0
  0
SPLINE
  5
160F
330
1600
100
AcDbEntity
  8
0
100
AcDbSpline
210
0.0
220
0.0
230
1.0
 70
     8
 71
     3
 72
    14
 73
    10
 74
     0
 42
0.000000001
 43
0.0000000001
 40
-0.4363256065604191
 40
-0.4363256065604191
 40
-0.4363256065604191
 40
-0.4363256065604191
 40
-0.2701279270905101
 40
-0.2701279270905101
 40
-0.2701279270905101
 40
-0.0852549168068872
 40
-0.0852549168068872
 40
-0.0852549168068872
 40
0.0
 40
0.0
 40
0.0
 40
0.0
 10
28.84600505552981
 20
5.259490713784678
 30
0.0
 10
29.59156408064939
 20
4.788249521767934
 30
0.0
 10
30.29521773296251
 20
4.350781457028812
 30
0.0
 10
30.88879741846614
 20
3.984753324024883
 30
0.0
 10
31.54907657309856
 20
3.577595275773179
 30
0.0
 10
32.05964361545371
 20
3.265340377921982
 30
0.0
 10
32.31762450953997
 20
3.108560584059016
 30
0.0
 10
32.43659341489478
 20
3.036260964648469
 30
0.0
 10
32.49484871723281
 20
2.99995435293871
 30
0.0
 10
32.50000000000147
 20
2.999999999892079
 30
0.0
  0
ELLIPSE
  5
1610
330
1600
100
AcDbEntity
  8
0
100
AcDbEllipse
 10
19.40135808271007
 20
6.000000000000021
 30
0.0
 11
0.0000000000000568
 21
-6.0
 31
0.0
210
0.0
220
0.0
230
1.0
 40
0.9902680687415703
 41
0.0
 42
1.432511480600919
  0
LINE
  5
1611
330
1600
100
AcDbEntity
  8
0
100
AcDbLine
 10
19.40135808271013
 20
0.0
 30
0.0
 11
32.50000000000001
 21
0.0
 31
0.0
  0
SPLINE
  5
1612
330
1600
100
AcDbEntity
  8
0
100
AcDbSpline
210
0.0
220
0.0
230
1.0
 70
     8
 71
     3
 72
    20
 73
    16
 74
     0
 42
0.000000001
 43
0.0000000001
 40
-1.0
 40
-1.0
 40
-1.0
 40
-1.0
 40
-0.8557507846688567
 40
-0.8557507846688567
 40
-0.8557507846688567
 40
-0.4725410755545677
 40
-0.4725410755545677
 40
-0.4725410755545677
 40
-0.2262668722283631
 40
-0.2262668722283631
 40
-0.2262668722283631
 40
-0.054508876044864
 40
-0.054508876044864
 40
-0.054508876044864
 40
0.0
 40
0.0
 40
0.0
 40
0.0
 10
32.50000000000004
 20
0.0000000000000155
 30
0.0
 10
32.49596368058167
 20
-0.0000078262250387
 30
0.0
 10
32.37910965910498
 20
0.1669297411107704
 30
0.0
 10
32.16692343470407
 20
0.4742787332276671
 30
0.0
 10
31.60323356544501
 20
1.290776192817365
 30
0.0
 10
30.41855420422017
 20
2.992237894645637
 30
0.0
 10
29.21981211984216
 20
4.721648724160003
 30
0.0
 10
28.44942649337634
 20
5.833074828803238
 30
0.0
 10
27.67221333327421
 20
6.953174980389748
 30
0.0
 10
27.05454655899468
 20
7.846564790705823
 30
0.0
 10
26.62376978243211
 20
8.469637940707636
 30
0.0
 10
26.2660186494448
 20
8.989941880020461
 30
0.0
 10
26.05086466151857
 20
9.312718229940475
 30
0.0
 10
25.9825836945824
 20
9.415154078279128
 30
0.0
 10
25.93039957561446
 20
9.494468906986782
 30
0.0
 10
25.89060973843286
 20
9.558133491115114
 30
0.0
  0
LINE
  5
1613
330
1600
100
AcDbEntity
  8
0
100
AcDbLine
 10
25.286247173494
 20
5.172932775050248
 30
0.0
 11
25.89060973854638
 21
9.558133491121655
 31
0.0
  0
LINE
  5
1614
330
1600
100
AcDbEntity
  8
0
100
AcDbLine
 10
32.50000000000003
 20
3.000000000000024
 30
0.0
 11
32.50000000000003
 21
0.0
 31
0.0
  0
SPLINE
  5
1615
330
1600
100
AcDbEntity
  8
0
100
AcDbSpline
210
0.0
220
0.0
230
1.0
 70
     8
 71
     3
 72
    22
 73
    18
 74
     0
 42
0.000000001
 43
0.0000000001
 40
0.0237063425539355
 40
0.0237063425539355
 40
0.0237063425539355
 40
0.0237063425539355
 40
0.0252422452919658
 40
0.0252422452919658
 40
0.0297575274352127
 40
0.0297575274352127
 40
0.0335153662927343
 40
0.0335153662927343
 40
0.0371936767367785
 40
0.0371936767367785
 40
0.0415867293153307
 40
0.0415867293153307
 40
0.0475399049200632
 40
0.0475399049200632
 40
0.0563802292448037
 40
0.0563802292448037
 40
0.0596328460581723
 40
0.0596328460581723
 40
0.0596328460581723
 40
0.0596328460581723
 10
20.1322491930538
 20
0.0435827000327573
 30
0.0
 10
20.13224919308139
 20
0.0435827000359674
 30
0.0
 10
20.13197070780556
 20
0.0435502783482501
 30
0.0
 10
20.12969788970867
 20
0.0432857028242214
 30
0.0
 10
20.12523939128508
 20
0.042764974267924
 30
0.0
 10
20.11218359021118
 20
0.0412669703049407
 30
0.0
 10
20.10428214533316
 20
0.0403681069637528
 30
0.0
 10
20.08623135894126
 20
0.0383609347146638
 30
0.0
 10
20.07598243006101
 20
0.0372413714964866
 30
0.0
 10
20.05226541229188
 20
0.0347205478309329
 30
0.0
 10
20.03835358709404
 20
0.0332851731875699
 30
0.0
 10
20.00506278850829
 20
0.0299759965197607
 30
0.0
 10
19.98520705067146
 20
0.028098245845156
 30
0.0
 10
19.93611386658792
 20
0.0237061896004522
 30
0.0
 10
19.90654834825285
 20
0.0212833635372484
 30
0.0
 10
19.86699918342076
 20
0.0183182712185946
 30
0.0
 10
19.85639125750058
 20
0.0175503175551062
 30
0.0
 10
19.84585058929446
 20
0.0168132243624751
 30
0.0
  0
LINE
  5
1616
330
1600
100
AcDbEntity
  8
0
100
AcDbLine
 10
19.40135808271009
 20
57.50707895874676
 30
0.0
 11
25.28624717349402
 21
56.680011733797
 31
0.0
  0
LINE
  5
1617
330
1600
100
AcDbEntity
  8
0
100
AcDbLine
 10
25.89060973854639
 20
56.59507411444167
 30
0.0
 11
25.28624717349402
 21
56.68001173379701
 31
0.0
  0
SPLINE
  5
1618
330
1600
100
AcDbEntity
  8
0
100
AcDbSpline
210
0.0
220
0.0
230
1.0
 70
     8
 71
     3
 72
    20
 73
    16
 74
     0
 42
0.000000001
 43
0.0000000001
 40
-1.0
 40
-1.0
 40
-1.0
 40
-1.0
 40
-0.8557507846688567
 40
-0.8557507846688567
 40
-0.8557507846688567
 40
-0.4725410755545677
 40
-0.4725410755545677
 40
-0.4725410755545677
 40
-0.2262668722283631
 40
-0.2262668722283631
 40
-0.2262668722283631
 40
-0.054508876044864
 40
-0.054508876044864
 40
-0.054508876044864
 40
0.0
 40
0.0
 40
0.0
 40
0.0
 10
32.5
 20
71.49999999999995
 30
0.0
 10
32.49596368058162
 20
70.51422263202507
 30
0.0
 10
32.37910965910495
 20
69.60755482004191
 30
0.0
 10
32.16692343470403
 20
68.79579103749525
 30
0.0
 10
31.60323356544497
 20
66.63927488407906
 30
0.0
 10
30.41855420422014
 20
65.09164757619581
 30
0.0
 10
29.21981211984212
 20
63.52662748021168
 30
0.0
 10
28.44942649337631
 20
62.52084900393346
 30
0.0
 10
27.67221333327417
 20
61.51295505185245
 30
0.0
 10
27.05454655899464
 20
60.34589916494752
 30
0.0
 10
26.62376978243208
 20
59.53196421820266
 30
0.0
 10
26.26601864944476
 20
58.62483513656297
 30
0.0
 10
26.05086466151854
 20
57.60015142178396
 30
0.0
 10
25.98258369458237
 20
57.27495923955562
 30
0.0
 10
25.93039957561443
 20
56.93850065069419
 30
0.0
 10
25.89060973843283
 20
56.59507411448346
 30
0.0
  0
SPLINE
  5
1619
330
1600
100
AcDbEntity
  8
0
100
AcDbSpline
210
0.0
220
0.0
230
1.0
 70
     8
 71
     2
 72
     6
 73
     3
 74
     0
 42
0.000000001
 43
0.0000000001
 40
0.0
 40
0.0
 40
0.0
 40
1.0
 40
1.0
 40
1.0
 10
19.4013580827101
 20
57.50707895874676
 30
0.0
 10
20.85646379032759
 20
67.86069405359667
 30
0.0
 10
32.49999999999996
 20
71.49999999999995
 30
0.0
  0
LINE
  5
161A
330
1600
100
AcDbEntity
  8
0
100
AcDbLine
 10
-25.28624717349409
 20
56.680011733797
 30
0.0
 11
-19.40135808271015
 21
57.50707895874676
 31
0.0
  0
SPLINE
  5
161B
330
1600
100
AcDbEntity
  8
0
100
AcDbSpline
210
0.0
220
0.0
230
1.0
 70
     8
 71
     2
 72
     6
 73
     3
 74
     0
 42
0.000000001
 43
0.0000000001
 40
0.0
 40
0.0
 40
0.0
 40
1.0
 40
1.0
 40
1.0
 10
-19.40135808271015
 20
57.50707895874676
 30
0.0
 10
-20.85646379032764
 20
67.86069405359665
 30
0.0
 10
-32.50000000000003
 20
71.49999999999991
 30
0.0
  0
SPLINE
  5
161C
330
1600
100
AcDbEntity
  8
0
100
AcDbSpline
210
0.0
220
0.0
230
1.0
 70
     8
 71
     3
 72
    20
 73
    16
 74
     0
 42
0.000000001
 43
0.0000000001
 40
-1.0
 40
-1.0
 40
-1.0
 40
-1.0
 40
-0.8557507846688567
 40
-0.8557507846688567
 40
-0.8557507846688567
 40
-0.4725410755545677
 40
-0.4725410755545677
 40
-0.4725410755545677
 40
-0.2262668722283631
 40
-0.2262668722283631
 40
-0.2262668722283631
 40
-0.054508876044864
 40
-0.054508876044864
 40
-0.054508876044864
 40
0.0
 40
0.0
 40
0.0
 40
0.0
 10
-32.50000000000007
 20
71.49999999999993
 30
0.0
 10
-32.4959636805817
 20
70.51422263202502
 30
0.0
 10
-32.37910965910501
 20
69.60755482004187
 30
0.0
 10
-32.16692343470409
 20
68.79579103749522
 30
0.0
 10
-31.60323356544503
 20
66.63927488407901
 30
0.0
 10
-30.41855420422019
 20
65.09164757619577
 30
0.0
 10
-29.21981211984217
 20
63.52662748021164
 30
0.0
 10
-28.44942649337636
 20
62.52084900393342
 30
0.0
 10
-27.67221333327423
 20
61.51295505185242
 30
0.0
 10
-27.0545465589947
 20
60.34589916494748
 30
0.0
 10
-26.62376978243213
 20
59.53196421820263
 30
0.0
 10
-26.26601864944481
 20
58.62483513656293
 30
0.0
 10
-26.0508646615186
 20
57.60015142178392
 30
0.0
 10
-25.98258369458243
 20
57.27495923955558
 30
0.0
 10
-25.93039957561448
 20
56.93850065069415
 30
0.0
 10
-25.89060973843289
 20
56.59507411448342
 30
0.0
  0
LINE
  5
161D
330
1600
100
AcDbEntity
  8
0
100
AcDbLine
 10
-25.28624717349409
 20
56.68001173379697
 30
0.0
 11
-25.89060973854645
 21
56.59507411444163
 31
0.0
  0
LINE
  5
161E
330
1600
100
AcDbEntity
  8
0
100
AcDbLine
 10
12.72467355157539
 20
0.0
 30
0.0
 11
19.40135808271008
 21
0.0
 31
0.0
  0
ELLIPSE
  5
161F
330
1600
100
AcDbEntity
  8
0
100
AcDbEllipse
 10
13.28683689038495
 20
10.00000000000001
 30
0.0
 11
-0.5639370964297688
 21
-9.999950064643336
 31
0.0
210
0.0
220
0.0
230
0.9999999999999998
 40
0.0560386765135294
 41
4.715549214497016
 42
6.286345541291909
  0
LINE
  5
1620
330
1600
100
AcDbEntity
  8
0
100
AcDbLine
 10
19.40135808271008
 20
57.50707895874676
 30
0.0
 11
12.72467355157539
 21
10.00000000000001
 31
0.0
  0
LINE
  5
1621
330
1600
100
AcDbEntity
  8
0
100
AcDbLine
 10
-19.40135808271008
 20
0.0
 30
0.0
 11
-12.7246735515754
 21
0.0
 31
0.0
  0
ELLIPSE
  5
1622
330
1600
100
AcDbEntity
  8
0
100
AcDbEllipse
 10
-13.28683689038497
 20
10.0
 30
0.0
 11
-0.5639370964298353
 21
9.99995006464333
 31
0.0
210
0.0
220
0.0
230
0.9999999999999998
 40
0.0560386765135291
 41
3.138432419428191
 42
4.709228746255934
  0
LINE
  5
1623
330
1600
100
AcDbEntity
  8
0
100
AcDbLine
 10
-12.72467355157541
 20
10.0
 30
0.0
 11
-19.40135808271015
 21
57.50707895874676
 31
0.0
  0
LINE
  5
1624
330
1600
100
AcDbEntity
  8
0
100
AcDbLine
 10
-12.7246735515754
 20
0.0
 30
0.0
 11
12.72467355157539
 21
0.0
 31
0.0
  0
LINE
  5
1625
330
1600
100
AcDbEntity
  8
0
100
AcDbLine
 10
32.49999999999996
 20
78.00000000000003
 30
0.0
 11
32.49999999999996
 21
71.49999999999995
 31
0.0
  0
LINE
  5
1626
330
1600
100
AcDbEntity
  8
0
100
AcDbLine
 10
-32.50000000000003
 20
71.49999999999991
 30
0.0
 11
-32.50000000000003
 21
77.99999999999998
 31
0.0
  0
LINE
  5
1627
330
1600
100
AcDbEntity
  8
0
100
AcDbLine
 10
25.49999999999996
 20
85.0
 30
0.0
 11
32.49999999999996
 21
78.00000000000003
 31
0.0
  0
LINE
  5
1628
330
1600
100
AcDbEntity
  8
0
100
AcDbLine
 10
-32.50000000000003
 20
77.99999999999998
 30
0.0
 11
-25.50000000000003
 21
85.0
 31
0.0
  0
LINE
  5
1629
330
1600
100
AcDbEntity
  8
0
100
AcDbLine
 10
-25.89060973854646
 20
56.59507411444166
 30
0.0
 11
-22.45917600970657
 21
26.95234078859373
 31
0.0
  0
ELLIPSE
  5
162A
330
1600
100
AcDbEntity
  8
0
100
AcDbEllipse
 10
-24.90133146166029
 20
29.55706345359767
 30
0.0
 11
2.149316260459694
 21
-14.99707715516456
 31
0.0
210
0.0
220
0.0
230
1.0
 40
0.1377659927417793
 41
0.1547914637106995
 42
1.376521940106728
  0
LINE
  5
162B
330
1600
100
AcDbEntity
  8
0
100
AcDbLine
 10
-22.45917600970655
 20
14.78494715841456
 30
0.0
 11
-25.89060973854638
 21
9.558133491121608
 31
0.0
  0
LINE
  5
162C
330
1600
100
AcDbEntity
  8
0
100
AcDbLine
 10
22.45917600970654
 20
26.95234078859375
 30
0.0
 11
25.89060973854639
 21
56.59507411444167
 31
0.0
  0
LINE
  5
162D
330
1600
100
AcDbEntity
  8
0
100
AcDbLine
 10
25.89060973854638
 20
9.558133491121628
 30
0.0
 11
22.45917600970654
 21
14.78494715841457
 31
0.0
  0
ELLIPSE
  5
162E
330
1600
100
AcDbEntity
  8
0
100
AcDbEllipse
 10
24.90133146166027
 20
29.55706345359769
 30
0.0
 11
2.149316260459895
 21
14.99707715516453
 31
0.0
210
0.0
220
0.0
230
0.9999999999999998
 40
0.1377659927417796
 41
1.765070713485998
 42
2.98680118988714
  0
ENDBLK
  5
1602
330
1600
100
AcDbEntity
  8
0
100
AcDbBlockEnd
  0
BLOCK
  5
1630
330
162F
100
AcDbEntity
  8
0
100
AcDbBlockBegin
  2
AKR165X3-ISO
 70
     0
 10
0.0
 20
0.0
 30
0.0
  3
AKR165X3-ISO
  1

  0
ELLIPSE
  5
1632
330
162F
100
AcDbEntity
  8
0
100
AcDbEllipse
 10
45.85818480465815
 20
47.00845694197837
 30
0.0
 11
1.300000000000134
 21
-2.251666049839465
 31
0.0
210
0.0
220
0.0
230
1.0
 40
0.5773502691896254
 41
4.095863641558295
 42
5.328914319210788
  0
ELLIPSE
  5
1633
330
162F
100
AcDbEntity
  8
0
100
AcDbEllipse
 10
43.73686446109849
 20
45.78371207058676
 30
0.0
 11
1.299999999999866
 21
-2.25166604983962
 31
0.0
210
0.0
220
0.0
230
0.9999999999999998
 40
0.5773502691896255
 41
0.0
 42
6.283185307179586
  0
ELLIPSE
  5
1634
330
162F
100
AcDbEntity
  8
0
100
AcDbEllipse
 10
45.85818480465817
 20
68.23736804609923
 30
0.0
 11
1.300000000000134
 21
-2.251666049839464
 31
0.0
210
0.0
220
0.0
230
1.0
 40
0.5773502691896255
 41
4.095863641558299
 42
5.328914319210788
  0
ELLIPSE
  5
1635
330
162F
100
AcDbEntity
  8
0
100
AcDbEllipse
 10
43.73686446109849
 20
67.01262317470764
 30
0.0
 11
1.299999999999865
 21
-2.251666049839619
 31
0.0
210
0.0
220
0.0
230
1.0
 40
0.5773502691896255
 41
0.0
 42
6.283185307179586
  0
ELLIPSE
  5
1636
330
162F
100
AcDbEntity
  8
0
100
AcDbEllipse
 10
14.03837965126353
 20
86.60854111697309
 30
0.0
 11
1.300000000000133
 21
-2.251666049839462
 31
0.0
210
0.0
220
0.0
230
1.0
 40
0.5773502691896254
 41
4.09586364155829
 42
5.328914319210783
  0
ELLIPSE
  5
1637
330
162F
100
AcDbEntity
  8
0
100
AcDbEllipse
 10
11.91705930770387
 20
85.3837962455815
 30
0.0
 11
1.299999999999864
 21
-2.251666049839618
 31
0.0
210
0.0
220
0.0
230
0.9999999999999998
 40
0.5773502691896257
 41
0.0
 42
6.283185307179586
  0
ELLIPSE
  5
1638
330
162F
100
AcDbEntity
  8
0
100
AcDbEllipse
 10
29.94828222796085
 20
77.42295458153617
 30
0.0
 11
1.300000000000133
 21
-2.251666049839462
 31
0.0
210
0.0
220
0.0
230
1.0
 40
0.5773502691896254
 41
4.095863641558294
 42
5.328914319210789
  0
ELLIPSE
  5
1639
330
162F
100
AcDbEntity
  8
0
100
AcDbEllipse
 10
27.82696188440119
 20
76.19820971014457
 30
0.0
 11
1.299999999999864
 21
-2.251666049839618
 31
0.0
210
0.0
220
0.0
230
1.0
 40
0.5773502691896253
 41
0.0
 42
6.283185307179586
  0
ELLIPSE
  5
163A
330
162F
100
AcDbEntity
  8
0
100
AcDbEllipse
 10
14.03837965126353
 20
65.37963001285222
 30
0.0
 11
1.300000000000134
 21
-2.251666049839464
 31
0.0
210
0.0
220
0.0
230
1.0
 40
0.5773502691896253
 41
4.095863641558299
 42
5.328914319210793
  0
ELLIPSE
  5
163B
330
162F
100
AcDbEntity
  8
0
100
AcDbEllipse
 10
11.91705930770387
 20
64.15488514146062
 30
0.0
 11
1.299999999999864
 21
-2.251666049839619
 31
0.0
210
0.0
220
0.0
230
1.0
 40
0.5773502691896253
 41
0.0
 42
6.283185307179586
  0
ELLIPSE
  5
163C
330
162F
100
AcDbEntity
  8
0
100
AcDbEllipse
 10
29.94828222796084
 20
48.02907766813802
 30
0.0
 11
1.300000000000132
 21
-2.251666049839461
 31
0.0
210
0.0
220
0.0
230
0.9999999999999998
 40
0.5773502691896254
 41
4.09586364155829
 42
5.32891431921079
  0
ELLIPSE
  5
163D
330
162F
100
AcDbEntity
  8
0
100
AcDbEllipse
 10
27.82696188440118
 20
46.80433279674644
 30
0.0
 11
1.299999999999864
 21
-2.251666049839616
 31
0.0
210
0.0
220
0.0
230
1.0
 40
0.5773502691896254
 41
0.0
 42
6.283185307179586
  0
ELLIPSE
  5
163E
330
162F
100
AcDbEntity
  8
0
100
AcDbEllipse
 10
29.94828222796084
 20
31.6991460495835
 30
0.0
 11
-3.375000000000001
 21
5.845671475544965
 31
0.0
210
0.0
220
0.0
230
1.0
 40
0.5773502691896254
 41
0.3196872591302817
 42
2.821905394459509
  0
ELLIPSE
  5
163F
330
162F
100
AcDbEntity
  8
0
100
AcDbEllipse
 10
27.82696188440117
 20
30.47440117819191
 30
0.0
 11
3.374999999999651
 21
-5.845671475545167
 31
0.0
210
0.0
220
0.0
230
1.0
 40
0.5773502691896254
 41
0.0
 42
6.283185307179586
  0
ELLIPSE
  5
1640
330
162F
100
AcDbEntity
  8
0
100
AcDbEllipse
 10
12.27061269829712
 20
-57.70722956200248
 30
0.0
 11
-6.749999999999996
 21
0.0000000000000019
 31
0.0
210
0.0
220
0.0
230
1.0
 40
0.5773502691896259
 41
0.0
 42
6.283185307179586
  0
ELLIPSE
  5
1641
330
162F
100
AcDbEntity
  8
0
100
AcDbEllipse
 10
12.27061269829712
 20
-60.15671930478567
 30
0.0
 11
6.749999999999996
 21
-0.0000000000000021
 31
0.0
210
0.0
220
0.0
230
1.0
 40
0.5773502691896259
 41
0.3196872591302826
 42
2.821905394459511
  0
ELLIPSE
  5
1642
330
162F
100
AcDbEntity
  8
0
100
AcDbEllipse
 10
11.91705930770386
 20
29.0455321615684
 30
0.0
 11
-1.300000000000003
 21
2.251666049839546
 31
0.0
210
0.0
220
0.0
230
1.0
 40
0.5773502691896254
 41
0.0
 42
6.283185307179586
  0
ELLIPSE
  5
1643
330
162F
100
AcDbEntity
  8
0
100
AcDbEllipse
 10
43.73686446109849
 20
10.67435909069455
 30
0.0
 11
-1.3
 21
2.251666049839542
 31
0.0
210
0.0
220
0.0
230
1.0
 40
0.5773502691896254
 41
0.0
 42
6.283185307179586
  0
ELLIPSE
  5
1644
330
162F
100
AcDbEntity
  8
0
100
AcDbEllipse
 10
27.82696188440116
 20
-18.51539367747164
 30
0.0
 11
-1.3
 21
2.251666049839541
 31
0.0
210
0.0
220
0.0
230
1.0
 40
0.5773502691896253
 41
0.0
 42
6.283185307179586
  0
ELLIPSE
  5
1645
330
162F
100
AcDbEntity
  8
0
100
AcDbEllipse
 10
37.72645682101283
 20
-16.06590393468847
 30
0.0
 11
1.299999999999999
 21
-2.251666049839541
 31
0.0
210
0.0
220
0.0
230
1.0
 40
0.5773502691896255
 41
1.102424509025358
 42
6.261604347111315
  0
ELLIPSE
  5
1646
330
162F
100
AcDbEntity
  8
0
100
AcDbEllipse
 10
37.72645682101283
 20
-16.06590393468847
 30
0.0
 11
1.3
 21
-2.251666049839541
 31
0.0
210
0.0
220
0.0
230
1.0
 40
0.5773502691896252
 41
0.9823128046850051
 42
0.9823847703589088
  0
ELLIPSE
  5
1647
330
162F
100
AcDbEntity
  8
0
100
AcDbEllipse
 10
17.92746694778951
 20
-4.634951801700299
 30
0.0
 11
-1.3
 21
2.251666049839541
 31
0.0
210
0.0
220
0.0
230
1.0
 40
0.5773502691896253
 41
0.0
 42
6.283185307179586
  0
ELLIPSE
  5
1648
330
162F
100
AcDbEntity
  8
0
100
AcDbEllipse
 10
27.82696188440117
 20
-2.185462058917124
 30
0.0
 11
-1.3
 21
2.251666049839541
 31
0.0
210
0.0
220
0.0
230
1.0
 40
0.5773502691896253
 41
0.0
 42
6.283185307179586
  0
ELLIPSE
  5
1649
330
162F
100
AcDbEntity
  8
0
100
AcDbEllipse
 10
41.96909750813211
 20
-3.001958639844861
 30
0.0
 11
-1.3
 21
2.251666049839541
 31
0.0
210
0.0
220
0.0
230
1.0
 40
0.5773502691896253
 41
0.0
 42
6.283185307179586
  0
ELLIPSE
  5
164A
330
162F
100
AcDbEntity
  8
0
100
AcDbEllipse
 10
13.68482626067022
 20
13.32797297870967
 30
0.0
 11
-1.3
 21
2.251666049839541
 31
0.0
210
0.0
220
0.0
230
1.0
 40
0.5773502691896253
 41
0.0
 42
6.283185307179586
  0
ELLIPSE
  5
164B
330
162F
100
AcDbEntity
  8
0
100
AcDbEllipse
 10
27.82696188440117
 20
12.51147639778194
 30
0.0
 11
-1.3
 21
2.251666049839541
 31
0.0
210
0.0
220
0.0
230
1.0
 40
0.5773502691896253
 41
0.0
 42
6.283185307179586
  0
ELLIPSE
  5
164C
330
162F
100
AcDbEntity
  8
0
100
AcDbEllipse
 10
-16.01365854916479
 20
-74.03716118055699
 30
0.0
 11
5.5
 21
-0.0000000000000022
 31
0.0
210
0.0
220
0.0
230
1.0
 40
0.5773502691896259
 41
0.0
 42
6.283185307179586
  0
ELLIPSE
  5
164D
330
162F
100
AcDbEntity
  8
0
100
AcDbEllipse
 10
-38.99462893772759
 20
-68.93405754975869
 30
0.0
 11
2.6
 21
-0.0000000000000011
 31
0.0
210
0.0
220
0.0
230
1.0
 40
0.5773502691896258
 41
0.0
 42
6.283185307179586
  0
ELLIPSE
  5
164E
330
162F
100
AcDbEntity
  8
0
100
AcDbEllipse
 10
-7.174823784332966
 20
-87.30523062063253
 30
0.0
 11
2.6
 21
-0.0000000000000011
 31
0.0
210
0.0
220
0.0
230
1.0
 40
0.5773502691896258
 41
0.0
 42
6.283185307179586
  0
LINE
  5
164F
330
162F
100
AcDbEntity
  8
0
100
AcDbLine
 10
50.80793227296398
 20
-6.063820818323906
 30
0.0
 11
50.80793227296396
 21
64.56313343192447
 31
0.0
  0
LINE
  5
1650
330
162F
100
AcDbEntity
  8
0
100
AcDbLine
 10
4.845991495838402
 20
20.47231806182722
 30
0.0
 11
4.845991495838402
 21
91.09927231207558
 31
0.0
  0
LINE
  5
1651
330
162F
100
AcDbEntity
  8
0
100
AcDbLine
 10
24.60832068088276
 20
-56.8021191043644
 30
0.0
 11
5.809658739709813
 21
-74.82583850723307
 31
0.0
  0
ELLIPSE
  5
1652
330
162F
100
AcDbEntity
  8
0
100
AcDbEllipse
 10
24.49336830213635
 20
-46.80111601970808
 30
0.0
 11
-7.49999999999998
 21
-12.99038105676659
 31
0.0
210
0.0
220
0.0
230
0.9999999999999998
 40
0.4150676916945048
 41
0.9599310885968748
 42
2.181661564992907
  0
LINE
  5
1653
330
162F
100
AcDbEntity
  8
0
100
AcDbLine
 10
39.42163512912874
 20
-16.60818765795398
 30
0.0
 11
33.21196722614846
 21
-41.90016615759978
 31
0.0
  0
LINE
  5
1654
330
162F
100
AcDbEntity
  8
0
100
AcDbLine
 10
5.775524439373751
 20
-26.05972852904962
 30
0.0
 11
7.063165305635745
 21
2.073983605204103
 31
0.0
  0
ELLIPSE
  5
1655
330
162F
100
AcDbEntity
  8
0
100
AcDbEllipse
 10
-6.396803846214722
 20
-28.9666668145437
 30
0.0
 11
7.499999999999993
 21
12.99038105676658
 31
0.0
210
0.0
220
0.0
230
1.0
 40
0.7396328466847472
 41
4.101523742186672
 42
5.323254218582704
  0
LINE
  5
1656
330
162F
100
AcDbEntity
  8
0
100
AcDbLine
 10
-26.54881108378326
 20
-56.14366724407496
 30
0.0
 11
-2.828122105891961
 21
-40.96168147581423
 31
0.0
  0
LINE
  5
1657
330
162F
100
AcDbEntity
  8
0
100
AcDbLine
 10
-48.1870170931527
 20
-71.79179558300574
 30
0.0
 11
-12.1245712526388
 21
-92.61245839666276
 31
0.0
  0
ELLIPSE
  5
1658
330
162F
100
AcDbEntity
  8
0
100
AcDbEllipse
 10
14.03837965126352
 20
30.27027703296
 30
0.0
 11
1.300000000000137
 21
-2.251666049839469
 31
0.0
210
0.0
220
0.0
230
1.0
 40
0.5773502691896254
 41
4.095863641558286
 42
5.328914319210794
  0
ELLIPSE
  5
1659
330
162F
100
AcDbEntity
  8
0
100
AcDbEllipse
 10
45.85818480465814
 20
11.89910396208614
 30
0.0
 11
1.300000000000134
 21
-2.251666049839464
 31
0.0
210
0.0
220
0.0
230
1.0
 40
0.5773502691896254
 41
4.095863641558294
 42
5.328914319210787
  0
ELLIPSE
  5
165A
330
162F
100
AcDbEntity
  8
0
100
AcDbEllipse
 10
29.94828222796083
 20
-17.29064880608005
 30
0.0
 11
1.300000000000134
 21
-2.251666049839463
 31
0.0
210
0.0
220
0.0
230
1.0
 40
0.5773502691896254
 41
4.095863641558288
 42
5.328914319210786
  0
ELLIPSE
  5
165B
330
162F
100
AcDbEntity
  8
0
100
AcDbEllipse
 10
39.84777716457249
 20
-14.84115906329687
 30
0.0
 11
1.300000000000133
 21
-2.251666049839465
 31
0.0
210
0.0
220
0.0
230
0.9999999999999998
 40
0.5773502691896253
 41
4.09586364155829
 42
5.257964389049488
  0
ELLIPSE
  5
165C
330
162F
100
AcDbEntity
  8
0
100
AcDbEllipse
 10
20.04878729134917
 20
-3.410206930308703
 30
0.0
 11
1.300000000000133
 21
-2.251666049839465
 31
0.0
210
0.0
220
0.0
230
0.9999999999999998
 40
0.5773502691896253
 41
4.09586364155829
 42
5.328914319210788
  0
ELLIPSE
  5
165D
330
162F
100
AcDbEntity
  8
0
100
AcDbEllipse
 10
29.94828222796083
 20
-0.9607171875255282
 30
0.0
 11
1.300000000000133
 21
-2.251666049839465
 31
0.0
210
0.0
220
0.0
230
0.9999999999999998
 40
0.5773502691896253
 41
4.09586364155829
 42
5.328914319210787
  0
ELLIPSE
  5
165E
330
162F
100
AcDbEntity
  8
0
100
AcDbEllipse
 10
44.09041785169178
 20
-1.777213768453265
 30
0.0
 11
1.300000000000133
 21
-2.251666049839465
 31
0.0
210
0.0
220
0.0
230
0.9999999999999998
 40
0.5773502691896253
 41
4.09586364155829
 42
5.328914319210787
  0
ELLIPSE
  5
165F
330
162F
100
AcDbEntity
  8
0
100
AcDbEllipse
 10
15.80614660422989
 20
14.55271785010127
 30
0.0
 11
1.300000000000133
 21
-2.251666049839465
 31
0.0
210
0.0
220
0.0
230
0.9999999999999998
 40
0.5773502691896253
 41
4.095863641558288
 42
5.328914319210791
  0
ELLIPSE
  5
1660
330
162F
100
AcDbEntity
  8
0
100
AcDbEllipse
 10
29.94828222796084
 20
13.73622126917354
 30
0.0
 11
1.300000000000133
 21
-2.251666049839465
 31
0.0
210
0.0
220
0.0
230
0.9999999999999998
 40
0.5773502691896253
 41
4.095863641558288
 42
5.328914319210787
  0
ELLIPSE
  5
1661
330
162F
100
AcDbEntity
  8
0
100
AcDbEllipse
 10
-16.01365854916479
 20
-76.48665092334017
 30
0.0
 11
-5.5
 21
-0.0000000000003256
 31
0.0
210
0.0
220
0.0
230
1.0
 40
0.577350269189626
 41
3.537553217051975
 42
5.887224743716539
  0
ELLIPSE
  5
1662
330
162F
100
AcDbEntity
  8
0
100
AcDbEllipse
 10
-38.99462893772759
 20
-71.38354729254188
 30
0.0
 11
-2.6
 21
-0.0000000000001543
 31
0.0
210
0.0
220
0.0
230
1.0
 40
0.5773502691896258
 41
4.095863641558285
 42
5.328914319210799
  0
ELLIPSE
  5
1663
330
162F
100
AcDbEntity
  8
0
100
AcDbEllipse
 10
-7.174823784332966
 20
-89.75472036341573
 30
0.0
 11
-2.6
 21
-0.0000000000001543
 31
0.0
210
0.0
220
0.0
230
1.0
 40
0.5773502691896258
 41
4.095863641558285
 42
5.328914319210796
  0
LINE
  5
1664
330
162F
100
AcDbEntity
  8
0
100
AcDbLine
 10
52.9292526165236
 20
-4.839075946932309
 30
0.0
 11
52.92925261652361
 21
65.78787830331606
 31
0.0
  0
LINE
  5
1665
330
162F
100
AcDbEntity
  8
0
100
AcDbLine
 10
-48.1870170931527
 20
-74.24128532578892
 30
0.0
 11
-12.1245712526388
 21
-95.06194813944592
 31
0.0
  0
SPLINE
  5
1666
330
162F
100
AcDbEntity
  8
0
100
AcDbSpline
210
0.0
220
0.0
230
1.0
 70
     8
 71
     3
 72
    17
 73
    13
 74
     0
 42
0.000000001
 43
0.0000000001
 40
-0.4749267643667521
 40
-0.4749267643667521
 40
-0.4749267643667521
 40
-0.4749267643667521
 40
-0.4725410755545677
 40
-0.4725410755545677
 40
-0.4725410755545677
 40
-0.2262668722283631
 40
-0.2262668722283631
 40
-0.2262668722283631
 40
-0.054508876044864
 40
-0.054508876044864
 40
-0.054508876044864
 40
0.0
 40
0.0
 40
0.0
 40
0.0
 10
5.955052126610795
 20
11.96628367369303
 30
0.0
 10
5.952716860681621
 20
11.95088881750282
 30
0.0
 10
5.950381171518177
 20
11.93549272535278
 30
0.0
 10
5.948045101789252
 20
11.92009541806468
 30
0.0
 10
5.706893067010891
 20
10.33063430881271
 30
0.0
 10
5.464435350151632
 20
8.733117427029606
 30
0.0
 10
5.269469721640849
 20
7.163334018164846
 30
0.0
 10
5.133495651984372
 20
6.068526486124703
 30
0.0
 10
5.018553460330705
 20
4.969394210306123
 30
0.0
 10
4.942452958357579
 20
3.91313431984237
 30
0.0
 10
4.918301810107261
 20
3.57792116691912
 30
0.0
 10
4.899117501271907
 20
3.249519658903645
 30
0.0
 10
4.882235505806762
 20
2.926877975647013
 30
0.0
  0
LINE
  5
1667
330
162F
100
AcDbEntity
  8
0
100
AcDbLine
 10
5.400911376455725
 20
2.724039842005572
 30
0.0
 11
4.882235505721848
 21
2.926877975656605
 31
0.0
  0
LINE
  5
1668
330
162F
100
AcDbEntity
  8
0
100
AcDbLine
 10
7.063165305635714
 20
2.07398360520413
 30
0.0
 11
5.400911376455725
 21
2.724039842005572
 31
0.0
  0
SPLINE
  5
1669
330
162F
100
AcDbEntity
  8
0
100
AcDbSpline
210
0.0
220
0.0
230
1.0
 70
     8
 71
     3
 72
    20
 73
    16
 74
     0
 42
0.000000001
 43
0.0000000001
 40
-1.0
 40
-1.0
 40
-1.0
 40
-1.0
 40
-0.9088430650615059
 40
-0.9088430650615059
 40
-0.9088430650615059
 40
-0.5823514910969569
 40
-0.5823514910969569
 40
-0.5823514910969569
 40
-0.2911757455484784
 40
-0.2911757455484784
 40
-0.2911757455484784
 40
-0.0929891979393971
 40
-0.0929891979393971
 40
-0.0929891979393971
 40
0.0
 40
0.0
 40
0.0
 40
0.0
 10
7.063165305635727
 20
2.073983605204077
 30
0.0
 10
7.085917535041454
 20
2.602921164086389
 30
0.0
 10
7.095953173613906
 20
3.170946365831932
 30
0.0
 10
7.080363831347851
 20
3.729988013036358
 30
0.0
 10
7.024528376843477
 20
5.732275468518057
 30
0.0
 10
6.706999964136537
 20
7.800195783308891
 30
0.0
 10
6.34130270812681
 20
9.86500361564488
 30
0.0
 10
6.015162067280663
 20
11.70646602367641
 30
0.0
 10
5.644614583960994
 20
13.53254420819541
 30
0.0
 10
5.351134300928803
 20
15.32093251572265
 30
0.0
 10
5.151379187480311
 20
16.53818535999934
 30
0.0
 10
4.987802398812721
 20
17.73510681029882
 30
0.0
 10
4.908116782340754
 20
18.88190888276285
 30
0.0
 10
4.870728263026871
 20
19.41998881906617
 30
0.0
 10
4.848047128653938
 20
19.94855762268483
 30
0.0
 10
4.845991495913661
 20
20.47231806192329
 30
0.0
  0
LINE
  5
166A
330
162F
100
AcDbEntity
  8
0
100
AcDbLine
 10
10.19859960664634
 20
3.507326398027652
 30
0.0
 11
7.063165305635723
 21
2.073983605204103
 31
0.0
  0
ELLIPSE
  5
166B
330
162F
100
AcDbEntity
  8
0
100
AcDbEllipse
 10
11.98680967632881
 20
2.474902832928886
 30
0.0
 11
-2.980787541290214
 21
-0.3389773350668654
 31
0.0
210
0.0
220
0.0
230
0.9999999999999998
 40
0.4913799087545887
 41
3.866279069693543
 42
5.29879055029456
  0
SPLINE
  5
166C
330
162F
100
AcDbEntity
  8
0
100
AcDbSpline
210
0.0
220
0.0
230
1.0
 70
     8
 71
     2
 72
     6
 73
     3
 74
     0
 42
0.000000001
 43
0.0000000001
 40
0.0
 40
0.0
 40
0.0
 40
1.0
 40
1.0
 40
1.0
 10
14.10813001988843
 20
3.699647704320492
 30
0.0
 10
13.07921490668885
 20
12.74738344708617
 30
0.0
 10
4.84599149583841
 20
20.47231806182722
 30
0.0
  0
SPLINE
  5
166D
330
162F
100
AcDbEntity
  8
0
100
AcDbSpline
210
0.0
220
0.0
230
1.0
 70
     8
 71
     3
 72
    20
 73
    16
 74
     0
 42
0.000000001
 43
0.0000000001
 40
-1.0
 40
-1.0
 40
-1.0
 40
-1.0
 40
-0.8565140843578728
 40
-0.8565140843578728
 40
-0.8565140843578728
 40
-0.5402558541810202
 40
-0.5402558541810202
 40
-0.5402558541810202
 40
-0.2701279270905101
 40
-0.2701279270905101
 40
-0.2701279270905101
 40
-0.0852549168068872
 40
-0.0852549168068872
 40
-0.0852549168068872
 40
0.0
 40
0.0
 40
0.0
 40
0.0
 10
39.42163512912877
 20
-16.60818765795402
 30
0.0
 10
39.61128290024142
 20
-15.84590764872772
 30
0.0
 10
39.97408604162634
 20
-15.17634684989612
 30
0.0
 10
40.47079022717922
 20
-14.60750191735717
 30
0.0
 10
41.56557911946456
 20
-13.35370714032456
 30
0.0
 10
43.25890223293355
 20
-12.52400471025349
 30
0.0
 10
44.96784337778936
 20
-11.71983060143862
 30
0.0
 10
46.42751362485751
 20
-11.03295555975972
 30
0.0
 10
47.86944682127856
 20
-10.38547692291536
 30
0.0
 10
48.97231424848212
 20
-9.517562130784407
 30
0.0
 10
49.72710633313228
 20
-8.923569417705277
 30
0.0
 10
50.30892930676127
 20
-8.22509896988798
 30
0.0
 10
50.60220940177977
 20
-7.373617366447726
 30
0.0
 10
50.7374566726689
 20
-6.980953271496685
 30
0.0
 10
50.80432204333407
 20
-6.549229289543525
 30
0.0
 10
50.80793227304133
 20
-6.063820818229004
 30
0.0
  0
SPLINE
  5
166E
330
162F
100
AcDbEntity
  8
0
100
AcDbSpline
210
0.0
220
0.0
230
1.0
 70
     8
 71
     2
 72
     6
 73
     3
 74
     0
 42
0.000000001
 43
0.0000000001
 40
0.0
 40
0.0
 40
0.0
 40
1.0
 40
1.0
 40
1.0
 10
41.54579374891394
 20
-12.14149483556684
 30
0.0
 10
42.57470886211351
 20
-4.281847927959256
 30
0.0
 10
50.80793227296396
 20
-6.063820818323897
 30
0.0
  0
ELLIPSE
  5
166F
330
162F
100
AcDbEntity
  8
0
100
AcDbEllipse
 10
39.42447340535426
 20
-13.3662397069584
 30
0.0
 11
-2.974619186296043
 21
0.3894107041665368
 31
0.0
210
0.0
220
0.0
230
1.0
 40
0.6520831633610856
 41
3.544678169961283
 42
4.007259574309322
  0
ELLIPSE
  5
1670
330
162F
100
AcDbEntity
  8
0
100
AcDbEllipse
 10
39.42447340535426
 20
-13.36623970695841
 30
0.0
 11
5.949238372592033
 21
-0.7788214083334775
 31
0.0
210
0.0
220
0.0
230
1.0
 40
0.6520831633610854
 41
5.71634074729844
 42
6.217776105829574
  0
SPLINE
  5
1671
330
162F
100
AcDbEntity
  8
0
100
AcDbSpline
210
0.0
220
0.0
230
1.0
 70
     8
 71
     3
 72
    20
 73
    16
 74
     0
 42
0.000000001
 43
0.0000000001
 40
-1.0
 40
-1.0
 40
-1.0
 40
-1.0
 40
-0.8557507846688567
 40
-0.8557507846688567
 40
-0.8557507846688567
 40
-0.4725410755545677
 40
-0.4725410755545677
 40
-0.4725410755545677
 40
-0.2262668722283631
 40
-0.2262668722283631
 40
-0.2262668722283631
 40
-0.054508876044864
 40
-0.054508876044864
 40
-0.054508876044864
 40
0.0
 40
0.0
 40
0.0
 40
0.0
 10
52.92925261652364
 20
-4.839075946932309
 30
0.0
 10
52.92640404166867
 20
-5.642308781894431
 30
0.0
 10
52.72573308477567
 20
-6.403046472393256
 30
0.0
 10
52.35836621011069
 20
-7.104698862599416
 30
0.0
 10
51.38242639057398
 20
-8.968695195147926
 30
0.0
 10
49.34161647342818
 20
-10.44330310767824
 30
0.0
 10
47.27109969166373
 20
-11.93778127313698
 30
0.0
 10
45.94045785568012
 20
-12.89822515238374
 30
0.0
 10
44.59885474694957
 20
-13.86115014629143
 30
0.0
 10
43.53037638922544
 20
-14.9266107458043
 30
0.0
 10
42.78519195979882
 20
-15.66969051263804
 30
0.0
 10
42.16431326392015
 20
-16.47672021154945
 30
0.0
 10
41.78393907422311
 20
-17.35730760649848
 30
0.0
 10
41.66322405647971
 20
-17.63676958337591
 30
0.0
 10
41.5702402588594
 20
-17.92256293667534
 30
0.0
 10
41.49708693600742
 20
-18.21271635391751
 30
0.0
  0
LINE
  5
1672
330
162F
100
AcDbEntity
  8
0
100
AcDbLine
 10
44.17054323123743
 20
-16.10638439852483
 30
0.0
 11
41.49708693608306
 21
-18.21271635400065
 31
0.0
  0
LINE
  5
1673
330
162F
100
AcDbEntity
  8
0
100
AcDbLine
 10
41.49708693608311
 20
-18.21271635400065
 30
0.0
 11
41.00349618722876
 21
-17.83112208234076
 31
0.0
  0
LINE
  5
1674
330
162F
100
AcDbEntity
  8
0
100
AcDbLine
 10
50.80793227296398
 20
-6.063820818323906
 30
0.0
 11
52.92925261652363
 21
-4.839075946932318
 31
0.0
  0
LINE
  5
1675
330
162F
100
AcDbEntity
  8
0
100
AcDbLine
 10
40.84918860207068
 20
-17.71182711843256
 30
0.0
 11
39.42163512912878
 21
-16.608187657954
 31
0.0
  0
LINE
  5
1676
330
162F
100
AcDbEntity
  8
0
100
AcDbLine
 10
41.00349618722876
 20
-17.83112208234076
 30
0.0
 11
40.84918860207068
 21
-17.71182711843256
 31
0.0
  0
SPLINE
  5
1677
330
162F
100
AcDbEntity
  8
0
100
AcDbSpline
210
0.0
220
0.0
230
1.0
 70
     8
 71
     3
 72
    16
 73
    12
 74
     0
 42
0.000000001
 43
0.0000000001
 40
0.0012976586398881
 40
0.0012976586398881
 40
0.0012976586398881
 40
0.0012976586398881
 40
0.152185046384971
 40
0.152185046384971
 40
0.2383249427251496
 40
0.2383249427251496
 40
0.2860936239289902
 40
0.2860936239289902
 40
0.3648491166049024
 40
0.3648491166049024
 40
0.3700903795900294
 40
0.3700903795900294
 40
0.3700903795900294
 40
0.3700903795900294
 10
41.28416478420063
 20
-13.83044190263087
 30
0.0
 10
41.63035702910086
 20
-13.54815790647438
 30
0.0
 10
41.96147258340644
 20
-13.26358689313541
 30
0.0
 10
42.37018827574694
 20
-12.85240732364121
 30
0.0
 10
42.49684642716208
 20
-12.70902460178812
 30
0.0
 10
42.64009759973617
 20
-12.52613009456099
 30
0.0
 10
42.6812296787757
 20
-12.46836270933661
 30
0.0
 10
42.76217735608797
 20
-12.34620508261923
 30
0.0
 10
42.78410955974996
 20
-12.30181708072924
 30
0.0
 10
42.7866816441732
 20
-12.29650198140441
 30
0.0
 10
42.78676027678861
 20
-12.29633590136694
 30
0.0
 10
42.78676027679115
 20
-12.29633590136155
 30
0.0
  0
SPLINE
  5
1678
330
162F
100
AcDbEntity
  8
0
100
AcDbSpline
210
0.0
220
0.0
230
1.0
 70
     8
 71
     3
 72
    10
 73
     6
 74
     0
 42
0.000000001
 43
0.0000000001
 40
0.6267710595577034
 40
0.6267710595577034
 40
0.6267710595577034
 40
0.6267710595577034
 40
0.7266617872936086
 40
0.7266617872936086
 40
0.8486306995655988
 40
0.8486306995655988
 40
0.8486306995655988
 40
0.8486306995655988
 10
45.65913360169554
 20
-13.11931191117455
 30
0.0
 10
45.61205382386083
 20
-13.27153046669474
 30
0.0
 10
45.56172937443772
 20
-13.4515633017194
 30
0.0
 10
45.45026339588432
 20
-13.88065622071449
 30
0.0
 10
45.38937384401865
 20
-14.13430744097616
 30
0.0
 10
45.32776611221708
 20
-14.39695665844209
 30
0.0
  0
ELLIPSE
  5
1679
330
162F
100
AcDbEntity
  8
0
100
AcDbEllipse
 10
3.003468594513494
 20
-76.44927050204514
 30
0.0
 11
3.649098310923982
 21
-4.762780859667152
 31
0.0
210
0.0
220
0.0
230
1.0
 40
0.6520831633610851
 41
0.0654092013500112
 42
0.5668445598811421
  0
LINE
  5
167A
330
162F
100
AcDbEntity
  8
0
100
AcDbLine
 10
8.236947255064492
 20
-75.82096814836252
 30
0.0
 11
7.749538420396664
 21
-79.18941519361155
 31
0.0
  0
SPLINE
  5
167B
330
162F
100
AcDbEntity
  8
0
100
AcDbSpline
210
0.0
220
0.0
230
1.0
 70
     8
 71
     3
 72
    20
 73
    16
 74
     0
 42
0.000000001
 43
0.0000000001
 40
-1.0
 40
-1.0
 40
-1.0
 40
-1.0
 40
-0.8557507846688567
 40
-0.8557507846688567
 40
-0.8557507846688567
 40
-0.4725410755545677
 40
-0.4725410755545677
 40
-0.4725410755545677
 40
-0.2262668722283631
 40
-0.2262668722283631
 40
-0.2262668722283631
 40
-0.054508876044864
 40
-0.054508876044864
 40
-0.054508876044864
 40
0.0
 40
0.0
 40
0.0
 40
0.0
 10
2.37111776168549
 20
-92.40833425143081
 30
0.0
 10
3.065313514488998
 20
-92.00425089576079
 30
0.0
 10
3.623796201630784
 20
-91.45009590404029
 30
0.0
 10
4.047761558842912
 20
-90.78112066296846
 30
0.0
 10
5.174059825622592
 20
-89.00393382041063
 30
0.0
 10
5.430702779922489
 20
-86.49923663160198
 30
0.0
 10
5.689700445728695
 20
-83.95887741690259
 30
0.0
 10
5.856148326073871
 20
-82.32628584397904
 30
0.0
 10
6.019264278371627
 20
-80.68296097306836
 30
0.0
 10
6.407741045419097
 20
-79.22490127212896
 30
0.0
 10
6.678674785822029
 20
-78.20801274232401
 30
0.0
 10
7.06714365874848
 20
-77.26680116956882
 30
0.0
 10
7.639567618178175
 20
-76.49709376087274
 30
0.0
 10
7.821231280674147
 20
-76.25282050044996
 30
0.0
 10
8.022243686054046
 20
-76.02939749292071
 30
0.0
 10
8.236947254954642
 20
-75.82096814833857
 30
0.0
  0
SPLINE
  5
167C
330
162F
100
AcDbEntity
  8
0
100
AcDbSpline
210
0.0
220
0.0
230
1.0
 70
     8
 71
     3
 72
    20
 73
    16
 74
     0
 42
0.000000001
 43
0.0000000001
 40
-1.0
 40
-1.0
 40
-1.0
 40
-1.0
 40
-0.8565140843578728
 40
-0.8565140843578728
 40
-0.8565140843578728
 40
-0.5402558541810202
 40
-0.5402558541810202
 40
-0.5402558541810202
 40
-0.2701279270905101
 40
-0.2701279270905101
 40
-0.2701279270905101
 40
-0.0852549168068872
 40
-0.0852549168068872
 40
-0.0852549168068872
 40
0.0
 40
0.0
 40
0.0
 40
0.0
 10
5.809658739709817
 20
-74.82583850723308
 30
0.0
 10
5.244328772479134
 20
-75.37121829940088
 30
0.0
 10
4.845873682005223
 20
-76.02019543582883
 30
0.0
 10
4.601591612388888
 20
-76.73477634495315
 30
0.0
 10
4.063167930489059
 20
-78.3097887259696
 30
0.0
 10
4.191286105200324
 20
-80.19110077408463
 30
0.0
 10
4.349321470328844
 20
-82.07317427350965
 30
0.0
 10
4.484305358543503
 20
-83.68072330945842
 30
0.0
 10
4.644539008839094
 20
-85.25321340654134
 30
0.0
 10
4.44433646413517
 20
-86.64228201157149
 30
0.0
 10
4.307319727270888
 20
-87.59294748799351
 30
0.0
 10
3.993338062482902
 20
-88.44605618757027
 30
0.0
 10
3.40257341055778
 20
-89.12578500200073
 30
0.0
 10
3.130139964620712
 20
-89.43924462185874
 30
0.0
 10
2.789688714158895
 20
-89.71301372246484
 30
0.0
 10
2.371117761641978
 20
-89.95884450876207
 30
0.0
  0
ELLIPSE
  5
167D
330
162F
100
AcDbEntity
  8
0
100
AcDbEllipse
 10
3.003468594513503
 20
-76.44927050204514
 30
0.0
 11
1.824549155461987
 21
-2.381390429833577
 31
0.0
210
0.0
220
0.0
230
1.0
 40
0.6520831633610854
 41
5.417518386459805
 42
5.880099790805429
  0
SPLINE
  5
167E
330
162F
100
AcDbEntity
  8
0
100
AcDbSpline
210
0.0
220
0.0
230
1.0
 70
     8
 71
     2
 72
     6
 73
     3
 74
     0
 42
0.000000001
 43
0.0000000001
 40
0.0
 40
0.0
 40
0.0
 40
1.0
 40
1.0
 40
1.0
 10
3.003468594513503
 20
-78.8987602448283
 30
0.0
 10
-3.288727735650693
 20
-83.71965032500069
 30
0.0
 10
2.371117761685472
 20
-89.95884450864764
 30
0.0
  0
LINE
  5
167F
330
162F
100
AcDbEntity
  8
0
100
AcDbLine
 10
7.659681547451118
 20
-75.58430315661569
 30
0.0
 11
8.236947255064492
 21
-75.82096814836254
 31
0.0
  0
LINE
  5
1680
330
162F
100
AcDbEntity
  8
0
100
AcDbLine
 10
7.479215285563372
 20
-75.51031634981779
 30
0.0
 11
7.659681547451118
 21
-75.58430315661569
 31
0.0
  0
LINE
  5
1681
330
162F
100
AcDbEntity
  8
0
100
AcDbLine
 10
5.809658739709813
 20
-74.82583850723308
 30
0.0
 11
7.479215285563372
 21
-75.51031634981779
 31
0.0
  0
SPLINE
  5
1682
330
162F
100
AcDbEntity
  8
0
100
AcDbSpline
210
0.0
220
0.0
230
1.0
 70
     8
 71
     3
 72
     8
 73
     4
 74
     0
 42
0.000000001
 43
0.0000000001
 40
0.0
 40
0.0
 40
0.0
 40
0.0
 40
0.2216069269804223
 40
0.2216069269804223
 40
0.2216069269804223
 40
0.2216069269804223
 10
6.847742012040956
 20
-81.0463134764219
 30
0.0
 10
6.49043326024953
 20
-81.38185822591951
 30
0.0
 10
6.14679531676995
 20
-81.71322606019636
 30
0.0
 10
5.906952948634884
 20
-81.97210851393215
 30
0.0
  0
SPLINE
  5
1683
330
162F
100
AcDbEntity
  8
0
100
AcDbSpline
210
0.0
220
0.0
230
1.0
 70
     8
 71
     3
 72
    16
 73
    12
 74
     0
 42
0.000000001
 43
0.0000000001
 40
0.3455872360493983
 40
0.3455872360493983
 40
0.3455872360493983
 40
0.3455872360493983
 40
0.4291228026468953
 40
0.4291228026468953
 40
0.5038382925735264
 40
0.5038382925735264
 40
0.5839347611200532
 40
0.5839347611200532
 40
0.6898113605435956
 40
0.6898113605435956
 40
0.714540783876174
 40
0.714540783876174
 40
0.714540783876174
 40
0.714540783876174
 10
3.758048154979873
 20
-79.89604825031808
 30
0.0
 10
3.758048139884397
 20
-79.89604827214932
 30
0.0
 10
3.786016147751944
 20
-79.85556290772662
 30
0.0
 10
3.867462779181529
 20
-79.69225755852725
 30
0.0
 10
3.917689044503376
 20
-79.57756793320569
 30
0.0
 10
4.021595501884154
 20
-79.28576976477565
 30
0.0
 10
4.076039364628405
 20
-79.10291176120948
 30
0.0
 10
4.19046706466446
 20
-78.64103433568821
 30
0.0
 10
4.247807289150191
 20
-78.34693961934753
 30
0.0
 10
4.31176905936951
 20
-77.97169235696627
 30
0.0
 10
4.32363188381108
 20
-77.89995619714305
 30
0.0
 10
4.335325405510666
 20
-77.827707958421
 30
0.0
  0
LINE
  5
1684
330
162F
100
AcDbEntity
  8
0
100
AcDbLine
 10
2.371117761685472
 20
-89.95884450864764
 30
0.0
 11
2.371117761685472
 21
-92.4083342514308
 31
0.0
  0
LINE
  5
1685
330
162F
100
AcDbEntity
  8
0
100
AcDbLine
 10
-2.225076316027139
 20
-95.06194813944594
 30
0.0
 11
2.371117761685486
 21
-92.4083342514308
 31
0.0
  0
LINE
  5
1686
330
162F
100
AcDbEntity
  8
0
100
AcDbLine
 10
-43.59082301544008
 20
-63.42270562849652
 30
0.0
 11
-48.1870170931527
 21
-66.07631951651166
 31
0.0
  0
LINE
  5
1687
330
162F
100
AcDbEntity
  8
0
100
AcDbLine
 10
-2.225076316027139
 20
-92.61245839666276
 30
0.0
 11
2.371117761685486
 21
-89.95884450864762
 31
0.0
  0
LINE
  5
1688
330
162F
100
AcDbEntity
  8
0
100
AcDbLine
 10
-2.225076316027139
 20
-95.06194813944594
 30
0.0
 11
-2.225076316027139
 21
-92.61245839666276
 31
0.0
  0
SPLINE
  5
1689
330
162F
100
AcDbEntity
  8
0
100
AcDbSpline
210
0.0
220
0.0
230
1.0
 70
     8
 71
     3
 72
    17
 73
    13
 74
     0
 42
0.000000001
 43
0.0000000001
 40
-0.4749267643667511
 40
-0.4749267643667511
 40
-0.4749267643667511
 40
-0.4749267643667511
 40
-0.4725410755545677
 40
-0.4725410755545677
 40
-0.4725410755545677
 40
-0.2262668722283631
 40
-0.2262668722283631
 40
-0.2262668722283631
 40
-0.054508876044864
 40
-0.054508876044864
 40
-0.054508876044864
 40
0.0
 40
0.0
 40
0.0
 40
0.0
 10
-35.66985083446562
 20
-60.13016311501551
 30
0.0
 10
-35.65768613088188
 20
-60.12044328730113
 30
0.0
 10
-35.64552056854268
 20
-60.11072247507524
 30
0.0
 10
-35.63335414414578
 20
-60.10100072570093
 30
0.0
 10
-34.37741646259536
 20
-59.09742638278256
 30
0.0
 10
-33.11515511842632
 20
-58.08869339974733
 30
0.0
 10
-31.85316562216549
 20
-57.1349565081598
 30
0.0
 10
-30.97302152199242
 20
-56.46979574356127
 30
0.0
 10
-30.07861614484097
 20
-55.82068674771324
 30
0.0
 10
-29.20191849768734
 20
-55.22665183453191
 30
0.0
 10
-28.9236909656983
 20
-55.03812975015493
 30
0.0
 10
-28.64887907153345
 20
-54.85731489734172
 30
0.0
 10
-28.37790417524601
 20
-54.68137381877403
 30
0.0
  0
SPLINE
  5
168A
330
162F
100
AcDbEntity
  8
0
100
AcDbSpline
210
0.0
220
0.0
230
1.0
 70
     8
 71
     3
 72
    20
 73
    16
 74
     0
 42
0.000000001
 43
0.0000000001
 40
-1.0
 40
-1.0
 40
-1.0
 40
-1.0
 40
-0.8565140843578728
 40
-0.8565140843578728
 40
-0.8565140843578728
 40
-0.5402558541810202
 40
-0.5402558541810202
 40
-0.5402558541810202
 40
-0.2701279270905101
 40
-0.2701279270905101
 40
-0.2701279270905101
 40
-0.0852549168068872
 40
-0.0852549168068872
 40
-0.0852549168068872
 40
0.0
 40
0.0
 40
0.0
 40
0.0
 10
-26.54881108378323
 20
-56.14366724407496
 30
0.0
 10
-27.26227373489776
 20
-56.60352259132664
 30
0.0
 10
-28.03613236100304
 20
-57.03576039540306
 30
0.0
 10
-28.83749433548757
 20
-57.42871107149162
 30
0.0
 10
-30.60378142120833
 20
-58.29481618578395
 30
0.0
 10
-32.50344733806482
 20
-59.0053865427739
 30
0.0
 10
-34.42109918351264
 20
-59.68906147241921
 30
0.0
 10
-36.05903700920159
 20
-60.2730136795936
 30
0.0
 10
-37.67442713228563
 20
-60.8203469131363
 30
0.0
 10
-39.23901977045465
 20
-61.4216845304247
 30
0.0
 10
-40.30981224275236
 20
-61.8332343346315
 30
0.0
 10
-41.34584474333971
 20
-62.26946678979089
 30
0.0
 10
-42.30144947451474
 20
-62.73855508625523
 30
0.0
 10
-42.74213035990526
 20
-62.95487700165434
 30
0.0
 10
-43.16496704901368
 20
-63.1810808470805
 30
0.0
 10
-43.59082301548565
 20
-63.42270562860975
 30
0.0
  0
SPLINE
  5
168B
330
162F
100
AcDbEntity
  8
0
100
AcDbSpline
210
0.0
220
0.0
230
1.0
 70
     8
 71
     2
 72
     6
 73
     3
 74
     0
 42
0.000000001
 43
0.0000000001
 40
0.0
 40
0.0
 40
0.0
 40
1.0
 40
1.0
 40
1.0
 10
-24.43419513451202
 20
-63.057617704941
 30
0.0
 10
-32.78422169107535
 20
-66.69041894995524
 30
0.0
 10
-43.59082301544008
 20
-63.4227056284965
 30
0.0
  0
ELLIPSE
  5
168C
330
162F
100
AcDbEntity
  8
0
100
AcDbEllipse
 10
-24.434195134512
 20
-60.60812796215781
 30
0.0
 11
1.196830787170336
 21
-2.750926401574792
 31
0.0
210
0.0
220
0.0
230
0.9999999999999998
 40
0.4913799087545871
 41
4.125987410474323
 42
5.558498891075151
  0
LINE
  5
168D
330
162F
100
AcDbEntity
  8
0
100
AcDbLine
 10
-26.54881108378325
 20
-56.14366724407495
 30
0.0
 11
-26.22240520419448
 21
-59.57570439705904
 31
0.0
  0
LINE
  5
168E
330
162F
100
AcDbEntity
  8
0
100
AcDbLine
 10
-28.37790417529677
 20
-54.68137381870527
 30
0.0
 11
-27.94290326333926
 21
-55.02914123225935
 31
0.0
  0
LINE
  5
168F
330
162F
100
AcDbEntity
  8
0
100
AcDbLine
 10
-27.80691218078684
 20
-55.13786115846102
 30
0.0
 11
-26.54881108378326
 21
-56.14366724407496
 31
0.0
  0
LINE
  5
1690
330
162F
100
AcDbEntity
  8
0
100
AcDbLine
 10
-27.94290326333926
 20
-55.02914123225935
 30
0.0
 11
-27.80691218078684
 21
-55.13786115846102
 31
0.0
  0
LINE
  5
1691
330
162F
100
AcDbEntity
  8
0
100
AcDbLine
 10
44.17054323123743
 20
-16.10638439852482
 30
0.0
 11
39.44941432342878
 21
-52.1700068924028
 31
0.0
  0
ELLIPSE
  5
1692
330
162F
100
AcDbEntity
  8
0
100
AcDbEllipse
 10
34.7033444975456
 20
-49.42986220083639
 30
0.0
 11
5.949238372592027
 21
-0.7788214083334763
 31
0.0
210
0.0
220
0.0
230
1.0
 40
0.6520831633610851
 41
5.716340747298442
 42
6.283185307179587
  0
ELLIPSE
  5
1693
330
162F
100
AcDbEntity
  8
0
100
AcDbEllipse
 10
31.87491737279942
 20
-54.32884168640274
 30
0.0
 11
3.649098310923978
 21
-4.762780859667151
 31
0.0
210
0.0
220
0.0
230
1.0
 40
0.6520831633610852
 41
0.0
 42
0.5668445598811438
  0
ELLIPSE
  5
1694
330
162F
100
AcDbEntity
  8
0
100
AcDbEllipse
 10
37.0184967076893
 20
-54.03250227628872
 30
0.0
 11
-1.999999999999999
 21
-3.464101615137753
 31
0.0
210
0.0
220
0.0
230
1.0
 40
0.415067691694505
 41
0.7853981633974483
 42
2.356194490192345
  0
LINE
  5
1695
330
162F
100
AcDbEntity
  8
0
100
AcDbLine
 10
36.62098719868259
 20
-57.06898637796917
 30
0.0
 11
7.749538420396673
 21
-79.18941519361155
 31
0.0
  0
LINE
  5
1696
330
162F
100
AcDbEntity
  8
0
100
AcDbLine
 10
45.35698021672402
 20
-14.27286967960683
 30
0.0
 11
40.65258287013763
 21
-50.20868360916986
 31
0.0
  0
SPLINE
  5
1697
330
162F
100
AcDbEntity
  8
0
100
AcDbSpline
210
0.0
220
0.0
230
1.0
 70
     8
 71
     3
 72
    16
 73
    12
 74
     0
 42
0.000000001
 43
0.0000000001
 40
-0.7853981633974485
 40
-0.7853981633974485
 40
-0.7853981633974485
 40
-0.7853981633974485
 40
-0.4712388980384692
 40
-0.4712388980384692
 40
-0.1570796326794899
 40
-0.1570796326794899
 40
0.1570796326794894
 40
0.1570796326794894
 40
0.4712388980384688
 40
0.4712388980384688
 40
0.785398163397448
 40
0.785398163397448
 40
0.785398163397448
 40
0.785398163397448
 10
40.65258287013763
 20
-50.20868360916986
 30
0.0
 10
40.5532015642634
 20
-50.96783464443788
 30
0.0
 10
40.38169610436805
 20
-51.65764738959078
 30
0.0
 10
39.95024200283623
 20
-52.98091881964726
 30
0.0
 10
39.68817782497877
 20
-53.61239404839112
 30
0.0
 10
39.08619553656478
 20
-54.83369663373963
 30
0.0
 10
38.74620078904829
 20
-55.42258481074476
 30
0.0
 10
37.98951286863586
 20
-56.5545680578138
 30
0.0
 10
37.57367136761181
 20
-57.09725990763218
 30
0.0
 10
36.64341174384666
 20
-58.13254583515398
 30
0.0
 10
36.13176911263764
 20
-58.62598029288754
 30
0.0
 10
35.52401568372339
 20
-59.09162254606989
 30
0.0
  0
LINE
  5
1698
330
162F
100
AcDbEntity
  8
0
100
AcDbLine
 10
35.52401568372339
 20
-59.09162254606989
 30
0.0
 11
6.754886588343973
 21
-81.1336571224916
 31
0.0
  0
LINE
  5
1699
330
162F
100
AcDbEntity
  8
0
100
AcDbLine
 10
47.97950514821778
 20
74.36109240305717
 30
0.0
 11
11.91705930770387
 21
95.18175521671421
 31
0.0
  0
LINE
  5
169A
330
162F
100
AcDbEntity
  8
0
100
AcDbLine
 10
45.85818480465813
 20
73.13634753166557
 30
0.0
 11
9.795738964144234
 21
93.9570103453226
 31
0.0
  0
LINE
  5
169B
330
162F
100
AcDbEntity
  8
0
100
AcDbLine
 10
47.97950514821778
 20
74.36109240305717
 30
0.0
 11
45.85818480465813
 21
73.13634753166557
 31
0.0
  0
LINE
  5
169C
330
162F
100
AcDbEntity
  8
0
100
AcDbLine
 10
9.795738964144234
 20
93.9570103453226
 30
0.0
 11
11.91705930770388
 21
95.18175521671421
 31
0.0
  0
LINE
  5
169D
330
162F
100
AcDbEntity
  8
0
100
AcDbLine
 10
52.92925261652361
 20
65.78787830331606
 30
0.0
 11
47.97950514821778
 21
74.36109240305717
 31
0.0
  0
LINE
  5
169E
330
162F
100
AcDbEntity
  8
0
100
AcDbLine
 10
-12.1245712526388
 20
-95.06194813944592
 30
0.0
 11
-2.225076316027139
 21
-95.06194813944594
 31
0.0
  0
LINE
  5
169F
330
162F
100
AcDbEntity
  8
0
100
AcDbLine
 10
45.85818480465813
 20
73.13634753166557
 30
0.0
 11
50.80793227296396
 21
64.56313343192447
 31
0.0
  0
LINE
  5
16A0
330
162F
100
AcDbEntity
  8
0
100
AcDbLine
 10
4.845991495838402
 20
91.09927231207558
 30
0.0
 11
9.795738964144234
 21
93.9570103453226
 31
0.0
  0
LINE
  5
16A1
330
162F
100
AcDbEntity
  8
0
100
AcDbLine
 10
-48.1870170931527
 20
-71.79179558300574
 30
0.0
 11
-48.1870170931527
 21
-66.07631951651166
 31
0.0
  0
LINE
  5
16A2
330
162F
100
AcDbEntity
  8
0
100
AcDbLine
 10
-2.225076316027139
 20
-92.61245839666276
 30
0.0
 11
-12.1245712526388
 21
-92.61245839666276
 31
0.0
  0
LINE
  5
16A3
330
162F
100
AcDbEntity
  8
0
100
AcDbLine
 10
-12.1245712526388
 20
-92.61245839666276
 30
0.0
 11
-12.1245712526388
 21
-95.06194813944592
 31
0.0
  0
LINE
  5
16A4
330
162F
100
AcDbEntity
  8
0
100
AcDbLine
 10
-48.1870170931527
 20
-74.24128532578892
 30
0.0
 11
-48.1870170931527
 21
-71.79179558300574
 31
0.0
  0
LINE
  5
16A5
330
162F
100
AcDbEntity
  8
0
100
AcDbLine
 10
50.80793227296396
 20
64.56313343192447
 30
0.0
 11
52.92925261652361
 21
65.78787830331606
 31
0.0
  0
LINE
  5
16A6
330
162F
100
AcDbEntity
  8
0
100
AcDbLine
 10
-28.37790417529678
 20
-54.68137381870527
 30
0.0
 11
-4.990936368830323
 21
-39.71298007889961
 31
0.0
  0
ELLIPSE
  5
16A7
330
162F
100
AcDbEntity
  8
0
100
AcDbEllipse
 10
-8.559618109153085
 20
-27.71796541762907
 30
0.0
 11
7.499999999999993
 21
12.99038105676658
 31
0.0
210
0.0
220
0.0
230
1.0
 40
0.7396328466847472
 41
4.101523742186672
 42
5.323254218582704
  0
LINE
  5
16A8
330
162F
100
AcDbEntity
  8
0
100
AcDbLine
 10
3.612710176435389
 20
-24.81102713213499
 30
0.0
 11
4.882235505721874
 21
2.926877975656587
 31
0.0
  0
LINE
  5
16A9
330
162F
100
AcDbEntity
  8
0
100
AcDbLine
 10
24.60832068088276
 20
-56.8021191043644
 30
0.0
 11
26.77113494382112
 21
-58.05082050127904
 31
0.0
  0
LINE
  5
16AA
330
162F
100
AcDbEntity
  8
0
100
AcDbLine
 10
3.612710176435389
 20
-24.81102713213499
 30
0.0
 11
5.775524439373751
 21
-26.05972852904962
 31
0.0
  0
LINE
  5
16AB
330
162F
100
AcDbEntity
  8
0
100
AcDbLine
 10
-4.990936368830323
 20
-39.71298007889961
 30
0.0
 11
-2.828122105891961
 21
-40.96168147581423
 31
0.0
  0
LINE
  5
16AC
330
162F
100
AcDbEntity
  8
0
100
AcDbLine
 10
33.21196722614846
 20
-41.90016615759978
 30
0.0
 11
35.37478148908682
 21
-43.1488675545144
 31
0.0
  0
LINE
  5
16AD
330
162F
100
AcDbEntity
  8
0
100
AcDbLine
 10
18.53112679594207
 20
-35.19384847185599
 30
0.0
 11
14.10813001988845
 21
3.699647704320465
 31
0.0
  0
LINE
  5
16AE
330
162F
100
AcDbEntity
  8
0
100
AcDbLine
 10
41.54579374891389
 20
-12.14149483556682
 30
0.0
 11
41.32954528228851
 21
-13.79336734689753
 31
0.0
  0
LINE
  5
16AF
330
162F
100
AcDbEntity
  8
0
100
AcDbLine
 10
40.81959445276796
 20
-17.68876494467366
 30
0.0
 11
40.81957270004365
 21
-17.68893110875291
 31
0.0
  0
LINE
  5
16B0
330
162F
100
AcDbEntity
  8
0
100
AcDbLine
 10
7.444578808532771
 20
-75.49611623115064
 30
0.0
 11
7.44444578258113
 21
-75.49621815160211
 31
0.0
  0
LINE
  5
16B1
330
162F
100
AcDbEntity
  8
0
100
AcDbLine
 10
4.325907855143658
 20
-77.88554737309389
 30
0.0
 11
3.003468594513494
 21
-78.8987602448283
 31
0.0
  0
LINE
  5
16B2
330
162F
100
AcDbEntity
  8
0
100
AcDbLine
 10
10.19859960664635
 20
3.507326398027661
 30
0.0
 11
14.62159638269996
 21
-35.38616977814881
 31
0.0
  0
ELLIPSE
  5
16B3
330
162F
100
AcDbEntity
  8
0
100
AcDbEllipse
 10
16.40980645238243
 20
-36.41859334324758
 30
0.0
 11
-2.980787541290217
 21
-0.338977335066861
 31
0.0
210
0.0
220
0.0
230
1.0
 40
0.4913799087545882
 41
3.866279069693529
 42
5.298790550294562
  0
LINE
  5
16B4
330
162F
100
AcDbEntity
  8
0
100
AcDbLine
 10
9.671848914394125
 20
-43.95938387788993
 30
0.0
 11
-26.22240520419449
 21
-59.57570439705904
 31
0.0
  0
ELLIPSE
  5
16B5
330
162F
100
AcDbEntity
  8
0
100
AcDbEllipse
 10
8.976207273632375
 20
-37.84227892284253
 30
0.0
 11
-3.500000000000007
 21
-6.062177826491068
 31
0.0
210
0.0
220
0.0
230
0.9999999999999998
 40
0.739632846684747
 41
0.7853981633974483
 42
2.356194490192343
  0
LINE
  5
16B6
330
162F
100
AcDbEntity
  8
0
100
AcDbLine
 10
-24.43419513451202
 20
-63.057617704941
 30
0.0
 11
11.46005898407659
 21
-47.44129718577188
 31
0.0
  0
ELLIPSE
  5
16B7
330
162F
100
AcDbEntity
  8
0
100
AcDbEllipse
 10
10.76441734331484
 20
-38.8747024879413
 30
0.0
 11
5.000000000000007
 21
8.66025403784438
 31
0.0
210
0.0
220
0.0
230
0.9999999999999998
 40
0.6909480734362108
 41
3.926990816987242
 42
5.497787143782137
  0
ELLIPSE
  5
16B8
330
162F
100
AcDbEntity
  8
0
100
AcDbEllipse
 10
11.46005898407659
 20
-44.9918074429887
 30
0.0
 11
-1.196830787170057
 21
2.750926401574913
 31
0.0
210
0.0
220
0.0
230
1.0
 40
0.4913799087545866
 41
0.9843947568850222
 42
2.416906237486056
  0
LINE
  5
16B9
330
162F
100
AcDbEntity
  8
0
100
AcDbLine
 10
32.78409999737075
 20
-43.42280638645336
 30
0.0
 11
18.53112679594207
 21
-35.19384847185599
 31
0.0
  0
LINE
  5
16BA
330
162F
100
AcDbEntity
  8
0
100
AcDbLine
 10
11.46005898407659
 20
-47.44129718577188
 30
0.0
 11
25.71303218550526
 21
-55.67025510036926
 31
0.0
  0
LINE
  5
16BB
330
162F
100
AcDbEntity
  8
0
100
AcDbLine
 10
26.77113494382112
 20
-58.05082050127904
 30
0.0
 11
8.236947255064492
 21
-75.82096814836254
 31
0.0
  0
LINE
  5
16BC
330
162F
100
AcDbEntity
  8
0
100
AcDbLine
 10
41.49708693608309
 20
-18.21271635400062
 30
0.0
 11
35.37478148908682
 21
-43.1488675545144
 31
0.0
  0
ELLIPSE
  5
16BD
330
162F
100
AcDbEntity
  8
0
100
AcDbEllipse
 10
26.65618256507472
 20
-48.04981741662271
 30
0.0
 11
-7.49999999999998
 21
-12.99038105676659
 31
0.0
210
0.0
220
0.0
230
0.9999999999999998
 40
0.4150676916945048
 41
0.9599310885968748
 42
2.181661564992907
  0
ENDBLK
  5
1631
330
162F
100
AcDbEntity
  8
0
100
AcDbBlockEnd
  0
ENDSEC
  0
SECTION
  2
ENTITIES
  0
INSERT
  5
16BE
330
1F
100
AcDbEntity
  8
0
100
AcDbBlockReference
  2
AKR165X3-Front
 10
0.0
 20
0.0
 30
0.0
  0
INSERT
  5
16BF
330
1F
100
AcDbEntity
  8
0
100
AcDbBlockReference
  2
AKR165X3-Left
 10
82.00000939147155
 20
0.0
 30
0.0
  0
INSERT
  5
16C0
330
1F
100
AcDbEntity
  8
0
100
AcDbBlockReference
  2
AKR165X3-Right
 10
-82.00000939147155
 20
0.0
 30
0.0
  0
INSERT
  5
16C1
330
1F
100
AcDbEntity
  8
0
100
AcDbBlockReference
  2
AKR165X3-Top
 10
0.0
 20
-49.50000156524501
 30
0.0
  0
INSERT
  5
16C2
330
1F
100
AcDbEntity
  8
0
100
AcDbBlockReference
  2
AKR165X3-Bottom
 10
0.0
 20
214.5000093914701
 30
0.0
  0
INSERT
  5
16C3
330
1F
100
AcDbEntity
  8
0
100
AcDbBlockReference
  2
AKR165X3-ISO
 10
130.1870186583992
 20
-144.6817567819592
 30
0.0
  0
MTEXT
  5
16C4
330
1F
100
AcDbEntity
  8
0
100
AcDbMText
 10
0.0
 20
-184.00000313049
 30
0.0
 40
12.61538485619177
 41
0.0
 71
     5
 72
     5
  1
AKR165X3L
 73
     1
 44
1.0
1001
ACAD
1000
MTEXTBEGIN
1070
    73
1070
     1
1070
    44
1040
1.0
1070
    74
1070
     0
1000
MTEXTEND
  0
ENDSEC
  0
SECTION
  2
OBJECTS
  0
DICTIONARY
  5
C
330
0
100
AcDbDictionary
281
     1
  3
ACAD_CIP_PREVIOUS_PRODUCT_INFO
350
216
  3
ACAD_COLOR
350
6B
  3
ACAD_DETAILVIEWSTYLE
350
21B
  3
ACAD_GROUP
350
D
  3
ACAD_LAYOUT
350
1A
  3
ACAD_MATERIAL
350
6A
  3
ACAD_MLEADERSTYLE
350
12D
  3
ACAD_MLINESTYLE
350
17
  3
ACAD_PLOTSETTINGS
350
19
  3
ACAD_PLOTSTYLENAME
350
E
  3
ACAD_SCALELIST
350
10C
  3
ACAD_SECTIONVIEWSTYLE
350
219
  3
ACAD_TABLESTYLE
350
7E
  3
ACAD_VISUALSTYLE
350
EF
  3
ACDB_RECOMPOSE_DATA
350
17C5
  3
AcDbVariableDictionary
350
5E
  3
DWGPROPS
350
17C6
  0
DICTIONARY
  5
1715
330
8
100
AcDbDictionary
280
     1
281
     1
  0
DICTIONARY
  5
1FF
330
2
100
AcDbDictionary
280
     1
281
     1
  3
ACAD_LAYERSTATES
360
200
  0
DICTIONARY
  5
13C
330
10
100
AcDbDictionary
280
     1
281
     1
  0
DICTIONARY
  5
1CE
330
1F
100
AcDbDictionary
280
     1
281
     1
  3
ACAD_LAYOUTSELFREF
360
171D
  0
DICTIONARY
  5
16C8
330
D2
100
AcDbDictionary
280
     1
281
     1
  3
ACAD_LAYOUTSELFREF
360
1726
  0
DICTIONARY
  5
16CA
330
D6
100
AcDbDictionary
280
     1
281
     1
  3
ACAD_LAYOUTSELFREF
360
1729
  0
XRECORD
  5
216
102
{ACAD_REACTORS
330
C
102
}
330
C
100
AcDbXrecord
280
     1
300
ACD
300
2021
300
87393ACD_2021_0F
  0
DICTIONARY
  5
6B
102
{ACAD_REACTORS
330
C
102
}
330
C
100
AcDbDictionary
281
     1
  0
DICTIONARY
  5
21B
102
{ACAD_REACTORS
330
C
102
}
330
C
100
AcDbDictionary
281
     1
  3
Metric50
350
21C
  0
DICTIONARY
  5
D
102
{ACAD_REACTORS
330
C
102
}
330
C
100
AcDbDictionary
281
     1
  0
DICTIONARY
  5
1A
102
{ACAD_REACTORS
330
C
102
}
330
C
100
AcDbDictionary
281
     1
  3
Layout1
350
D3
  3
Layout2
350
D7
  3
Model
350
22
  0
DICTIONARY
  5
6A
102
{ACAD_REACTORS
330
C
102
}
330
C
100
AcDbDictionary
281
     1
  3
ByBlock
350
ED
  3
ByLayer
350
EC
  3
Global
350
EE
  0
DICTIONARY
  5
12D
102
{ACAD_REACTORS
330
C
102
}
330
C
100
AcDbDictionary
281
     1
  3
Standard
350
12E
  0
DICTIONARY
  5
17
102
{ACAD_REACTORS
330
C
102
}
330
C
100
AcDbDictionary
281
     1
  3
Standard
350
18
  0
DICTIONARY
  5
19
102
{ACAD_REACTORS
330
C
102
}
330
C
100
AcDbDictionary
281
     1
  0
ACDBDICTIONARYWDFLT
  5
E
102
{ACAD_REACTORS
330
C
102
}
330
C
100
AcDbDictionary
281
     1
  3
Normal
350
F
100
AcDbDictionaryWithDefault
340
F
  0
DICTIONARY
  5
10C
102
{ACAD_REACTORS
330
C
102
}
330
C
100
AcDbDictionary
281
     1
  3
A0
350
10D
  3
A1
350
1BE
  3
A2
350
1BF
  3
A3
350
1C0
  3
A4
350
1C1
  3
A5
350
1C2
  3
A6
350
1C3
  3
A7
350
1C4
  3
A8
350
1C5
  3
A9
350
1C6
  3
B0
350
1C7
  3
B1
350
1C8
  3
B2
350
1C9
  3
B3
350
1CA
  3
B4
350
1CB
  3
B5
350
1CC
  3
B6
350
1CD
  0
DICTIONARY
  5
219
102
{ACAD_REACTORS
330
C
102
}
330
C
100
AcDbDictionary
281
     1
  3
Metric50
350
21A
  0
DICTIONARY
  5
7E
102
{ACAD_REACTORS
330
C
102
}
330
C
100
AcDbDictionary
281
     1
  3
Standard
350
7F
  0
DICTIONARY
  5
EF
102
{ACAD_REACTORS
330
C
102
}
330
C
100
AcDbDictionary
281
     1
  3
2dWireframe
350
F5
  3
Basic
350
F4
  3
Brighten
350
FB
  3
ColorChange
350
FF
  3
Conceptual
350
F8
  3
Dim
350
FA
  3
EdgeColorOff
350
1E6
  3
Facepattern
350
FE
  3
Flat
350
F0
  3
FlatWithEdges
350
F1
  3
Gouraud
350
F2
  3
GouraudWithEdges
350
F3
  3
Hidden
350
F7
  3
JitterOff
350
1E4
  3
Linepattern
350
FD
  3
OverhangOff
350
1E5
  3
Realistic
350
F9
  3
Shaded
350
1F3
  3
Shaded with edges
350
1F2
  3
Shades of Gray
350
1EF
  3
Sketchy
350
1F0
  3
Thicken
350
FC
  3
Wireframe
350
F6
  3
X-Ray
350
1F1
  0
XRECORD
  5
17C5
102
{ACAD_REACTORS
330
C
102
}
330
C
100
AcDbXrecord
280
     1
 90
        1
330
7F
  0
DICTIONARY
  5
5E
102
{ACAD_REACTORS
330
C
102
}
330
C
100
AcDbDictionary
281
     1
  3
CANNOSCALE
350
146
  3
CENTEREXE
350
259
  3
CENTERLTYPEFILE
350
25A
  3
CMLEADERSTYLE
350
145
  3
CTABLESTYLE
350
84
  3
CVIEWDETAILSTYLE
350
227
  3
CVIEWSECTIONSTYLE
350
228
  3
DIMASSOC
350
5F
  3
HIDETEXT
350
63
  3
INDEXCTL
350
1772
  3
LAYEREVAL
350
1AE
  3
LAYERNOTIFY
350
1AF
  3
LIGHTINGUNITS
350
1770
  3
MSLTSCALE
350
176F
  3
PSOLHEIGHT
350
17C2
  3
PSOLWIDTH
350
17C1
  3
SORTENTS
350
1771
  3
XCLIPFRAME
350
17C3
  0
XRECORD
  5
17C6
102
{ACAD_REACTORS
330
C
102
}
330
C
100
AcDbXrecord
280
     1
  1
DWGPROPS COOKIE
  2

  3

  4

  6

  7

  8
tronnguyen
  9

300
=
301
=
302
=
303
=
304
=
305
=
306
=
307
=
308
=
309
=
 40
0.6775694444444445
 41
2460572.688854167
 42
2460573.368842593
  1

 90
        0
  0
DICTIONARY
  5
200
102
{ACAD_REACTORS
330
1FF
102
}
330
1FF
100
AcDbDictionary
281
     1
  0
XRECORD
  5
171D
102
{ACAD_REACTORS
330
1CE
102
}
330
1CE
100
AcDbXrecord
280
     1
340
1F
  0
XRECORD
  5
1726
102
{ACAD_REACTORS
330
16C8
102
}
330
16C8
100
AcDbXrecord
280
     1
340
D2
  0
XRECORD
  5
1729
102
{ACAD_REACTORS
330
16CA
102
}
330
16CA
100
AcDbXrecord
280
     1
340
D6
  0
ACDBDETAILVIEWSTYLE
  5
21C
102
{ACAD_XDICTIONARY
360
1805
102
}
102
{ACAD_REACTORS
330
21B
102
}
330
21B
100
AcDbModelDocViewStyle
 70
     0
  3
Metric50
290
     0
100
AcDbDetailViewStyle
 70
     0
 71
     0
 90
        3
 71
     1
340
11
 40
5.0
340
0
 40
5.0
300

 40
0.0
280
     1
 71
     2
340
16
 90
       25
 71
     3
340
11
 40
5.0
 90
        0
 40
15.0
 90
        1
300
%<\AcVar ViewDetailId>% (%<\AcVar ViewScale \f "%sn">%)
 71
     4
340
16
 90
       25
340
16
 90
       25
280
     0
  0
LAYOUT
  5
D3
102
{ACAD_XDICTIONARY
360
17CA
102
}
102
{ACAD_REACTORS
330
1A
102
}
330
1A
100
AcDbPlotSettings
  1

  2
C:\Documents and Settings\basas\Application Data\Autodesk\AutoCAD 2005\R16.1\enu\plotters\Default Windows System Printer.pc3
  4

  6

 40
0.0
 41
0.0
 42
0.0
 43
0.0
 44
0.0
 45
0.0
 46
0.0
 47
0.0
 48
0.0
 49
0.0
140
0.0
141
0.0
142
1.0
143
1.0
 70
   688
 72
     0
 73
     0
 74
     5
  7

 75
    16
147
1.0
148
0.0
149
0.0
100
AcDbLayout
  1
Layout1
 70
     1
 71
     1
 10
0.0
 20
0.0
 11
12.0
 21
9.0
 12
0.0
 22
0.0
 32
0.0
 14
0.0
 24
0.0
 34
0.0
 15
0.0
 25
0.0
 35
0.0
146
0.0
 13
0.0
 23
0.0
 33
0.0
 16
1.0
 26
0.0
 36
0.0
 17
0.0
 27
1.0
 37
0.0
 76
     0
330
D2
  0
LAYOUT
  5
D7
102
{ACAD_XDICTIONARY
360
17CC
102
}
102
{ACAD_REACTORS
330
1A
102
}
330
1A
100
AcDbPlotSettings
  1

  2
C:\Documents and Settings\basas\Application Data\Autodesk\AutoCAD 2005\R16.1\enu\plotters\Default Windows System Printer.pc3
  4

  6

 40
0.0
 41
0.0
 42
0.0
 43
0.0
 44
0.0
 45
0.0
 46
0.0
 47
0.0
 48
0.0
 49
0.0
140
0.0
141
0.0
142
1.0
143
1.0
 70
   688
 72
     0
 73
     0
 74
     5
  7

 75
    16
147
1.0
148
0.0
149
0.0
100
AcDbLayout
  1
Layout2
 70
     1
 71
     2
 10
0.0
 20
0.0
 11
12.0
 21
9.0
 12
0.0
 22
0.0
 32
0.0
 14
0.0
 24
0.0
 34
0.0
 15
0.0
 25
0.0
 35
0.0
146
0.0
 13
0.0
 23
0.0
 33
0.0
 16
1.0
 26
0.0
 36
0.0
 17
0.0
 27
1.0
 37
0.0
 76
     0
330
D6
  0
LAYOUT
  5
22
102
{ACAD_XDICTIONARY
360
17C7
102
}
102
{ACAD_REACTORS
330
1A
102
}
330
1A
100
AcDbPlotSettings
  1

  2
none_device
  4
ISO_A4_(210.00_x_297.00_MM)
  6

 40
7.5
 41
20.0
 42
7.5
 43
20.0
 44
210.0
 45
297.0
 46
11.54999923706054
 47
-13.65000009536743
 48
0.0
 49
0.0
140
0.0
141
0.0
142
1.0
143
8.704084754739808
 70
 11952
 72
     1
 73
     0
 74
     0
  7

 75
     0
147
0.1148885871608098
148
0.0
149
0.0
100
AcDbLayout
  1
Model
 70
     1
 71
     0
 10
0.0
 20
0.0
 11
12.0
 21
9.0
 12
0.0
 22
0.0
 32
0.0
 14
0.0
 24
0.0
 34
0.0
 15
0.0
 25
0.0
 35
0.0
146
0.0
 13
0.0
 23
0.0
 33
0.0
 16
1.0
 26
0.0
 36
0.0
 17
0.0
 27
1.0
 37
0.0
 76
     0
330
1F
331
EA
1001
ACAD_PSEXT
1000
None
1000
None
1000
Not applicable
1000
The layout will not be plotted unless a new plotter configuration name is selected.
1070
     0
  0
MATERIAL
  5
ED
102
{ACAD_XDICTIONARY
360
1F9
102
}
102
{ACAD_REACTORS
330
6A
102
}
330
6A
100
AcDbMaterial
  1
ByBlock
  0
MATERIAL
  5
EC
102
{ACAD_XDICTIONARY
360
1F7
102
}
102
{ACAD_REACTORS
330
6A
102
}
330
6A
100
AcDbMaterial
  1
ByLayer
  0
MATERIAL
  5
EE
102
{ACAD_XDICTIONARY
360
173
102
}
102
{ACAD_REACTORS
330
6A
102
}
330
6A
100
AcDbMaterial
  1
Global
 43
0.0007999999797903
 43
0.0
 43
0.0
 43
0.0
 43
0.0
 43
0.0007999999797903
 43
0.0
 43
0.0
 43
0.0
 43
0.0
 43
1.0
 43
0.0
 43
0.0
 43
0.0
 43
0.0
 43
1.0
 49
0.0007999999797903
 49
0.0
 49
0.0
 49
0.0
 49
0.0
 49
0.0007999999797903
 49
0.0
 49
0.0
 49
0.0
 49
0.0
 49
1.0
 49
0.0
 49
0.0
 49
0.0
 49
0.0
 49
1.0
142
0.0007999999797903
142
0.0
142
0.0
142
0.0
142
0.0
142
0.0007999999797903
142
0.0
142
0.0
142
0.0
142
0.0
142
1.0
142
0.0
142
0.0
142
0.0
142
0.0
142
1.0
144
0.0007999999797903
144
0.0
144
0.0
144
0.0
144
0.0
144
0.0007999999797903
144
0.0
144
0.0
144
0.0
144
0.0
144
1.0
144
0.0
144
0.0
144
0.0
144
0.0
144
1.0
1001
ACAD
1070
    -1
1070
     3
1070
     0
1000

1071
        0
1070
     0
  0
MLEADERSTYLE
  5
12E
102
{ACAD_XDICTIONARY
360
17F1
102
}
102
{ACAD_REACTORS
330
12D
102
}
330
12D
100
AcDbMLeaderStyle
170
     2
171
     1
172
     0
 90
        2
 40
0.0
 41
0.0
173
     1
 91
-1056964608
340
14
 92
       -2
290
     1
 42
2.0
291
     1
 43
8.0
  3
Standard
 44
4.0
300

342
11
174
     1
178
     1
175
     1
176
     0
 93
-1056964608
 45
4.0
292
     0
297
     0
 46
4.0
 94
-1056964608
 47
1.0
 49
1.0
140
1.0
293
     1
141
0.0
294
     1
177
     0
142
1.0
295
     0
296
     0
143
3.75
1001
ACAD_MLEADERVER
1070
     2
  0
MLINESTYLE
  5
18
102
{ACAD_REACTORS
330
17
102
}
330
17
100
AcDbMlineStyle
  2
STANDARD
 70
     0
  3

 62
   256
 51
90.0
 52
90.0
 71
     2
 49
0.5
 62
   256
  6
BYLAYER
 49
-0.5
 62
   256
  6
BYLAYER
  0
ACDBPLACEHOLDER
  5
F
102
{ACAD_REACTORS
330
E
102
}
330
E
  0
SCALE
  5
10D
102
{ACAD_REACTORS
330
10C
102
}
330
10C
100
AcDbScale
 70
     0
300
1:1
140
1.0
141
1.0
290
     1
  0
SCALE
  5
1BE
102
{ACAD_REACTORS
330
10C
102
}
330
10C
100
AcDbScale
 70
     0
300
1:2
140
1.0
141
2.0
290
     0
  0
SCALE
  5
1BF
102
{ACAD_REACTORS
330
10C
102
}
330
10C
100
AcDbScale
 70
     0
300
1:4
140
1.0
141
4.0
290
     0
  0
SCALE
  5
1C0
102
{ACAD_REACTORS
330
10C
102
}
330
10C
100
AcDbScale
 70
     0
300
1:5
140
1.0
141
5.0
290
     0
  0
SCALE
  5
1C1
102
{ACAD_REACTORS
330
10C
102
}
330
10C
100
AcDbScale
 70
     0
300
1:8
140
1.0
141
8.0
290
     0
  0
SCALE
  5
1C2
102
{ACAD_REACTORS
330
10C
102
}
330
10C
100
AcDbScale
 70
     0
300
1:10
140
1.0
141
10.0
290
     0
  0
SCALE
  5
1C3
102
{ACAD_REACTORS
330
10C
102
}
330
10C
100
AcDbScale
 70
     0
300
1:16
140
1.0
141
16.0
290
     0
  0
SCALE
  5
1C4
102
{ACAD_REACTORS
330
10C
102
}
330
10C
100
AcDbScale
 70
     0
300
1:20
140
1.0
141
20.0
290
     0
  0
SCALE
  5
1C5
102
{ACAD_REACTORS
330
10C
102
}
330
10C
100
AcDbScale
 70
     0
300
1:30
140
1.0
141
30.0
290
     0
  0
SCALE
  5
1C6
102
{ACAD_REACTORS
330
10C
102
}
330
10C
100
AcDbScale
 70
     0
300
1:40
140
1.0
141
40.0
290
     0
  0
SCALE
  5
1C7
102
{ACAD_REACTORS
330
10C
102
}
330
10C
100
AcDbScale
 70
     0
300
1:50
140
1.0
141
50.0
290
     0
  0
SCALE
  5
1C8
102
{ACAD_REACTORS
330
10C
102
}
330
10C
100
AcDbScale
 70
     0
300
1:100
140
1.0
141
100.0
290
     0
  0
SCALE
  5
1C9
102
{ACAD_REACTORS
330
10C
102
}
330
10C
100
AcDbScale
 70
     0
300
2:1
140
2.0
141
1.0
290
     0
  0
SCALE
  5
1CA
102
{ACAD_REACTORS
330
10C
102
}
330
10C
100
AcDbScale
 70
     0
300
4:1
140
4.0
141
1.0
290
     0
  0
SCALE
  5
1CB
102
{ACAD_REACTORS
330
10C
102
}
330
10C
100
AcDbScale
 70
     0
300
8:1
140
8.0
141
1.0
290
     0
  0
SCALE
  5
1CC
102
{ACAD_REACTORS
330
10C
102
}
330
10C
100
AcDbScale
 70
     0
300
10:1
140
10.0
141
1.0
290
     0
  0
SCALE
  5
1CD
102
{ACAD_REACTORS
330
10C
102
}
330
10C
100
AcDbScale
 70
     0
300
100:1
140
100.0
141
1.0
290
     0
  0
ACDBSECTIONVIEWSTYLE
  5
21A
102
{ACAD_XDICTIONARY
360
1803
102
}
102
{ACAD_REACTORS
330
219
102
}
330
219
100
AcDbModelDocViewStyle
 70
     0
  3
Metric50
290
     0
100
AcDbSectionViewStyle
 70
     0
 71
     0
 90
      102
 71
     1
340
11
 40
5.0
340
0
340
0
 40
5.0
300
I, O, Q, S, X, Z
 40
10.0
 90
        0
 40
2.5
 90
        0
 71
     2
340
16
 90
       25
340
16
 90
       50
 40
5.0
 40
2.5
 40
5.0
 71
     3
340
11
 40
5.0
 90
        0
 40
15.0
 90
        1
300
%<\AcVar ViewSectionStartId>%-%<\AcVar ViewSectionEndId>% (%<\AcVar ViewScale \f "%sn">%)
 71
     4
300
ANSI31
 40
1.0
 90
        0
290
     0
290
     0
 90
        6
 40
0.0
 40
1.570796326794896
 40
0.2617993877991494
 40
1.308996938995747
 40
-0.2617993877991494
 40
1.832595714594046
  0
TABLESTYLE
  5
7F
102
{ACAD_XDICTIONARY
360
162
102
}
102
{ACAD_REACTORS
330
7E
102
}
330
7E
100
AcDbTableStyle
  3
Standard
 70
     0
 71
     0
 40
1.5
 41
1.5
280
     0
281
     0
  7
Standard
140
4.5
170
     2
 62
     0
 63
     7
283
     0
274
    -2
284
     1
 64
     0
275
    -2
285
     1
 65
     0
276
    -2
286
     1
 66
     0
277
    -2
287
     1
 67
     0
278
    -2
288
     1
 68
     0
279
    -2
289
     1
 69
     0
  7
Standard
140
6.0
170
     5
 62
     0
 63
     7
283
     0
274
    -2
284
     1
 64
     0
275
    -2
285
     1
 65
     0
276
    -2
286
     1
 66
     0
277
    -2
287
     1
 67
     0
278
    -2
288
     1
 68
     0
279
    -2
289
     1
 69
     0
  7
Standard
140
4.5
170
     5
 62
     0
 63
     7
283
     0
274
    -2
284
     1
 64
     0
275
    -2
285
     1
 65
     0
276
    -2
286
     1
 66
     0
277
    -2
287
     1
 67
     0
278
    -2
288
     1
 68
     0
279
    -2
289
     1
 69
     0
  0
VISUALSTYLE
  5
F5
102
{ACAD_XDICTIONARY
360
17DB
102
}
102
{ACAD_REACTORS
330
EF
102
}
330
EF
100
AcDbVisualStyle
  2
2dWireframe
 70
     4
 71
     0
 72
     2
 73
     1
 90
        0
 40
-0.6
 41
-30.0
 62
     5
 63
     7
 74
     1
 91
        4
 64
     7
 65
   257
 75
     1
175
     1
 42
1.0
 92
        0
 66
   257
 43
1.0
 76
     1
 77
     6
 78
     2
 67
     7
 79
     5
170
     0
171
     0
290
     0
174
     0
 93
        1
 44
0.0
173
     0
291
     0
 45
0.0
1001
ACAD
1000
AcDbSavedByObjectVersion
1070
     0
  0
VISUALSTYLE
  5
F4
102
{ACAD_XDICTIONARY
360
17D9
102
}
102
{ACAD_REACTORS
330
EF
102
}
330
EF
100
AcDbVisualStyle
  2
Basic
 70
     7
 71
     1
 72
     0
 73
     1
 90
        0
 40
-0.6
 41
-30.0
 62
     5
 63
     7
 74
     0
 91
        4
 64
     7
 65
   257
 75
     1
175
     1
 42
1.0
 92
        8
 66
     7
 43
1.0
 76
     1
 77
     6
 78
     2
 67
     7
 79
     5
170
     0
171
     0
290
     0
174
     0
 93
        1
 44
0.0
173
     0
291
     1
 45
0.0
1001
ACAD
1000
AcDbSavedByObjectVersion
1070
     0
  0
VISUALSTYLE
  5
FB
102
{ACAD_XDICTIONARY
360
17E7
102
}
102
{ACAD_REACTORS
330
EF
102
}
330
EF
100
AcDbVisualStyle
  2
Brighten
 70
    12
 71
     2
 72
     2
 73
     1
 90
        0
 40
-0.6
 41
-30.0
 62
     5
 63
     7
 74
     1
 91
        4
 64
     7
 65
   257
 75
     1
175
     1
 42
1.0
 92
        8
 66
     7
 43
1.0
 76
     1
 77
     6
 78
     2
 67
     7
 79
     5
170
     0
171
     0
290
     0
174
     0
 93
        1
 44
50.0
173
     0
291
     1
 45
0.0
1001
ACAD
1000
AcDbSavedByObjectVersion
1070
     0
  0
VISUALSTYLE
  5
FF
102
{ACAD_XDICTIONARY
360
17EF
102
}
102
{ACAD_REACTORS
330
EF
102
}
330
EF
100
AcDbVisualStyle
  2
ColorChange
 70
    16
 71
     2
 72
     2
 73
     3
 90
        0
 40
-0.6
 41
-30.0
 62
     5
 63
     8
 74
     1
 91
        4
 64
     7
 65
   257
 75
     1
175
     1
 42
1.0
 92
        8
 66
     8
 43
1.0
 76
     1
 77
     6
 78
     2
 67
     7
 79
     5
170
     0
171
     0
290
     0
174
     0
 93
        1
 44
0.0
173
     0
291
     1
 45
0.0
1001
ACAD
1000
AcDbSavedByObjectVersion
1070
     0
  0
VISUALSTYLE
  5
F8
102
{ACAD_XDICTIONARY
360
17E1
102
}
102
{ACAD_REACTORS
330
EF
102
}
330
EF
100
AcDbVisualStyle
  2
Conceptual
 70
     9
 71
     3
 72
     2
 73
     1
 90
        0
 40
-0.6
 41
-30.0
 62
     5
 63
     7
 74
     2
 91
        2
 64
     7
 65
   257
 75
     1
175
     1
 42
40.0
 92
        8
 66
     7
 43
1.0
 76
     1
 77
     6
 78
     2
 67
     7
 79
     3
170
     0
171
     0
290
     0
174
     0
 93
        1
 44
0.0
173
     0
291
     0
 45
0.0
1001
ACAD
1000
AcDbSavedByObjectVersion
1070
     0
  0
VISUALSTYLE
  5
FA
102
{ACAD_XDICTIONARY
360
17E5
102
}
102
{ACAD_REACTORS
330
EF
102
}
330
EF
100
AcDbVisualStyle
  2
Dim
 70
    11
 71
     2
 72
     2
 73
     1
 90
        0
 40
-0.6
 41
-30.0
 62
     5
 63
     7
 74
     1
 91
        4
 64
     7
 65
   257
 75
     1
175
     1
 42
1.0
 92
        8
 66
     7
 43
1.0
 76
     1
 77
     6
 78
     2
 67
     7
 79
     5
170
     0
171
     0
290
     0
174
     0
 93
        1
 44
-50.0
173
     0
291
     1
 45
0.0
1001
ACAD
1000
AcDbSavedByObjectVersion
1070
     0
  0
VISUALSTYLE
  5
1E6
102
{ACAD_XDICTIONARY
360
17F7
102
}
102
{ACAD_REACTORS
330
EF
102
}
330
EF
100
AcDbVisualStyle
  2
EdgeColorOff
 70
    22
 71
     2
 72
     2
 73
     0
 90
        0
 40
-0.6
 41
-30.0
 62
     5
 63
     7
 74
     1
 91
        4
 64
     7
 65
   257
 75
     1
175
     1
 42
1.0
 92
        8
 66
     7
 43
1.0
 76
     1
 77
     6
 78
     2
 67
     7
 79
     5
170
     0
171
     0
290
     0
174
     0
 93
        1
 44
0.0
173
     0
291
     1
 45
0.0
1001
ACAD
1000
AcDbSavedByObjectVersion
1070
     0
  0
VISUALSTYLE
  5
FE
102
{ACAD_XDICTIONARY
360
17ED
102
}
102
{ACAD_REACTORS
330
EF
102
}
330
EF
100
AcDbVisualStyle
  2
Facepattern
 70
    15
 71
     2
 72
     2
 73
     1
 90
        0
 40
-0.6
 41
-30.0
 62
     5
 63
     7
 74
     1
 91
        4
 64
     7
 65
   257
 75
     1
175
     1
 42
1.0
 92
        8
 66
     7
 43
1.0
 76
     1
 77
     6
 78
     2
 67
     7
 79
     5
170
     0
171
     0
290
     0
174
     0
 93
        1
 44
0.0
173
     0
291
     1
 45
0.0
1001
ACAD
1000
AcDbSavedByObjectVersion
1070
     0
  0
VISUALSTYLE
  5
F0
102
{ACAD_XDICTIONARY
360
17D1
102
}
102
{ACAD_REACTORS
330
EF
102
}
330
EF
100
AcDbVisualStyle
  2
Flat
 70
     0
 71
     2
 72
     1
 73
     1
 90
        2
 40
-0.6
 41
30.0
 62
     5
 63
     7
 74
     0
 91
        0
 64
     7
 65
   257
 75
     1
175
     1
 42
1.0
 92
        8
 66
     7
 43
1.0
 76
     1
 77
     6
 78
     2
 67
     7
 79
     5
170
     0
171
     0
290
     0
174
     0
 93
       13
 44
0.0
173
     0
291
     1
 45
0.0
1001
ACAD
1000
AcDbSavedByObjectVersion
1070
     0
  0
VISUALSTYLE
  5
F1
102
{ACAD_XDICTIONARY
360
17D3
102
}
102
{ACAD_REACTORS
330
EF
102
}
330
EF
100
AcDbVisualStyle
  2
FlatWithEdges
 70
     1
 71
     2
 72
     1
 73
     1
 90
        2
 40
-0.6
 41
30.0
 62
     5
 63
     7
 74
     1
 91
        0
 64
     7
 65
   257
 75
     1
175
     1
 42
1.0
 92
        0
 66
   257
 43
1.0
 76
     1
 77
     6
 78
     2
 67
     7
 79
     5
170
     0
171
     0
290
     0
174
     0
 93
       13
 44
0.0
173
     0
291
     1
 45
0.0
1001
ACAD
1000
AcDbSavedByObjectVersion
1070
     0
  0
VISUALSTYLE
  5
F2
102
{ACAD_XDICTIONARY
360
17D5
102
}
102
{ACAD_REACTORS
330
EF
102
}
330
EF
100
AcDbVisualStyle
  2
Gouraud
 70
     2
 71
     2
 72
     2
 73
     1
 90
        2
 40
-0.6
 41
30.0
 62
     5
 63
     7
 74
     0
 91
        0
 64
     7
 65
   257
 75
     1
175
     1
 42
1.0
 92
        0
 66
     7
 43
1.0
 76
     1
 77
     6
 78
     2
 67
     7
 79
     5
170
     0
171
     0
290
     0
174
     0
 93
       13
 44
0.0
173
     0
291
     1
 45
0.0
1001
ACAD
1000
AcDbSavedByObjectVersion
1070
     0
  0
VISUALSTYLE
  5
F3
102
{ACAD_XDICTIONARY
360
17D7
102
}
102
{ACAD_REACTORS
330
EF
102
}
330
EF
100
AcDbVisualStyle
  2
GouraudWithEdges
 70
     3
 71
     2
 72
     2
 73
     1
 90
        2
 40
-0.6
 41
30.0
 62
     5
 63
     7
 74
     1
 91
        0
 64
     7
 65
   257
 75
     1
175
     1
 42
1.0
 92
        0
 66
   257
 43
1.0
 76
     1
 77
     6
 78
     2
 67
     7
 79
     5
170
     0
171
     0
290
     0
174
     0
 93
       13
 44
0.0
173
     0
291
     1
 45
0.0
1001
ACAD
1000
AcDbSavedByObjectVersion
1070
     0
  0
VISUALSTYLE
  5
F7
102
{ACAD_XDICTIONARY
360
17DF
102
}
102
{ACAD_REACTORS
330
EF
102
}
330
EF
100
AcDbVisualStyle
  2
Hidden
 70
     6
 71
     1
 72
     2
 73
     2
 90
        0
 40
-0.6
 41
-30.0
 62
     5
 63
     7
 74
     2
 91
        2
 64
     7
 65
   257
 75
     2
175
     1
 42
40.0
 92
        0
 66
   257
 43
1.0
 76
     1
 77
     6
 78
     2
 67
     7
 79
     3
170
     0
171
     0
290
     0
174
     0
 93
        1
 44
0.0
173
     0
291
     0
 45
0.0
1001
ACAD
1000
AcDbSavedByObjectVersion
1070
     0
  0
VISUALSTYLE
  5
1E4
102
{ACAD_XDICTIONARY
360
17F3
102
}
102
{ACAD_REACTORS
330
EF
102
}
330
EF
100
AcDbVisualStyle
  2
JitterOff
 70
    20
 71
     2
 72
     2
 73
     0
 90
        0
 40
-0.6
 41
-30.0
 62
     5
 63
     7
 74
     1
 91
        4
 64
     7
 65
   257
 75
     1
175
     1
 42
1.0
 92
       10
 66
     7
 43
1.0
 76
     1
 77
     6
 78
     2
 67
     7
 79
     5
170
     0
171
     0
290
     0
174
     0
 93
        1
 44
0.0
173
     0
291
     1
 45
0.0
1001
ACAD
1000
AcDbSavedByObjectVersion
1070
     0
  0
VISUALSTYLE
  5
FD
102
{ACAD_XDICTIONARY
360
17EB
102
}
102
{ACAD_REACTORS
330
EF
102
}
330
EF
100
AcDbVisualStyle
  2
Linepattern
 70
    14
 71
     2
 72
     2
 73
     1
 90
        0
 40
-0.6
 41
-30.0
 62
     5
 63
     7
 74
     1
 91
        4
 64
     7
 65
   257
 75
     7
175
     7
 42
1.0
 92
        8
 66
     7
 43
1.0
 76
     1
 77
     6
 78
     2
 67
     7
 79
     5
170
     0
171
     0
290
     0
174
     0
 93
        1
 44
0.0
173
     0
291
     1
 45
0.0
1001
ACAD
1000
AcDbSavedByObjectVersion
1070
     0
  0
VISUALSTYLE
  5
1E5
102
{ACAD_XDICTIONARY
360
17F5
102
}
102
{ACAD_REACTORS
330
EF
102
}
330
EF
100
AcDbVisualStyle
  2
OverhangOff
 70
    21
 71
     2
 72
     2
 73
     0
 90
        0
 40
-0.6
 41
-30.0
 62
     5
 63
     7
 74
     1
 91
        4
 64
     7
 65
   257
 75
     1
175
     1
 42
1.0
 92
        9
 66
     7
 43
1.0
 76
     1
 77
     6
 78
     2
 67
     7
 79
     5
170
     0
171
     0
290
     0
174
     0
 93
        1
 44
0.0
173
     0
291
     1
 45
0.0
1001
ACAD
1000
AcDbSavedByObjectVersion
1070
     0
  0
VISUALSTYLE
  5
F9
102
{ACAD_XDICTIONARY
360
17E3
102
}
102
{ACAD_REACTORS
330
EF
102
}
330
EF
100
AcDbVisualStyle
  2
Realistic
 70
     8
 71
     2
 72
     2
 73
     0
 90
        2
 40
-0.6
 41
30.0
 62
     5
 63
     7
 74
     0
 91
        0
 64
     7
 65
   257
 75
     1
175
     1
 42
1.0
 92
        8
 66
   257
 43
1.0
 76
     1
 77
     6
 78
     2
 67
     7
 79
     3
170
     0
171
     0
290
     0
174
     0
 93
       13
 44
0.0
173
     0
291
     0
 45
0.0
1001
ACAD
1000
AcDbSavedByObjectVersion
1070
     0
  0
VISUALSTYLE
  5
1F3
102
{ACAD_XDICTIONARY
360
1801
102
}
102
{ACAD_REACTORS
330
EF
102
}
330
EF
100
AcDbVisualStyle
  2
Shaded
 70
    27
 71
     2
 72
     2
 73
     1
 90
        2
 40
-0.6
 41
30.0
 62
     5
 63
     7
 74
     0
 91
        4
 64
     7
 65
   257
 75
     1
175
     1
 42
1.0
 92
        8
 66
   257
 43
1.0
 76
     1
 77
     6
 78
     2
 67
     8
 79
     3
170
     0
171
     0
290
     0
174
     0
 93
        5
 44
0.0
173
     0
291
     0
 45
0.0
1001
ACAD
1000
AcDbSavedByObjectVersion
1070
     0
  0
VISUALSTYLE
  5
1F2
102
{ACAD_XDICTIONARY
360
17FF
102
}
102
{ACAD_REACTORS
330
EF
102
}
330
EF
100
AcDbVisualStyle
  2
Shaded with edges
 70
    26
 71
     2
 72
     2
 73
     1
 90
        2
 40
-0.6
 41
30.0
 62
     5
 63
     7
 74
     1
 91
        2
 64
     7
 65
   257
 75
     2
175
     1
 42
1.0
 92
        8
 66
   257
 43
1.0
 76
     1
 77
     6
 78
     2
 67
     7
 79
     3
170
     0
171
     0
290
     0
174
     0
 93
        5
 44
0.0
173
     0
291
     0
 45
0.0
1001
ACAD
1000
AcDbSavedByObjectVersion
1070
     0
  0
VISUALSTYLE
  5
1EF
102
{ACAD_XDICTIONARY
360
17F9
102
}
102
{ACAD_REACTORS
330
EF
102
}
330
EF
100
AcDbVisualStyle
  2
Shades of Gray
 70
    23
 71
     2
 72
     2
 73
     3
 90
        0
 40
-0.6
 41
-30.0
 62
     5
 63
     7
 74
     2
 91
        2
 64
     7
 65
     7
 75
     1
175
     1
 42
40.0
 92
        8
 66
     7
 43
1.0
 76
     1
 77
     6
 78
     2
 67
     7
 79
     3
170
     0
171
     0
290
     0
174
     0
 93
        1
 44
0.0
173
     0
291
     0
 45
0.0
1001
ACAD
1000
AcDbSavedByObjectVersion
1070
     0
  0
VISUALSTYLE
  5
1F0
102
{ACAD_XDICTIONARY
360
17FB
102
}
102
{ACAD_REACTORS
330
EF
102
}
330
EF
100
AcDbVisualStyle
  2
Sketchy
 70
    24
 71
     1
 72
     2
 73
     2
 90
        0
 40
-0.6
 41
-30.0
 62
     5
 63
     7
 74
     2
 91
        2
 64
     7
 65
     7
 75
     1
175
     1
 42
40.0
 92
       11
 66
     7
 43
1.0
 76
     1
 77
     6
 78
     2
 67
     7
 79
     6
170
     0
171
     0
290
     0
174
     0
 93
        1
 44
0.0
173
     0
291
     0
 45
0.0
1001
ACAD
1000
AcDbSavedByObjectVersion
1070
     0
  0
VISUALSTYLE
  5
FC
102
{ACAD_XDICTIONARY
360
17E9
102
}
102
{ACAD_REACTORS
330
EF
102
}
330
EF
100
AcDbVisualStyle
  2
Thicken
 70
    13
 71
     2
 72
     2
 73
     1
 90
        0
 40
-0.6
 41
-30.0
 62
     5
 63
     7
 74
     1
 91
        4
 64
     7
 65
   257
 75
     1
175
     1
 42
1.0
 92
       12
 66
     7
 43
1.0
 76
     1
 77
     6
 78
     2
 67
     7
 79
     5
170
     0
171
     0
290
     0
174
     0
 93
        1
 44
0.0
173
     0
291
     1
 45
0.0
1001
ACAD
1000
AcDbSavedByObjectVersion
1070
     0
  0
VISUALSTYLE
  5
F6
102
{ACAD_XDICTIONARY
360
17DD
102
}
102
{ACAD_REACTORS
330
EF
102
}
330
EF
100
AcDbVisualStyle
  2
Wireframe
 70
     5
 71
     0
 72
     2
 73
     0
 90
        0
 40
-0.6
 41
-30.0
 62
     5
 63
     7
 74
     1
 91
        4
 64
     7
 65
   257
 75
     1
175
     1
 42
1.0
 92
        0
 66
   257
 43
1.0
 76
     1
 77
     6
 78
     2
 67
     7
 79
     3
170
     0
171
     0
290
     0
174
     0
 93
        1
 44
0.0
173
     0
291
     0
 45
0.0
1001
ACAD
1000
AcDbSavedByObjectVersion
1070
     0
  0
VISUALSTYLE
  5
1F1
102
{ACAD_XDICTIONARY
360
17FD
102
}
102
{ACAD_REACTORS
330
EF
102
}
330
EF
100
AcDbVisualStyle
  2
X-Ray
 70
    25
 71
     2
 72
     2
 73
     1
 90
        1
 40
0.5
 41
-30.0
 62
     5
 63
     7
 74
     1
 91
        0
 64
     7
 65
   257
 75
     1
175
     1
 42
1.0
 92
        8
 66
     7
 43
1.0
 76
     1
 77
     6
 78
     2
 67
     7
 79
     3
170
     0
171
     0
290
     0
174
     0
 93
       13
 44
0.0
173
     0
291
     0
 45
0.0
1001
ACAD
1000
AcDbSavedByObjectVersion
1070
     0
  0
DICTIONARYVAR
  5
146
102
{ACAD_REACTORS
330
5E
102
}
330
5E
100
DictionaryVariables
280
     0
  1
1:1
  0
DICTIONARYVAR
  5
259
102
{ACAD_REACTORS
330
5E
102
}
330
5E
100
DictionaryVariables
280
     0
  1
3.500000
  0
DICTIONARYVAR
  5
25A
102
{ACAD_REACTORS
330
5E
102
}
330
5E
100
DictionaryVariables
280
     0
  1
acadiso.lin
  0
DICTIONARYVAR
  5
145
102
{ACAD_REACTORS
330
5E
102
}
330
5E
100
DictionaryVariables
280
     0
  1
STANDARD
  0
DICTIONARYVAR
  5
84
102
{ACAD_REACTORS
330
5E
102
}
330
5E
100
DictionaryVariables
280
     0
  1
STANDARD
  0
DICTIONARYVAR
  5
227
102
{ACAD_REACTORS
330
5E
102
}
330
5E
100
DictionaryVariables
280
     0
  1
Metric50
  0
DICTIONARYVAR
  5
228
102
{ACAD_REACTORS
330
5E
102
}
330
5E
100
DictionaryVariables
280
     0
  1
Metric50
  0
DICTIONARYVAR
  5
5F
102
{ACAD_REACTORS
330
5E
102
}
330
5E
100
DictionaryVariables
280
     0
  1
2
  0
DICTIONARYVAR
  5
63
102
{ACAD_REACTORS
330
5E
102
}
330
5E
100
DictionaryVariables
280
     0
  1
1
  0
DICTIONARYVAR
  5
1772
102
{ACAD_REACTORS
330
5E
102
}
330
5E
100
DictionaryVariables
280
     0
  1
0
  0
DICTIONARYVAR
  5
1AE
102
{ACAD_REACTORS
330
5E
102
}
330
5E
100
DictionaryVariables
280
     0
  1
0
  0
DICTIONARYVAR
  5
1AF
102
{ACAD_REACTORS
330
5E
102
}
330
5E
100
DictionaryVariables
280
     0
  1
0
  0
DICTIONARYVAR
  5
1770
102
{ACAD_REACTORS
330
5E
102
}
330
5E
100
DictionaryVariables
280
     0
  1
2
  0
DICTIONARYVAR
  5
176F
102
{ACAD_REACTORS
330
5E
102
}
330
5E
100
DictionaryVariables
280
     0
  1
1
  0
DICTIONARYVAR
  5
17C2
102
{ACAD_REACTORS
330
5E
102
}
330
5E
100
DictionaryVariables
280
     0
  1
80.000000
  0
DICTIONARYVAR
  5
17C1
102
{ACAD_REACTORS
330
5E
102
}
330
5E
100
DictionaryVariables
280
     0
  1
5.000000
  0
DICTIONARYVAR
  5
1771
102
{ACAD_REACTORS
330
5E
102
}
330
5E
100
DictionaryVariables
280
     0
  1
127
  0
DICTIONARYVAR
  5
17C3
102
{ACAD_REACTORS
330
5E
102
}
330
5E
100
DictionaryVariables
280
     0
  1
2
  0
DICTIONARY
  5
1805
330
21C
100
AcDbDictionary
280
     1
281
     1
  3
ACAD_XREC_ROUNDTRIP
360
1806
  0
DICTIONARY
  5
17CA
330
D3
100
AcDbDictionary
280
     1
281
     1
  3
ACAD_XREC_ROUNDTRIP
360
17CB
  0
DICTIONARY
  5
17CC
330
D7
100
AcDbDictionary
280
     1
281
     1
  3
ACAD_XREC_ROUNDTRIP
360
17CD
  0
DICTIONARY
  5
17C7
330
22
100
AcDbDictionary
280
     1
281
     1
  3
ACAD_XREC_ROUNDTRIP
360
17C8
  0
DICTIONARY
  5
1F9
330
ED
100
AcDbDictionary
280
     1
281
     1
  3
ACAD_XREC_ROUNDTRIP
360
17CF
  3
FBXASSET
360
1FA
  0
DICTIONARY
  5
1F7
330
EC
100
AcDbDictionary
280
     1
281
     1
  3
ACAD_XREC_ROUNDTRIP
360
17CE
  3
FBXASSET
360
1F8
  0
DICTIONARY
  5
173
330
EE
100
AcDbDictionary
280
     1
281
     1
  3
ACAD_XREC_ROUNDTRIP
360
17D0
  3
BUMPTILE
360
175
  3
DIFFUSETILE
360
174
  3
FBXASSET
360
1FB
  3
OPACITYTILE
360
176
  3
REFLECTIONTILE
360
177
  0
DICTIONARY
  5
17F1
330
12E
100
AcDbDictionary
280
     1
281
     1
  3
ACAD_XREC_ROUNDTRIP
360
17F2
  0
DICTIONARY
  5
1803
330
21A
100
AcDbDictionary
280
     1
281
     1
  3
ACAD_XREC_ROUNDTRIP
360
1804
  0
DICTIONARY
  5
162
330
7F
100
AcDbDictionary
280
     1
281
     1
  3
ACAD_ROUNDTRIP_2008_TABLESTYLE_CELLSTYLEMAP
360
17C4
  3
ACAD_XREC_ROUNDTRIP
360
17C9
  0
DICTIONARY
  5
17DB
330
F5
100
AcDbDictionary
280
     1
281
     1
  3
ACAD_XREC_ROUNDTRIP
360
17DC
  0
DICTIONARY
  5
17D9
330
F4
100
AcDbDictionary
280
     1
281
     1
  3
ACAD_XREC_ROUNDTRIP
360
17DA
  0
DICTIONARY
  5
17E7
330
FB
100
AcDbDictionary
280
     1
281
     1
  3
ACAD_XREC_ROUNDTRIP
360
17E8
  0
DICTIONARY
  5
17EF
330
FF
100
AcDbDictionary
280
     1
281
     1
  3
ACAD_XREC_ROUNDTRIP
360
17F0
  0
DICTIONARY
  5
17E1
330
F8
100
AcDbDictionary
280
     1
281
     1
  3
ACAD_XREC_ROUNDTRIP
360
17E2
  0
DICTIONARY
  5
17E5
330
FA
100
AcDbDictionary
280
     1
281
     1
  3
ACAD_XREC_ROUNDTRIP
360
17E6
  0
DICTIONARY
  5
17F7
330
1E6
100
AcDbDictionary
280
     1
281
     1
  3
ACAD_XREC_ROUNDTRIP
360
17F8
  0
DICTIONARY
  5
17ED
330
FE
100
AcDbDictionary
280
     1
281
     1
  3
ACAD_XREC_ROUNDTRIP
360
17EE
  0
DICTIONARY
  5
17D1
330
F0
100
AcDbDictionary
280
     1
281
     1
  3
ACAD_XREC_ROUNDTRIP
360
17D2
  0
DICTIONARY
  5
17D3
330
F1
100
AcDbDictionary
280
     1
281
     1
  3
ACAD_XREC_ROUNDTRIP
360
17D4
  0
DICTIONARY
  5
17D5
330
F2
100
AcDbDictionary
280
     1
281
     1
  3
ACAD_XREC_ROUNDTRIP
360
17D6
  0
DICTIONARY
  5
17D7
330
F3
100
AcDbDictionary
280
     1
281
     1
  3
ACAD_XREC_ROUNDTRIP
360
17D8
  0
DICTIONARY
  5
17DF
330
F7
100
AcDbDictionary
280
     1
281
     1
  3
ACAD_XREC_ROUNDTRIP
360
17E0
  0
DICTIONARY
  5
17F3
330
1E4
100
AcDbDictionary
280
     1
281
     1
  3
ACAD_XREC_ROUNDTRIP
360
17F4
  0
DICTIONARY
  5
17EB
330
FD
100
AcDbDictionary
280
     1
281
     1
  3
ACAD_XREC_ROUNDTRIP
360
17EC
  0
DICTIONARY
  5
17F5
330
1E5
100
AcDbDictionary
280
     1
281
     1
  3
ACAD_XREC_ROUNDTRIP
360
17F6
  0
DICTIONARY
  5
17E3
330
F9
100
AcDbDictionary
280
     1
281
     1
  3
ACAD_XREC_ROUNDTRIP
360
17E4
  0
DICTIONARY
  5
1801
330
1F3
100
AcDbDictionary
280
     1
281
     1
  3
ACAD_XREC_ROUNDTRIP
360
1802
  0
DICTIONARY
  5
17FF
330
1F2
100
AcDbDictionary
280
     1
281
     1
  3
ACAD_XREC_ROUNDTRIP
360
1800
  0
DICTIONARY
  5
17F9
330
1EF
100
AcDbDictionary
280
     1
281
     1
  3
ACAD_XREC_ROUNDTRIP
360
17FA
  0
DICTIONARY
  5
17FB
330
1F0
100
AcDbDictionary
280
     1
281
     1
  3
ACAD_XREC_ROUNDTRIP
360
17FC
  0
DICTIONARY
  5
17E9
330
FC
100
AcDbDictionary
280
     1
281
     1
  3
ACAD_XREC_ROUNDTRIP
360
17EA
  0
DICTIONARY
  5
17DD
330
F6
100
AcDbDictionary
280
     1
281
     1
  3
ACAD_XREC_ROUNDTRIP
360
17DE
  0
DICTIONARY
  5
17FD
330
1F1
100
AcDbDictionary
280
     1
281
     1
  3
ACAD_XREC_ROUNDTRIP
360
17FE
  0
XRECORD
  5
1806
102
{ACAD_REACTORS
330
1805
102
}
330
1805
100
AcDbXrecord
280
     1
102
DISPLAYNAME
  1
Metric50
102
FLAGS
 90
        0
  0
XRECORD
  5
17CB
102
{ACAD_REACTORS
330
17CA
102
}
330
17CA
100
AcDbXrecord
280
     1
102
SHADEPLOT
 70
     0
102
SHADEPLOTRESLEVEL
 70
     2
102
SHADEPLOTCUSTOMDPI
 70
   300
  0
XRECORD
  5
17CD
102
{ACAD_REACTORS
330
17CC
102
}
330
17CC
100
AcDbXrecord
280
     1
102
SHADEPLOT
 70
     0
102
SHADEPLOTRESLEVEL
 70
     2
102
SHADEPLOTCUSTOMDPI
 70
   300
  0
XRECORD
  5
17C8
102
{ACAD_REACTORS
330
17C7
102
}
330
17C7
100
AcDbXrecord
280
     1
102
SHADEPLOT
 70
     0
102
SHADEPLOTRESLEVEL
 70
     2
102
SHADEPLOTCUSTOMDPI
 70
   300
  0
XRECORD
  5
17CF
102
{ACAD_REACTORS
330
1F9
102
}
330
1F9
100
AcDbXrecord
280
     1
102
MATERIAL
148
0.0
149
0.0
149
0.0
 93
        0
 94
       63
282
     0
 72
     1
 77
     1
171
     1
175
     1
179
     1
273
     0
  0
XRECORD
  5
1FA
102
{ACAD_REACTORS
330
1F9
102
}
330
1F9
100
AcDbXrecord
280
     1
 70
     1
 90
429727718
  1
D62C5603-E3A1-4AEA-B7FB-FE5D8D0755AF
310
504B03040A0000080000CC70623B3DEE336E79000000790000001B0000006175746F6465736B2D64657369676E2D7061636B6167652E786D6C3C3F786D6C2076657273696F6E3D22312E302220656E636F64696E673D227574662D3822203F3E3C666F726D6174733E3C666F726D61743E687474703A2F2F736368656D612E
310
6175746F6465736B2E636F6D2F64657369676E2D7061636B6167652F323030393C2F666F726D61743E3C2F666F726D6174733E504B0304140006080800CC70623BD486FD9CA0000000F4000000130000005B436F6E74656E745F54797065735D2E786D6C7D8EC10E82300C865F65E91D8A1E8C310C0EEA1BF002731658846E
310
D98AC1B77784ABF1D8FE5FBFBF75BBCE937A534CCEB38643598122B6FEE978D0B0485F9C41B54DDD7D022595594E1A469170414C76A4D9A4D207E29CF43ECE46F218070CC6BECC4078ACAA135ACF422C856C0E68EA1BF5669944DDD7BCDE7B1F8E415D77AECB980613C2E4AC91FC167A2B244592486606FC29C8FD7F045B9A
310
EF7053A7E60B504B0304140006080800CC70623B853B8169EB0000007C01000008000000636F72652E786D6C8D90416EC3201045AF62CDB6C206821CC7C244919D9CA01740401C94182C03558F5F9C3852BBEB6A467FFE9B197D7EFC9E1EC5975982F5AE035262288C535E5B377690E21535501C055FBC8FBF6C503839990E
310
5619041F179FE64D52DE45E362569DD7661365082642A11EB9E920A89B99642953CC8E702F67A9EE7234257977194EC9EAE275C4EABCCF5EAD5940D4AC6F0E35A568B8F43562CD7046CD199FD07E60174276A7BE677B5EADB0E0D14EEFFB6A31321A0D82627C4084204C3F096B71DD52F6819B16635EADF63F509AF53FA164
310
5DDCD1EDDD17164090FCC8732078B56691CB33A85CD7DCC40F504B0304140006080800CC70623B55019EA25F0000007C00000007000000636E782E786D6C4DCB3B0E80201045D1AD90E915ED2CF8AC45050C11660C8261F98AB1B07AC9C97D42D718D865D3E909258CFD00CCE24AC6E326A164D74DC0B4128928FF32603847
310
2BA13128B1252AC747C6BAB984FC68F0B87FE8960A5C09FE86CFB69FBA01504B0304140006080800CC70623BDBABAAF470010000D40300000C0000006662782F636F72652E786D6CC553D16E823014FD95A6AF4B694182CC941A83FA05FB810A9511A125A5257EFE2E82712ECEB8A7F100CD39F7F69E734AF9FADC366850B6
310
AF8DCE7018308C942E4C59EB2AC3DE1D498AD15A706B8CFB56869196ADCAF00863C12B6B7C374385D14E6907A836A59A41D9F7CA615434B0C8705F7CAA5606D23BA8E84F41278B93AC54100640439DE0BDB320004D43C63716C7C399D30917DCFBBA9CD9BA8469F5B156168B24CED3F7248AC8769F27244EB73B92EED8862C
310
B7F13E0C179B3C8F979C8ECD82BBBABDAA2BAC924E9558448CBD9330242CFA08E3154B5651FCC6D215639C8EE5774DBE2B5F6CF2B5768B68963BB5F5588420E442FC700B1139D4CB01F450C1E918227C2E09DF070D8140C84E1E9AAB8F1340832A9CB13130A5F1376A908D57309505ECF2A0DF179C4E9D30F5B239B87E3823
310
7A79C6F31DE1A8A5AEC08474B03C7837EAE4938639B44E5932B833D2C6B6B279CDC613877FA26EE21F4A2A4C63EC7F29A2F301D1F9F7A0E37D145F504B0304140006080800CC70623B9C113CC27E0000009D0000000B0000006662782F636E782E786D6C4DCCDF0A83201C86E15B91DFB94BFB330DD428C8FB886521330DA7
310
6397BF1A1DECE883878F57749FCDA1B7892F1BBC047A23808C7F84D9FA55424E0BE6803A256208E9EF06C84F9B91703228B1C690F78B66B34CD9A5439DF5CF0BFBF65E35BCA1B8D6A5C6F540381E886698B5741C695F9503EBA150A2F8958E3DC3EA0B504B0304140006080800CC70623B7DF2F77C2A010000120200003100
310
00006662782F41393633353835312D344632462D344230382D423046372D3739314545314133324237412F636F72652E786D6C8D51DB8EC22014FC15C2939B0D2DB4B45643319AE817EC0F6041255A68B86CFCFC856D4D76DF7CE190393373060EDB3DC707F856CE6B6B7A480A0C81328395DA5C7B18C3057510EC3873D686
310
3F34088C18550F330C39BB3A1BA7051AAC09CA84841A2BD5020AEF55806078A44B0FFD7053A328440C89E1EFC52486BBB8AA8214A99D789CF9E05200300FC927E4FB4D5B375D43103D5527440FB843077C5AA3F5861C8F645F5787F59E95B390B318B55CE45AA638FAA2957BD7248B390B7A7CC51F9C124149C82B8C378810
310
84AB2F42B7B8DD56F413775B8C5999E9FF4471926F8AA236A1AE96B8B3CC434E5839373893369E1FAF30EA395917409EB7F26AF8801C171837A4A6AC9C89E9F9C9B1A58BA30FD6A5EF5DDDCF894B9AD9B6A59C957943A9FCAE2FD5BC4DFE03504B0304140006080800CC70623BAD7543B64E01000033030000300000006662
310
782F41393633353835312D344632462D344230382D423046372D3739314545314133324237412F636E782E786D6CD593CD6EC32010845F0571AD6CE3D48AD20813A9873E410FBD12D82434182C7EAAE6EDBB2424CD25871E7B41D6EC30B3FA84F9E67BB2E40B4234DE8DB46F1925E094D7C6ED479AD3AE5951B2113C789FEE
310
6C943839C1488B4C05DF079FE72A69D8C96C13AAD6B8631503449F83828872B949AC57D26200B826A308D316B4064D6E46FCDA41C05550DC9E483A00797BFD207EFB092A45DE9514C1BBD22178396BD39D891265658C238DEA00936C654E5E433CB65A26D9F6EDB5EBC14EBF49A45CB856E66048291F6939A9A81BB5C89177
310
38143CA680F4AA299D66A042CEB3354A2684DC9D8D178FE0D9B8B41CAAD720F880EE7EF93C0C18769E099ECC04D5A102C8049A8A05632F4DDF376CF1DE0F6BB65C2F8627B65A33C6BB62177CEBBDAD973006829F89F22E814B54F4BC2BE347F8AA8F681390B50FA73F804400B5F542E796F19FF974E7F78DB802FE05E20750
310
4B0304140006080800CC70623BE75B7789680500003C100000340000006662782F41393633353835312D344632462D344230382D423046372D3739314545314133324237412F6F626A656374732E786D6CAD575B8F9B3818FD2B887D06C22499CB8AA1CA655245D5B455A356FB305264C061D8018C6C3393D95FBFC7600890
310
A4CD5EF210B0B1BFEBF98E3F7B1FF6596ABC522E1296DF9BAE3D320D9A872C4AF2F8DE2CE5CEBA358D0FBEC719939D65A691938CDE9B6ADAF4BD98B3B2D05311DD91329583D9D5FC0F438434A7A611A644887B5384CF34233629258BA878B12322891DEFF6B66BD70BFB62634E8AE781D082709A4B588AF91C528CDA28B73F
310
1C998EEF39EABBEFA97FBD6A7C7E9553F9D3D79FE442923C3C523610337627CB87ABE99D359D4CC6D6E4FACAB5E6ABF9D2726FC6A3C5F56271377BB88362213924694B38DD99FE47C48627A1E7D49F5A8BB5E1A74C0A599ED3B0F21F1E56366B89112D681E218F0915D0D6F17AD41FBA2A369DCF6335D62ABBD39779D5DDD1
310
11D4D8DE3CBB96B2E04FB8202E41051754A1AA8E8F76B4C6DFE810B580B1547F4B84911149794252234D024EF8BBE963A95AE27B3D310A9D5C215C7960FAEE415ED75694C6AFB17BCACA5D99A60A9AA65F217B0BFC53292ACB92BF283FAD0D3621576592CB5BED907C2FA8E9DF794E35E97BEA31BED21FEB401ABB94C44839
310
DCACBF0E1C5DA8DA5B2F4DFFD32AD86F543D9E565E7056502E157C00AD2671CD534549AB752FCA9CDA00677A313F04E51B22FF19E57B300579E3C97EB29F682D92935CEC18CF901B7B54FD8C51F362B56FC72FE0B3C1EAE335EDCCBF5AEC39ADB17DC238973F804BA5E6F6BFE7AF1FB32E523BE9F3BD571418E3631DCA4D48
310
5250CF639223210A9446CA30052EDF057BD35F8329C1ECD84552BF0DC8D18BE7BCE23BFE6BD960AB4A7DE79923A103BEBD80F911CBAA2C60DB19B01CF164A5583B772EE6D3FFA56666CBCDA74DC97724A48F9A58967497E489C4D979006FD7A05E227A1EBDD0F737C623387A9C844D3709995625106D157315F8B8392CD4E0
310
A0B9A720C4BE9829CEF37EA1E13111214D53925356365ADA634861B52519DD27A00AEB808EAF0628E6F435519D446F45CF2C9CF5214F0A15B2F6D06B79DA3EE3CBF7F56780D2F4E7EF73A0F5E5B02A38D07DC852C6B7C1FBB6664213E0C39E3EBA7FF4E1AD23EA2829407C85E586727488B751B2DB9502BC7B228A3FD68B6E
310
A65A22397E690AA8D158D7E404EC8CDA235CC3B7D1898680131CEC2CDF2638C65196279577750F15884AEE19F94199155B92B13297978469D4F8D358DF0AEF7631E28DC8F0D9F437D5D39A83B2231A1D52D543813A824EF8D44BCFF2FA6A31BD1E8DAD87F1CCB526B3879935BF59CDADD5C37479BB1CDD4CA7B3556B516589
310
EF352754B706114D9C885EC9131DE6EFEB43D99AFE2391C2F958179413D7CFEF6B1B6DB1E7600F00DE6E5C67454A339A4BA2E0FBA85ED26F045D454F463DBFCE484C2F90F2E5E3666003662ED8F755951A7D1BECD5B30B550B2785C8E7320B7292A4838DDA71BBC863ED7613CAF659337A3354231D4FF4A182A54904C2898C
310
98B28C4AD0CE056CCF332A80986E571EE9DBC305BB5FEB7E509220A58D25CF042D712A806AC0AD0C657FDEF80D2D9CEAA2EE4D1C76F60BFE74219A06527D6F82DF6412526107381E55E353090704D085B52408A8913C4ED159D79BDA71BB4BC506F4831350EB6F975CD22D69BF7AC49B91A2C0A9DDA3D5CA36AD20FC478E37
310
E61844E2352865EBCB61A275A65283CAAA9DD27703B4102F5AF51EF5F573B75CBB5AD38BC845F7A49F82A0966A49C2E3EA5EA0ECD326CD965F1DB402C6FA8B51A4658C5C5E2EC9E214602E55810345408596591009A82E7E7FFACA19EEA299B14A0081A705CB3296EBC14CDF658DCD336EA6D1136881AAEB87B81AB9EE53D5
310
F5EB8BC8362082DA24122F98680A4E7930C01A0079749CEA14382A0783E5EBA5A10F8C098456A03D6A4AEB6BB881E2513747552A5DB22C7EDAF83BD5528081A365F7FF06504B0304140006080000CC70623B000000000000000000000000350000006662782F41393633353835312D344632462D344230382D423046372D37
310
39314545314133324237412F76657274696365732E62696E504B0304140006080800CC70623BF270F1330600000004000000360000006662782F41393633353835312D344632462D344230382D423046372D3739314545314133324237412F747269616E676C65732E62696E636660600000504B0304140006080000CC7062
310
3B000000000000000000000000370000006662782F41393633353835312D344632462D344230382D423046372D3739314545314133324237412F617474726962757465732E62696E504B0304140006080800CC70623B08DA0BD19000000041010000360000006662782F41393633353835312D344632462D344230382D4230
310
46372D3739314545314133324237412F6469726563746F72792E786D6C858F410AC3201045AF22B36F53E9A60B35CBEEBAE80D244E44489C6234F4F835464A48035D0DF398FF9F8AF63D0E6CC63039F212F8F9020C7D47C6792B21C5FE7403D62A1188E2E60C98D7234A5830286103A55745067B9D86B8A3CF9C7F90C11DE6
310
07FB144396D7B6A82D282E9A152AD114D5EF2CB866EEE831B8EEA07A7BB5A8D7D61A2BAAEB7FD5F70921FF497D00504B0304140006080800CC70623BEDD1DC58FD000000A00100003B0000006662782F41393633353835312D344632462D344230382D423046372D3739314545314133324237412F7265736F75726365732F
310
636F72652E786D6C8D504B6E833010BD0A9A6D65B00922041947112427E8052C33A156828DFCA97AFC9A40A576D7CDCCE87D344F8F9FBFE667F689CE6B6B3A6039850C8DB2A336530731DC4903D95970676DF82583CCC8193B5861107C72362E3BA4AC096842428D1D7107A5F7182053CF7474E0D507CE32973124857FE48B
310
540F3961CEF244279DE03EB81420DB9EAC1384436FA353E879B1B182C7A8C75DA3C7F453DF353A1075D537A7BA6464B8F535A99AE14A9A2BBD90E350DD183B5CFABE3AF262350B1EF4FC9351399401471025A527C218A1E53BAB5A5AB765F5469B96525EACF23FA6B88CFF34456DC2A1DCE36E360F82A5202F42F062ED2BAD
310
579969AFDD8A6F504B010214000A0000080000CC70623B3DEE336E79000000790000001B00000000000000000000000000000000006175746F6465736B2D64657369676E2D7061636B6167652E786D6C504B01021400140006080800CC70623BD486FD9CA0000000F40000001300000000000000000000000000B20000005B
310
436F6E74656E745F54797065735D2E786D6C504B01021400140006080800CC70623B853B8169EB0000007C010000080000000000000000000000000083010000636F72652E786D6C504B01021400140006080800CC70623B55019EA25F0000007C000000070000000000000000000000000094020000636E782E786D6C504B
310
01021400140006080800CC70623BDBABAAF470010000D40300000C00000000000000000000000000180300006662782F636F72652E786D6C504B01021400140006080800CC70623B9C113CC27E0000009D0000000B00000000000000000000000000B20400006662782F636E782E786D6C504B01021400140006080800CC70
310
623B7DF2F77C2A010000120200003100000000000000000000000000590500006662782F41393633353835312D344632462D344230382D423046372D3739314545314133324237412F636F72652E786D6C504B01021400140006080800CC70623BAD7543B64E010000330300003000000000000000000000000000D2060000
310
6662782F41393633353835312D344632462D344230382D423046372D3739314545314133324237412F636E782E786D6C504B01021400140006080800CC70623BE75B7789680500003C10000034000000000000000000000000006E0800006662782F41393633353835312D344632462D344230382D423046372D3739314545
310
314133324237412F6F626A656374732E786D6C504B01021400140006080000CC70623B0000000000000000000000003500000000000000000000000000280E00006662782F41393633353835312D344632462D344230382D423046372D3739314545314133324237412F76657274696365732E62696E504B01021400140006
310
080800CC70623BF270F133060000000400000036000000000000000000000000007B0E00006662782F41393633353835312D344632462D344230382D423046372D3739314545314133324237412F747269616E676C65732E62696E504B01021400140006080000CC70623B0000000000000000000000003700000000000000
310
000000000000D50E00006662782F41393633353835312D344632462D344230382D423046372D3739314545314133324237412F617474726962757465732E62696E504B01021400140006080800CC70623B08DA0BD1900000004101000036000000000000000000000000002A0F00006662782F41393633353835312D344632
310
462D344230382D423046372D3739314545314133324237412F6469726563746F72792E786D6C504B01021400140006080800CC70623BEDD1DC58FD000000A00100003B000000000000000000000000000E1000006662782F41393633353835312D344632462D344230382D423046372D3739314545314133324237412F7265
310
736F75726365732F636F72652E786D6C504B0506000000000E000E0080040000641100000000
  0
XRECORD
  5
17CE
102
{ACAD_REACTORS
330
1F7
102
}
330
1F7
100
AcDbXrecord
280
     1
102
MATERIAL
148
0.0
149
0.0
149
0.0
 93
        0
 94
       63
282
     0
 72
     1
 77
     1
171
     1
175
     1
179
     1
273
     0
  0
XRECORD
  5
1F8
102
{ACAD_REACTORS
330
1F7
102
}
330
1F7
100
AcDbXrecord
280
     1
 70
     1
 90
429727718
  1
30362254-06B7-45E0-A893-8CFA70E3D6BC
310
504B03040A0000080000CC70623B3DEE336E79000000790000001B0000006175746F6465736B2D64657369676E2D7061636B6167652E786D6C3C3F786D6C2076657273696F6E3D22312E302220656E636F64696E673D227574662D3822203F3E3C666F726D6174733E3C666F726D61743E687474703A2F2F736368656D612E
310
6175746F6465736B2E636F6D2F64657369676E2D7061636B6167652F323030393C2F666F726D61743E3C2F666F726D6174733E504B0304140006080800CC70623BD486FD9CA0000000F4000000130000005B436F6E74656E745F54797065735D2E786D6C7D8EC10E82300C865F65E91D8A1E8C310C0EEA1BF002731658846E
310
D98AC1B77784ABF1D8FE5FBFBF75BBCE937A534CCEB38643598122B6FEE978D0B0485F9C41B54DDD7D022595594E1A469170414C76A4D9A4D207E29CF43ECE46F218070CC6BECC4078ACAA135ACF422C856C0E68EA1BF5669944DDD7BCDE7B1F8E415D77AECB980613C2E4AC91FC167A2B244592486606FC29C8FD7F045B9A
310
EF7053A7E60B504B0304140006080800CC70623B1EC5D7A3EB0000007C01000008000000636F72652E786D6C8D90416EC3201045AF82665B6103C6756C6122AB4D4ED00B204C5C94182C03558F5F9C3852BBEB6A467FFE9B197D71FC9E6FE8CBACC17AD7032D0820E3B41FAD9B7A48F1820F808E52ACDEC75F36404ECDA687
310
4D0629A6D5A76597B477D1B89855E747B38B2A041301E95B6E7A08FAD3CCAA50296647B8168BD2573599823EBB0CA76447F43862C7BCCF5EAC59410E4DDD9C7973C2755553CCCFA4C603E3040F1565ED3B1FDE4E432BCA0D9622DAF9795FAF464533826484B498524CD807E51D79ED187F21878E10516EF63F505AC67F42C9
310
BA58B1FDDD071640D2FCC87D2045B96591CB3DA85CB7DCE40F504B0304140006080800CC70623B55019EA25F0000007C00000007000000636E782E786D6C4DCB3B0E80201045D1AD90E915ED2CF8AC45050C11660C8261F98AB1B07AC9C97D42D718D865D3E909258CFD00CCE24AC6E326A164D74DC0B4128928FF32603847
310
2BA13128B1252AC747C6BAB984FC68F0B87FE8960A5C09FE86CFB69FBA01504B0304140006080800CC70623B8C9102E971010000D40300000C0000006662782F636F72652E786D6CC5535B6E833010BC8AE5DF0A6C08340F1947A84D4ED00B38C6A128602363A31CBFCB234A53A551FA553EC09AD9F5CE8C31DB9E9B1AF5CA
310
7695D1198E428A91D2D214952E33ECDD315861B4E5CC1AE3BE9561A445A3323CC098B3D21ADFCE9034DA29ED00D5A6503328BA4E398C640D8B0C77F253352214DE4145770A5B214FA2546114020D759C75CE8200340D19DE981F0F6746269C33EFAB6266AB02A655C74A59CCF365BADC27CB5D902ED22848F6340DF238A141
310
BE88E2F57B92BFEDF23523433367AE6A2EEAA455C2A902F398D2751045018D3FA264435F3771F242571B4A1919CA6F9A7C5B3CD9E42BED16F12C776AEB308F40C848FC700B1139D4891EF410CEC810227CC6846F8386402064270EF5C5C709A05E49676C024C61FC95EA45ED154CA5211D1FF4FB8291A913A68E9B83EBBB33
310
E2A7673CDE118E5AE8124C0807CB8377834E366998436B950D7A7746DAD846D4CFD978E0F04FD455FC5D49D2D4C6FE9722321F10997F0F32DC47FE05504B0304140006080800CC70623BFFEA85907E0000009D0000000B0000006662782F636E782E786D6C4DCCD10A83201886E15B91FFDC95D95A811AB6F23E625948A6C3
310
E9D8E5AF46073BFAE0E1E365ED67B3E8ADC3CB78C7815C7240DA3DFC64DCC221C519D7805AC182F7F1EF06C88D9BE6703008B6049F9E274D7A1E938DBB5AE3D6131B2589BA0D3D965551E0B2EA732C9B9A624AAEB41E3A557677029960D9AFB4EF11165F504B0304140006080800CC70623B4FEEA4082C0100001202000031
310
0000006662782F39464131463745442D413632322D343644302D413938332D3331353338454246344243312F636F72652E786D6C8D515B6EC32010BC0AE2AB55850DD871ED0813254D72825EC00192A2C460F1A872FC42ED48ED5F7E00CDCECCCEB26C731F6FE05B39AFADE921293004CA082BB5B9F43086336A21D870E6AC
310
0D7F68109861543DCC30E4ECE26C9C164858139409093556AA051CBC570102714B8F1E7AF1A5C6A11862480C7F2DA6415C878B2A4891CA89C7990F2E050073937C42DE1DB7E4F87ED8A36D4329AA9B3D46DBAEAD504556557BD81DEBDD0761E52CE42C462D17B996298E3E6BE59E35C962CE821E1FF18553435012728A7187
310
0841987E927A8D9B35ADDF70BBC6989599FE4F1427F9A4286A132ABAC49D651EF234CD5CE04CDA78BA3DC2A8FB645D00B9DF8B57E215725C60BCA2A463E54C4CE327C7A65E1C7DB02E7DEFCBF594B864C5CA6CDBD49C957943E9FA5D5FBAF336F90F504B0304140006080800CC70623BAD7543B64E01000033030000300000
310
006662782F39464131463745442D413632322D343644302D413938332D3331353338454246344243312F636E782E786D6CD593CD6EC32010845F0571AD6CE3D48AD20813A9873E410FBD12D82434182C7EAAE6EDBB2424CD25871E7B41D6EC30B3FA84F9E67BB2E40B4234DE8DB46F1925E094D7C6ED479AD3AE5951B2113C
310
789FEE6C943839C1488B4C05DF079FE72A69D8C96C13AAD6B8631503449F83828872B949AC57D26200B826A308D316B4064D6E46FCDA41C05550DC9E483A00797BFD207EFB092A45DE9514C1BBD22178396BD39D891265658C238DEA00936C654E5E433CB65A26D9F6EDB5EBC14EBF49A45CB856E66048291F6939A9A81BB5
310
C8917738143CA680F4AA299D66A042CEB3354A2684DC9D8D178FE0D9B8B41CAAD720F880EE7EF93C0C18769E099ECC04D5A102C8049A8A05632F4DDF376CF1DE0F6BB65C2F8627B65A33C6BB62177CEBBDAD973006829F89F22E814B54F4BC2BE347F8AA8F681390B50FA73F804400B5F542E796F19FF974E7F78DB802FE05
310
E207504B0304140006080800CC70623B16AB87BA640500003C100000340000006662782F39464131463745442D413632322D343644302D413938332D3331353338454246344243312F6F626A656374732E786D6CAD575B6FA33818FD2B887DE6924B3BED8A326A92B68A663B534DD4D13E548A0C38942D60649B369D5FBFC7
310
600890A493BDE42160637FD7F31D7FF63E6FB3D478A55C242CBF3247B66B1A340F5994E4F19559CA8D75611A9F7D8F33263BCB4C232719BD32D5B4E97B316765A1A722BA21652A07B3B7B33F0D11D29C9A46981221AE4C113ED38CD8A4942CA2E2C58E882476BCD9DA23BB5ED8171B73523C0F841684D35CC252CCE79062D4
310
468DFA43D7747CCF51DF7D4FFDEB5593E3AB9CCA9FBEFE241792E4E19EB28198C968BAB8199F5D5A67D3E9C49A9E8F47D6EC76B6B0469F26EEFC7C3EBFBCBEB98462213924694B38DD98FE1D62C393D073EA4FADC5DAF04326852CCF6958F90F0F2B9BB5C48816348F90C7840A68EB78EDF68723159BCEE7891A6B95DDE9D3
310
BCEAEEE8086A6C6F9E5D4B59F0175C10A7A0820BAA5055C7473B5AE3CFDD452D602CD5DF12616444529E90D448938013FE6EFA58AA96F85E4F8C42275708571E98FE6827AF6B2B4AE3D7D83D64E5A64C53054DD3AF90BD06FEA9149565C94FCA0F6B834DC85599E4F2423B24DF0B6AFA979E534DFA9E7A4CC6FA631D486393
310
921829879BF5D781A373557BCB85E97FB90DB62B558F8795179C15944B051F40AB495CF35451D26A4727654E6D8033BD98EF82F21D91FF8AF2DD9982BCF1643BDD4EB516C9492E368C67C88DED563FC36D5EACF66DFF057C3658BDBFA69DF9578B3DA735B64F18C7F20770A9D45CFCF7FCF563D6456A277DBEF78A02637CA2
310
43B90A490AEAB94F72244481D24819A6C0E59B606BFA4B3025981DBB48EAB701D97BF19C577CC77F2D1B6C55A9EF3C732474C0B727303F625995056C3B02963D9EAC146BE78EC5FCEC7FA999EBC5EACBAAE41B12D27B4D2C0BBA49F244E2ECDC81B76B502F113D8F5EE8FB1BE3111CDD4FC2AA9B844CAB1288B68AB90A7CDC
310
1C166AB0D3DC5310625FCC14E779BFD0709F8890A629C9292B1B2DED31A4B0DA928CEE135085754027E3018A397D4D5427D15BD1330B677DC8934285AC3DF45A9EB68FF8F2B8FC0A509AFEECFD0FF2DE25CC6047F7214B195F07EFEB9A094D800F7BFAE8FED187B78EA8A3A400F115961BCAD1215E47C966530AF0EE8128FE
310
58CEBB996A8964FFA529A046635D9353B0336A8F700DDF46271A024E70B0B37C9DE01847591E54DED53D54202AB947E4076556AC49C6CA5C9E1226B7F1A7B1BE15DEED62C41B91E1B3E9AFAAA735036547343A925075041DF0A9979E893B391F8FCFA6967B3EFB644DCF6E5CEBFAE272625DCC6FAF3FB93793C5F90CE1EF57
310
407342756B10D1C489E8953CD1617E5CEECAD6F4EF8914CE5D5D504E5C3F1F9736DA62CFC11E00BCDDB8CC8A9466349744C1F75EBDA4DF09BA8A9E8C7A7E9991989E20E5DBDD6A6003664ED8F7A04A8DBE0DF6EAD9B9AA858342E47399053949D2C146EDB85DE4B176BB0965FBAC19BD19AA918E27FA50C1D22402E144464C
310
59462568E704B6E71915404CB72B8FF4EDE184DDAF753F284990D2C6926782963815403548A70C657FDEF80D2D9CEAA2AE4C1C76F60BFE74219A06527D6582DF6412526107381E55E353090704D085B52408D0933C4ED159D79BDA71BB4BC506F4831350EB6F979CD22D69BF7AC49B91A2C0A9DDA3D5CA36AD20FC478E37E6
310
1844E2352865EBCB6EA275A652E3836BE04EFB400BF1A2556F515F1FBB35B2AB35BD889C744FFA1004B5544B121E57F70215746DD2F5E2C1412B602CBF19455AC6C8E5E9922C4E01E65215385004546899059180EAFCF7A707CE7017CD8CDB0410789AB32C63B91E5CEBBBACB17AC6CD347A022D5075FD106377347AAABA7E
310
7D11590744509B44E205134DC1290F06580320F78E537D3D73540E06CB970B431F185308AD40BBD794D6D77003C5A36E8EAA54BA64597CD8F83BD552A080A365F7FF06504B0304140006080000CC70623B000000000000000000000000350000006662782F39464131463745442D413632322D343644302D413938332D3331
310
353338454246344243312F76657274696365732E62696E504B0304140006080800CC70623BF270F1330600000004000000360000006662782F39464131463745442D413632322D343644302D413938332D3331353338454246344243312F747269616E676C65732E62696E636660600000504B0304140006080000CC70623B
310
000000000000000000000000370000006662782F39464131463745442D413632322D343644302D413938332D3331353338454246344243312F617474726962757465732E62696E504B0304140006080800CC70623B08DA0BD19000000041010000360000006662782F39464131463745442D413632322D343644302D413938
310
332D3331353338454246344243312F6469726563746F72792E786D6C858F410AC3201045AF22B36F53E9A60B35CBEEBAE80D244E44489C6234F4F835464A48035D0DF398FF9F8AF63D0E6CC63039F212F8F9020C7D47C6792B21C5FE7403D62A1188E2E60C98D7234A5830286103A55745067B9D86B8A3CF9C7F90C11DE607
310
FB144396D7B6A82D282E9A152AD114D5EF2CB866EEE831B8EEA07A7BB5A8D7D61A2BAAEB7FD5F70921FF497D00504B0304140006080800CC70623B0D6EF93BFE000000A00100003B0000006662782F39464131463745442D413632322D343644302D413938332D3331353338454246344243312F7265736F75726365732F63
310
6F72652E786D6C8D50596E833010BD0A9ADFCA60B334011947A8694ED00B586642AC041B79A97AFC9A40A5F6AF3F33A3B7689E1E3F7DCD8FEC139DD7D6F4C0720A191A65476DA61E62B892236427C19DB5E1970C322367EC618541F0C9D9B8EC90B226A009093576C41D94DE63804C3DD2D18357379C652E63480A7FCF17A9
310
EE72C29CE5894E3AC17D702940B63D59270887DE46A7D0F36263058F518FBB468FE9A7BE6A7420864373B8D4873369AA8691FA421B3294352543C5CAF65C0F6FEF43CB8BD52C78D0F34F46E550061C419494B6843142CB0F5677F4B52BEB177AEC28E5C52AFF638ACBF84F53D42654E51E77B379102C05791282176B5F693D
310
CB4C7BED567C03504B010214000A0000080000CC70623B3DEE336E79000000790000001B00000000000000000000000000000000006175746F6465736B2D64657369676E2D7061636B6167652E786D6C504B01021400140006080800CC70623BD486FD9CA0000000F40000001300000000000000000000000000B20000005B
310
436F6E74656E745F54797065735D2E786D6C504B01021400140006080800CC70623B1EC5D7A3EB0000007C010000080000000000000000000000000083010000636F72652E786D6C504B01021400140006080800CC70623B55019EA25F0000007C000000070000000000000000000000000094020000636E782E786D6C504B
310
01021400140006080800CC70623B8C9102E971010000D40300000C00000000000000000000000000180300006662782F636F72652E786D6C504B01021400140006080800CC70623BFFEA85907E0000009D0000000B00000000000000000000000000B30400006662782F636E782E786D6C504B01021400140006080800CC70
310
623B4FEEA4082C0100001202000031000000000000000000000000005A0500006662782F39464131463745442D413632322D343644302D413938332D3331353338454246344243312F636F72652E786D6C504B01021400140006080800CC70623BAD7543B64E010000330300003000000000000000000000000000D5060000
310
6662782F39464131463745442D413632322D343644302D413938332D3331353338454246344243312F636E782E786D6C504B01021400140006080800CC70623B16AB87BA640500003C1000003400000000000000000000000000710800006662782F39464131463745442D413632322D343644302D413938332D3331353338
310
454246344243312F6F626A656374732E786D6C504B01021400140006080000CC70623B0000000000000000000000003500000000000000000000000000270E00006662782F39464131463745442D413632322D343644302D413938332D3331353338454246344243312F76657274696365732E62696E504B01021400140006
310
080800CC70623BF270F133060000000400000036000000000000000000000000007A0E00006662782F39464131463745442D413632322D343644302D413938332D3331353338454246344243312F747269616E676C65732E62696E504B01021400140006080000CC70623B0000000000000000000000003700000000000000
310
000000000000D40E00006662782F39464131463745442D413632322D343644302D413938332D3331353338454246344243312F617474726962757465732E62696E504B01021400140006080800CC70623B08DA0BD190000000410100003600000000000000000000000000290F00006662782F39464131463745442D413632
310
322D343644302D413938332D3331353338454246344243312F6469726563746F72792E786D6C504B01021400140006080800CC70623B0D6EF93BFE000000A00100003B000000000000000000000000000D1000006662782F39464131463745442D413632322D343644302D413938332D3331353338454246344243312F7265
310
736F75726365732F636F72652E786D6C504B0506000000000E000E0080040000641100000000
  0
XRECORD
  5
17D0
102
{ACAD_REACTORS
330
173
102
}
330
173
100
AcDbXrecord
280
     1
102
MATERIAL
148
0.0
149
0.0
149
0.0
 93
        0
 94
       63
282
     0
 72
     1
 77
     1
171
     1
175
     1
179
     1
273
     0
  0
XRECORD
  5
175
102
{ACAD_REACTORS
330
173
102
}
330
173
100
AcDbXrecord
280
     1
270
     1
271
     1
  0
XRECORD
  5
174
102
{ACAD_REACTORS
330
173
102
}
330
173
100
AcDbXrecord
280
     1
270
     1
271
     1
  0
XRECORD
  5
1FB
102
{ACAD_REACTORS
330
173
102
}
330
173
100
AcDbXrecord
280
     1
 70
     0
 90
1673772943
  1
ECE7A1D2-D628-4531-984C-D00F80459256
310
504B03040A0000080000CC70623B3DEE336E79000000790000001B0000006175746F6465736B2D64657369676E2D7061636B6167652E786D6C3C3F786D6C2076657273696F6E3D22312E302220656E636F64696E673D227574662D3822203F3E3C666F726D6174733E3C666F726D61743E687474703A2F2F736368656D612E
310
6175746F6465736B2E636F6D2F64657369676E2D7061636B6167652F323030393C2F666F726D61743E3C2F666F726D6174733E504B0304140006080800CC70623BD486FD9CA0000000F4000000130000005B436F6E74656E745F54797065735D2E786D6C7D8EC10E82300C865F65E91D8A1E8C310C0EEA1BF002731658846E
310
D98AC1B77784ABF1D8FE5FBFBF75BBCE937A534CCEB38643598122B6FEE978D0B0485F9C41B54DDD7D022595594E1A469170414C76A4D9A4D207E29CF43ECE46F218070CC6BECC4078ACAA135ACF422C856C0E68EA1BF5669944DDD7BCDE7B1F8E415D77AECB980613C2E4AC91FC167A2B244592486606FC29C8FD7F045B9A
310
EF7053A7E60B504B0304140006080800CC70623BD9DDAED0EC0000007C01000008000000636F72652E786D6C8D90416EC3201045AF82665B61836D9CD8C2444DD39CA01740405C94182C03558F5F9C3852BBEB6A467FFE9B197D7EF89E6EE8CB2CC17A37002D0820E394D7D68D03A478C17B4007C117EFE32F1B20272733C0
310
2A83E0E3E2D3BC49CABB685CCCAAF3DA6CA20CC14440EA969B0182FA34932C648AD911AEC52CD5558EA6A0CF2EC329598D1E47ACCEFBECC59A050463A7EA5833865FEBDD0E37353BE3EE8DBDE3F6786A48D375FBF6CC78B9C282473B3DEFABC5C86834888A900E538A49F5419B9EB47DD5BC907D4F082F57FB1F28CDFA9F50
310
B22ED6D5F6EE030B20687EE43E10BC5CB3C8E51E54AE6B6EE207504B0304140006080800CC70623B55019EA25F0000007C00000007000000636E782E786D6C4DCB3B0E80201045D1AD90E915ED2CF8AC45050C11660C8261F98AB1B07AC9C97D42D718D865D3E909258CFD00CCE24AC6E326A164D74DC0B4128928FF326038
310
472BA13128B1252AC747C6BAB984FC68F0B87FE8960A5C09FE86CFB69FBA01504B0304140006080800CC70623BA24EB22D72010000D40300000C0000006662782F636F72652E786D6CC5535B6E833010BC8AE5DF0A6C5E49888CA3A6694ED00B38E05014B091B1518EDFE511A5A9D228FD2A1F60CDEC7A67C6986DCE4D8D7A
310
69BA4AAB0C073EC548AA5C17952A33ECECD15B61B4E1CC686DBF9561A44423333CC098B3D268D7CE50AE9595CA02AA74216750749DB418E5352C32DCE59FB211BE70162ABA93DF8AFC244AE9073ED050C759670D0840D390E18DF9F1706664C23973AE2A66B62A605A75ACA4C13C4976E1364A12EF355A2EBD384AF65EFA96
310
BC7B8BED2EA6719AAE16FB8491A199335B351775B991C2CA02F390D2D40B028F861F41BCA68B7518BFD0D59A524686F29B26D7164F36B94AD9289CE54E6D1DE6010819891F6E21228B3AD1831EC219194284CF98F06DD01008846CC5A1BEF83801D4CBDC6A1303536877A57A513B0953A94FC707FDBE6064EA84A9E3E6E0FA
310
EE8CF0E9198F7784A316AA0413C2C2F2E0ECA0934D1AE6D05A69BCDE9E91D2A611F573361E38FC1375157F5752AE6B6DFE4B11990F88CCBF0719EE23FF02504B0304140006080800CC70623B408A7D3B7C0000009D0000000B0000006662782F636E782E786D6C4DCCD10A83201886E15B91FFDC552A92A0064DBC8F581632
310
D3703A76F9ABD1C18E3E78F878E5F0D9027ABBFCF2292AE86E2D20171F69F6715550CB827B40839639A5F2770314A7CD293819B45C73AAFB45B35BA61ACAA1C1C7E7855C58C15BC331339661262CC762340413D68D77DA5B42298546CBE6573AF60CEB2F504B0304140006080800CC70623B449FB9BD290100001202000031
310
0000006662782F36394639363044362D344446342D343946362D394244322D3234314243333846323333332F636F72652E786D6C8D515B6EC32010BC0AE22B55850D98B871848994463E412FE002495162B07854397EA176A4F62F3F2C9A9D991D587EB84F37F0AD7D30CEF6905418026DA553C65E7A98E219ED203808EE9D
310
8B7F6810D871D23D2C3014FCE25D9A57483A1BB58D19B54EE9151C43D0110279CB971E06F9A5A7B11A53CC8C70ADE6515EC78BAE4895DB992778883E0700CB907242D17643D7E2538BD869608875438BBAE38922CAC8F1BDD90DB4691A5E2F42C153326A951B95E398B3D1FE599322163C9AE9115F7A3D46ADA0A018778810
310
84E907617BDCEE297BC5BB3DC6BC2EF47FA234AB2745C9D8D8D035EE220B50105E2F0DC1954B9FB747187D9F9D8FA0CCDB042D5FA0C015C65B42DF78BD10F3F3B363CB56C7109DCFDFBBB97E662ED92EB62D13BC2E1BCAE5777DB9966D8A1F504B0304140006080800CC70623BAD7543B64E01000033030000300000006662
310
782F36394639363044362D344446342D343946362D394244322D3234314243333846323333332F636E782E786D6CD593CD6EC32010845F0571AD6CE3D48AD20813A9873E410FBD12D82434182C7EAAE6EDBB2424CD25871E7B41D6EC30B3FA84F9E67BB2E40B4234DE8DB46F1925E094D7C6ED479AD3AE5951B2113C789FEE
310
6C943839C1488B4C05DF079FE72A69D8C96C13AAD6B8631503449F83828872B949AC57D26200B826A308D316B4064D6E46FCDA41C05550DC9E483A00797BFD207EFB092A45DE9514C1BBD22178396BD39D891265658C238DEA00936C654E5E433CB65A26D9F6EDB5EBC14EBF49A45CB856E66048291F6939A9A81BB5C89177
310
38143CA680F4AA299D66A042CEB3354A2684DC9D8D178FE0D9B8B41CAAD720F880EE7EF93C0C18769E099ECC04D5A102C8049A8A05632F4DDF376CF1DE0F6BB65C2F8627B65A33C6BB62177CEBBDAD973006829F89F22E814B54F4BC2BE347F8AA8F681390B50FA73F804400B5F542E796F19FF974E7F78DB802FE05E20750
310
4B0304140006080800CC70623B8D05915C650500003B100000340000006662782F36394639363044362D344446342D343946362D394244322D3234314243333846323333332F6F626A656374732E786D6CAD575B6FA33814FE2B887D06429276DA1565D4266D158D3A339A6846FB502932E050B66023DB74D2FDF5FB190C01
310
9276B2973C046C8ECFF53B17071F77456EBD502133CEAE6CDF9DD81665314F32965ED995DA3A17B6F5310C04E7AA47665B8C14F4CAD6DB7618A48257A5D94AE89654B91AEDDEDDFC61C998326A5B714EA4BCB265FC440BE2924AF184CA6737218AB8E976E7FA6E4338649B0A523E8D98964450A6A029F619B8588D52FE7039
310
B1BD30F0F4F730D0FF866AF6369557DB33949F31A9088B0F848DD8CCFCF9F2767A76E99CCDE733677E3EF59D9BBB9BA5E37F984D16E78BC5E5F5ED25044B25C0C96822E8D60EEFE11B91C581D77CEA34368A1F5329E68CD1B8B61F16D63A1B8E092D294B10C78C4A48EB593D192E7DED9BDEE7995E1B91FDEDD3ACEA9FE831
310
6A756F9F7D4D79F4274C90A7A04248AA51D5F8C718DAE06FB2F75AC4796EBE65D22A88A22223B995679120E2D50E41AA49C260C046A35368846B0BECD0DFF3EBEB8AD4F835768F69B9ADF25C43D30E6B646F807FAA64AD59F61715C7A54127C4AACA98BA3006A9D792DAE165E0D59B61A01FB3A9F9D838D2DAE62445C86166
310
F37564E842E7DE6A69879FEEA2DD5AE7E371E1A5E025154AC307D06A03D73EB5978C58FFA4C8E9033066E0F3BD53BEC1F39F91BE7B55103791EDE6BBB991A2046172CB4581D8B893FA674DDA17A77B3B7C413D1B511FD2743BFF8A38F03A658705E3ADF8015C3A3417FF3D7E439FF591DA0B5F18BC20C1B8981957AE6392A3
310
F43C640C01D1A0B4728E2DD4F26DB4B3C3152A252A3B4E913CEC1C72F012782FF88EFF8637AA552DBEF76408E8A8DE9E50F9E1CB3A2DA0DB1B6039A893B56063DC5B3E3FFB5F72E67AB9FEB4AEC496C4F4C1149625DD662C53E89D7BF0F6151A046260D1337DFDC94502430F83B0EE07A130A224BCAD7DAE1D9FB6CD422FF6
310
920702629C4BB9AE79C12F243C6432A6794E18E5552BA56B431AAB5D91317302B2B071E86C3A42B1A02F999E24061403B5D0EB639195DA655DD3EBEAB4FB862DDF579F014AD0E73C22F99E28DA57FB98E75C6CA2D74D53086D600F4786E0FE3144B771A8A7B900F03594DB8A633CBC49B2EDB69228BB479CF863B5E807AAAB
310
23872F6DFEB4129B949CA33823F58830E86D65621E10047D9DB34D862E8EAC3C2ABC2F7B2C40D67CDFE01F5545B92105AF983AC54D93D69E56FB8E797F88913F898A9FEC705D3F9D1B54EC8426FB500D40A03BD0119B06E1B95DDC7EB8F6975367793EBD70E66733DFB9BC982F9CE564727731999F5D4ECFCE3B8D6A4DC2A0
310
6D50FD148437D110834A64C6CDDF57FBACB5C307A2A477DFE4939736CFEF2B175371E0E10CF0DD1D5C15654E0BCA14D1E87DD02FF93782A162C0A3D95F1524A52770F972BF1EE9809D13CE7DD599467F8ECE9ADD85CE85A34CD45355448C64F9E8A031DC2D596ACC6E5DD93D9B82DE2EF5CAF81363A8E47996A0DE24564A79
310
4115AACE09C55E14540231FDA13C319787134EBF34E3A022514E5B4D9E0826E25C02D5805B15ABE1BEF51B26383D445DD9E875EE33FE4C22DA16427D65A3BCA92CA6D28DD01DF5DC53330704308475351050232CCD31583787BA75774AFB06E5070DD0C8EF484E19968C5D83BA5B90B244D31E54D55A372320FE4786B7EA58
310
44E135AA5467CB7EA333A61683CC6A8C3257034C10CF46F40EF9F5BE59BE5BD30C3C72D235E95D10345C1D45445A5F0BB47E46A5EBE5570F9380B5FA629579952296A773720405982B9DE04011506178964401AA8BDF1FBF0A8EAB6861DD6580C0E38217056766716DAEB2D6FA0917D3E4116581EADB879C4E7CFFB11EFACD
310
3D641311495D92C8676CB409A72D18610D803CE8A626049E8EC1887CB5B44CC39883690DDA8399B4B9855B481E7D71D4A9D22F96E5BB73BF5793020C02137BF837504B0304140006080000CC70623B000000000000000000000000350000006662782F36394639363044362D344446342D343946362D394244322D32343142
310
43333846323333332F76657274696365732E62696E504B0304140006080800CC70623BF270F1330600000004000000360000006662782F36394639363044362D344446342D343946362D394244322D3234314243333846323333332F747269616E676C65732E62696E636660600000504B0304140006080000CC70623B0000
310
00000000000000000000370000006662782F36394639363044362D344446342D343946362D394244322D3234314243333846323333332F617474726962757465732E62696E504B0304140006080800CC70623B08DA0BD19000000041010000360000006662782F36394639363044362D344446342D343946362D394244322D
310
3234314243333846323333332F6469726563746F72792E786D6C858F410AC3201045AF22B36F53E9A60B35CBEEBAE80D244E44489C6234F4F835464A48035D0DF398FF9F8AF63D0E6CC63039F212F8F9020C7D47C6792B21C5FE7403D62A1188E2E60C98D7234A5830286103A55745067B9D86B8A3CF9C7F90C11DE607FB14
310
4396D7B6A82D282E9A152AD114D5EF2CB866EEE831B8EEA07A7BB5A8D7D61A2BAAEB7FD5F70921FF497D00504B0304140006080800CC70623BCA768048FE000000A00100003B0000006662782F36394639363044362D344446342D343946362D394244322D3234314243333846323333332F7265736F75726365732F636F72
310
652E786D6C8D50596E833010BD0A9ADFCA60D600328E9AA639412F609909B1126CE4A5EAF16B0295DABFFECC8CDEA2797AECF8353F924FB44E193D409E5248504B332A3D0D10FC95B4901C39B3C6F85F3248B49871801506CE266BC2B243D2688FDA47549B11775038871E12F988C7004EDE7016A9083E2ADC3D5D84BC8B09
310
D33C8D74D471E6BC8D0192EDC93A815B742658898E651BCB59086ADC356A8C3FD555A1055ED7E7E254D615792D0F075295F585746FF53B694EE78A565DD736979A65AB9933AFE69F8CD2A2F038022F28ED489E135A7CE4554F9BBEA85E68DB53CAB255FEC71496F19FA6A0B42F8B3DEE6673C0F318E4497096AD7DC5F52C33
310
EEB55BFE0D504B010214000A0000080000CC70623B3DEE336E79000000790000001B00000000000000000000000000000000006175746F6465736B2D64657369676E2D7061636B6167652E786D6C504B01021400140006080800CC70623BD486FD9CA0000000F40000001300000000000000000000000000B20000005B436F
310
6E74656E745F54797065735D2E786D6C504B01021400140006080800CC70623BD9DDAED0EC0000007C010000080000000000000000000000000083010000636F72652E786D6C504B01021400140006080800CC70623B55019EA25F0000007C000000070000000000000000000000000095020000636E782E786D6C504B0102
310
1400140006080800CC70623BA24EB22D72010000D40300000C00000000000000000000000000190300006662782F636F72652E786D6C504B01021400140006080800CC70623B408A7D3B7C0000009D0000000B00000000000000000000000000B50400006662782F636E782E786D6C504B01021400140006080800CC70623B
310
449FB9BD290100001202000031000000000000000000000000005A0500006662782F36394639363044362D344446342D343946362D394244322D3234314243333846323333332F636F72652E786D6C504B01021400140006080800CC70623BAD7543B64E010000330300003000000000000000000000000000D20600006662
310
782F36394639363044362D344446342D343946362D394244322D3234314243333846323333332F636E782E786D6C504B01021400140006080800CC70623B8D05915C650500003B10000034000000000000000000000000006E0800006662782F36394639363044362D344446342D343946362D394244322D32343142433338
310
46323333332F6F626A656374732E786D6C504B01021400140006080000CC70623B0000000000000000000000003500000000000000000000000000250E00006662782F36394639363044362D344446342D343946362D394244322D3234314243333846323333332F76657274696365732E62696E504B010214001400060808
310
00CC70623BF270F13306000000040000003600000000000000000000000000780E00006662782F36394639363044362D344446342D343946362D394244322D3234314243333846323333332F747269616E676C65732E62696E504B01021400140006080000CC70623B00000000000000000000000037000000000000000000
310
00000000D20E00006662782F36394639363044362D344446342D343946362D394244322D3234314243333846323333332F617474726962757465732E62696E504B01021400140006080800CC70623B08DA0BD190000000410100003600000000000000000000000000270F00006662782F36394639363044362D344446342D
310
343946362D394244322D3234314243333846323333332F6469726563746F72792E786D6C504B01021400140006080800CC70623BCA768048FE000000A00100003B000000000000000000000000000B1000006662782F36394639363044362D344446342D343946362D394244322D3234314243333846323333332F7265736F
310
75726365732F636F72652E786D6C504B0506000000000E000E0080040000621100000000
  0
XRECORD
  5
176
102
{ACAD_REACTORS
330
173
102
}
330
173
100
AcDbXrecord
280
     1
270
     1
271
     1
  0
XRECORD
  5
177
102
{ACAD_REACTORS
330
173
102
}
330
173
100
AcDbXrecord
280
     1
270
     1
271
     1
  0
XRECORD
  5
17F2
102
{ACAD_REACTORS
330
17F1
102
}
330
17F1
100
AcDbXrecord
280
     1
102
ACAD_ROUNDTRIP_2012_MLEADER_STYLE
298
     1
  0
XRECORD
  5
1804
102
{ACAD_REACTORS
330
1803
102
}
330
1803
100
AcDbXrecord
280
     1
102
DISPLAYNAME
  1
Metric50
102
FLAGS
 90
        0
  0
CELLSTYLEMAP
  5
17C4
102
{ACAD_REACTORS
330
162
102
}
330
162
100
AcDbCellStyleMap
 90
        3
300
CELLSTYLE
  1
TABLEFORMAT_BEGIN
 90
        5
170
     1
 91
        0
 92
    32768
 62
   257
 93
        1
300
CONTENTFORMAT
  1
CONTENTFORMAT_BEGIN
 90
        0
 91
        0
 92
      512
 93
        0
300

 40
0.0
140
1.0
 94
        5
 62
     0
340
11
144
6.0
309
CONTENTFORMAT_END
171
     1
301
MARGIN
  1
CELLMARGIN_BEGIN
 40
1.5
 40
1.5
 40
1.5
 40
1.5
 40
4.5
 40
4.5
309
CELLMARGIN_END
 94
        6
 95
        1
302
GRIDFORMAT
  1
GRIDFORMAT_BEGIN
 90
        0
 91
        1
 62
     0
 92
       -2
340
14
 93
        0
 40
1.125
309
GRIDFORMAT_END
 95
        2
302
GRIDFORMAT
  1
GRIDFORMAT_BEGIN
 90
        0
 91
        1
 62
     0
 92
       -2
340
14
 93
        0
 40
1.125
309
GRIDFORMAT_END
 95
        4
302
GRIDFORMAT
  1
GRIDFORMAT_BEGIN
 90
        0
 91
        1
 62
     0
 92
       -2
340
14
 93
        0
 40
1.125
309
GRIDFORMAT_END
 95
        8
302
GRIDFORMAT
  1
GRIDFORMAT_BEGIN
 90
        0
 91
        1
 62
     0
 92
       -2
340
14
 93
        0
 40
1.125
309
GRIDFORMAT_END
 95
       16
302
GRIDFORMAT
  1
GRIDFORMAT_BEGIN
 90
        0
 91
        1
 62
     0
 92
       -2
340
14
 93
        0
 40
1.125
309
GRIDFORMAT_END
 95
       32
302
GRIDFORMAT
  1
GRIDFORMAT_BEGIN
 90
        0
 91
        1
 62
     0
 92
       -2
340
14
 93
        0
 40
1.125
309
GRIDFORMAT_END
309
TABLEFORMAT_END
  1
CELLSTYLE_BEGIN
 90
        1
 91
        1
300
_TITLE
309
CELLSTYLE_END
300
CELLSTYLE
  1
TABLEFORMAT_BEGIN
 90
        5
170
     1
 91
        0
 92
        0
 62
   257
 93
        1
300
CONTENTFORMAT
  1
CONTENTFORMAT_BEGIN
 90
        0
 91
        0
 92
      512
 93
        0
300

 40
0.0
140
1.0
 94
        5
 62
     0
340
11
144
4.5
309
CONTENTFORMAT_END
171
     1
301
MARGIN
  1
CELLMARGIN_BEGIN
 40
1.5
 40
1.5
 40
1.5
 40
1.5
 40
4.5
 40
4.5
309
CELLMARGIN_END
 94
        6
 95
        1
302
GRIDFORMAT
  1
GRIDFORMAT_BEGIN
 90
        0
 91
        1
 62
     0
 92
       -2
340
14
 93
        0
 40
1.125
309
GRIDFORMAT_END
 95
        2
302
GRIDFORMAT
  1
GRIDFORMAT_BEGIN
 90
        0
 91
        1
 62
     0
 92
       -2
340
14
 93
        0
 40
1.125
309
GRIDFORMAT_END
 95
        4
302
GRIDFORMAT
  1
GRIDFORMAT_BEGIN
 90
        0
 91
        1
 62
     0
 92
       -2
340
14
 93
        0
 40
1.125
309
GRIDFORMAT_END
 95
        8
302
GRIDFORMAT
  1
GRIDFORMAT_BEGIN
 90
        0
 91
        1
 62
     0
 92
       -2
340
14
 93
        0
 40
1.125
309
GRIDFORMAT_END
 95
       16
302
GRIDFORMAT
  1
GRIDFORMAT_BEGIN
 90
        0
 91
        1
 62
     0
 92
       -2
340
14
 93
        0
 40
1.125
309
GRIDFORMAT_END
 95
       32
302
GRIDFORMAT
  1
GRIDFORMAT_BEGIN
 90
        0
 91
        1
 62
     0
 92
       -2
340
14
 93
        0
 40
1.125
309
GRIDFORMAT_END
309
TABLEFORMAT_END
  1
CELLSTYLE_BEGIN
 90
        2
 91
        1
300
_HEADER
309
CELLSTYLE_END
300
CELLSTYLE
  1
TABLEFORMAT_BEGIN
 90
        5
170
     1
 91
        0
 92
        0
 62
   257
 93
        1
300
CONTENTFORMAT
  1
CONTENTFORMAT_BEGIN
 90
        0
 91
        0
 92
      512
 93
        0
300

 40
0.0
140
1.0
 94
        2
 62
     0
340
11
144
4.5
309
CONTENTFORMAT_END
171
     1
301
MARGIN
  1
CELLMARGIN_BEGIN
 40
1.5
 40
1.5
 40
1.5
 40
1.5
 40
4.5
 40
4.5
309
CELLMARGIN_END
 94
        6
 95
        1
302
GRIDFORMAT
  1
GRIDFORMAT_BEGIN
 90
        0
 91
        1
 62
     0
 92
       -2
340
14
 93
        0
 40
1.125
309
GRIDFORMAT_END
 95
        2
302
GRIDFORMAT
  1
GRIDFORMAT_BEGIN
 90
        0
 91
        1
 62
     0
 92
       -2
340
14
 93
        0
 40
1.125
309
GRIDFORMAT_END
 95
        4
302
GRIDFORMAT
  1
GRIDFORMAT_BEGIN
 90
        0
 91
        1
 62
     0
 92
       -2
340
14
 93
        0
 40
1.125
309
GRIDFORMAT_END
 95
        8
302
GRIDFORMAT
  1
GRIDFORMAT_BEGIN
 90
        0
 91
        1
 62
     0
 92
       -2
340
14
 93
        0
 40
1.125
309
GRIDFORMAT_END
 95
       16
302
GRIDFORMAT
  1
GRIDFORMAT_BEGIN
 90
        0
 91
        1
 62
     0
 92
       -2
340
14
 93
        0
 40
1.125
309
GRIDFORMAT_END
 95
       32
302
GRIDFORMAT
  1
GRIDFORMAT_BEGIN
 90
        0
 91
        1
 62
     0
 92
       -2
340
14
 93
        0
 40
1.125
309
GRIDFORMAT_END
309
TABLEFORMAT_END
  1
CELLSTYLE_BEGIN
 90
        3
 91
        2
300
_DATA
309
CELLSTYLE_END
  0
XRECORD
  5
17C9
102
{ACAD_REACTORS
330
162
102
}
330
162
100
AcDbXrecord
280
     1
102
ACAD_ROUNDTRIP_PRE2007_TABLESTYLE
 90
      512
 91
        0
  1

 92
      512
 93
        0
  2

 94
      512
 95
        0
  3

  0
XRECORD
  5
17DC
102
{ACAD_REACTORS
330
17DB
102
}
330
17DB
100
AcDbXrecord
280
     1
102
RTVSPost2010Prop28
280
     1
102
RTVSPost2010PropOp28
 70
     1
102
RTVSPost2010Prop29
280
     1
102
RTVSPost2010PropOp29
 70
     1
102
RTVSPost2010Prop30
280
     0
102
RTVSPost2010PropOp30
 70
     1
102
RTVSPost2010Prop31
280
     0
102
RTVSPost2010PropOp31
 70
     1
102
RTVSPost2010Prop32
280
     0
102
RTVSPost2010PropOp32
 70
     1
102
RTVSPost2010Prop33
280
     0
102
RTVSPost2010PropOp33
 70
     1
102
RTVSPost2010Prop34
280
     0
102
RTVSPost2010PropOp34
 70
     1
102
RTVSPost2010Prop35
280
     0
102
RTVSPost2010PropOp35
 70
     1
102
RTVSPost2010Prop36
280
     0
102
RTVSPost2010PropOp36
 70
     1
102
RTVSPost2010Prop37
 90
       50
102
RTVSPost2010PropOp37
 70
     1
102
RTVSPost2010Prop38
140
0.0
102
RTVSPost2010PropOp38
 70
     1
102
RTVSPost2010Prop39
140
1.0
102
RTVSPost2010PropOp39
 70
     1
102
RTVSPost2010Prop40
 90
        0
102
RTVSPost2010PropOp40
 70
     1
102
RTVSPost2010Prop41ColorIndex
 90
       18
102
RTVSPost2010Prop41ColorRGB
 90
        0
102
RTVSPost2010PropOp41
 70
     1
102
RTVSPost2010Prop42
 90
       50
102
RTVSPost2010PropOp42
 70
     1
102
RTVSPost2010Prop43
 90
        3
102
RTVSPost2010PropOp43
 70
     1
102
RTVSPost2010Prop44ColorIndex
 90
        5
102
RTVSPost2010Prop44ColorRGB
 90
      255
102
RTVSPost2010PropOp44
 70
     1
102
RTVSPost2010Prop45
280
     0
102
RTVSPost2010PropOp45
 70
     1
102
RTVSPost2010Prop46
 90
       50
102
RTVSPost2010PropOp46
 70
     1
102
RTVSPost2010Prop47
 90
       50
102
RTVSPost2010PropOp47
 70
     1
102
RTVSPost2010Prop48
 90
       50
102
RTVSPost2010PropOp48
 70
     1
102
RTVSPost2010Prop49
280
     0
102
RTVSPost2010PropOp49
 70
     1
102
RTVSPost2010Prop50
 90
       50
102
RTVSPost2010PropOp50
 70
     1
102
RTVSPost2010Prop51ColorIndex
 90
      256
102
RTVSPost2010Prop51ColorRGB
 90
-16777216
102
RTVSPost2010PropOp51
 70
     0
102
RTVSPost2010Prop52
140
1.0
102
RTVSPost2010PropOp52
 70
     0
102
RTVSPost2010Prop53
 90
        2
102
RTVSPost2010PropOp53
 70
     1
102
RTVSPost2010Prop54
  1
strokes_ogs.tif
102
RTVSPost2010PropOp54
 70
     1
102
RTVSPost2010Prop55
280
     0
102
RTVSPost2010PropOp55
 70
     1
102
RTVSPost2010Prop56
140
1.0
102
RTVSPost2010PropOp56
 70
     1
102
RTVSPost2010Prop57
140
1.0
102
RTVSPost2010PropOp57
 70
     1
102
RTVSPropertyOp0
 70
     1
102
RTVSPropertyOp1
 70
     1
102
RTVSPropertyOp2
 70
     1
102
RTVSPropertyOp3
 70
     1
102
RTVSPropertyOp4
 70
     1
102
RTVSPropertyOp5
 70
     1
102
RTVSPropertyOp6
 70
     1
102
RTVSPropertyOp7
 70
     1
102
RTVSPropertyOp8
 70
     1
102
RTVSPropertyOp9
 70
     1
102
RTVSPropertyOp10
 70
     1
102
RTVSPropertyOp11
 70
     1
102
RTVSPropertyOp12
 70
     1
102
RTVSPropertyOp13
 70
     1
102
RTVSPropertyOp14
 70
     1
102
RTVSPropertyOp15
 70
     1
102
RTVSPropertyOp16
 70
     1
102
RTVSPropertyOp17
 70
     1
102
RTVSPropertyOp18
 70
     1
102
RTVSPropertyOp19
 70
     1
102
RTVSPropertyOp20
 70
     1
102
RTVSPropertyOp21
 70
     1
102
RTVSPropertyOp22
 70
     1
102
RTVSPropertyOp23
 70
     1
102
RTVSPropertyOp24
 70
     1
102
RTVSPropertyOp25
 70
     1
102
RTVSPropertyOp26
 70
     1
102
RTVSPropertyOp27
 70
     1
102
RTVSPropertyOp28
 70
     1
102
RTVSPropertyOp29
 70
     1
102
RTVSPropertyOp30
 70
     1
102
RTVSPropertyOp31
 70
     1
102
RTVSPropertyOp32
 70
     1
102
RTVSPropertyOp33
 70
     1
102
RTVSPropertyOp34
 70
     1
102
RTVSPropertyOp35
 70
     1
102
RTVSPropertyOp36
 70
     1
102
RTVSPropertyOp37
 70
     1
102
RTVSPropertyOp38
 70
     1
102
RTVSPropertyOp39
 70
     1
102
RTVSPropertyOp40
 70
     1
102
RTVSPropertyOp41
 70
     1
102
RTVSPropertyOp42
 70
     1
102
RTVSPropertyOp43
 70
     1
102
RTVSPropertyOp44
 70
     1
102
RTVSPropertyOp45
 70
     1
102
RTVSPropertyOp46
 70
     1
102
RTVSPropertyOp47
 70
     1
102
RTVSPropertyOp48
 70
     1
102
RTVSPropertyOp49
 70
     1
102
RTVSPropertyOp50
 70
     1
102
RTVSPropertyOp51
 70
     0
102
RTVSPropertyOp52
 70
     0
102
RTVSPropertyOp53
 70
     1
102
RTVSPropertyOp54
 70
     1
102
RTVSPropertyOp55
 70
     1
102
RTVSPropertyOp56
 70
     1
102
RTVSPropertyOp57
 70
     1
102
RTVSPropertyOp58
 70
     1
102
RTVSPropertyOp59
 70
     1
102
RTVSPropertyOp60
 70
     1
102
RTVSPropertyOp61
 70
     1
102
RTVSPropertyOp62
 70
     1
  0
XRECORD
  5
17DA
102
{ACAD_REACTORS
330
17D9
102
}
330
17D9
100
AcDbXrecord
280
     1
102
RTVSPost2010Prop28
280
     0
102
RTVSPost2010PropOp28
 70
     1
102
RTVSPost2010Prop29
280
     1
102
RTVSPost2010PropOp29
 70
     1
102
RTVSPost2010Prop30
280
     1
102
RTVSPost2010PropOp30
 70
     1
102
RTVSPost2010Prop31
280
     0
102
RTVSPost2010PropOp31
 70
     1
102
RTVSPost2010Prop32
280
     0
102
RTVSPost2010PropOp32
 70
     1
102
RTVSPost2010Prop33
280
     0
102
RTVSPost2010PropOp33
 70
     1
102
RTVSPost2010Prop34
280
     0
102
RTVSPost2010PropOp34
 70
     1
102
RTVSPost2010Prop35
280
     0
102
RTVSPost2010PropOp35
 70
     1
102
RTVSPost2010Prop36
280
     0
102
RTVSPost2010PropOp36
 70
     1
102
RTVSPost2010Prop37
 90
       50
102
RTVSPost2010PropOp37
 70
     1
102
RTVSPost2010Prop38
140
0.0
102
RTVSPost2010PropOp38
 70
     1
102
RTVSPost2010Prop39
140
1.0
102
RTVSPost2010PropOp39
 70
     1
102
RTVSPost2010Prop40
 90
        0
102
RTVSPost2010PropOp40
 70
     1
102
RTVSPost2010Prop41ColorIndex
 90
       18
102
RTVSPost2010Prop41ColorRGB
 90
        0
102
RTVSPost2010PropOp41
 70
     1
102
RTVSPost2010Prop42
 90
       50
102
RTVSPost2010PropOp42
 70
     1
102
RTVSPost2010Prop43
 90
        3
102
RTVSPost2010PropOp43
 70
     1
102
RTVSPost2010Prop44ColorIndex
 90
        5
102
RTVSPost2010Prop44ColorRGB
 90
      255
102
RTVSPost2010PropOp44
 70
     1
102
RTVSPost2010Prop45
280
     0
102
RTVSPost2010PropOp45
 70
     1
102
RTVSPost2010Prop46
 90
       50
102
RTVSPost2010PropOp46
 70
     1
102
RTVSPost2010Prop47
 90
       50
102
RTVSPost2010PropOp47
 70
     1
102
RTVSPost2010Prop48
 90
       50
102
RTVSPost2010PropOp48
 70
     1
102
RTVSPost2010Prop49
280
     0
102
RTVSPost2010PropOp49
 70
     1
102
RTVSPost2010Prop50
 90
       50
102
RTVSPost2010PropOp50
 70
     1
102
RTVSPost2010Prop51ColorIndex
 90
      256
102
RTVSPost2010Prop51ColorRGB
 90
-16777216
102
RTVSPost2010PropOp51
 70
     0
102
RTVSPost2010Prop52
140
1.0
102
RTVSPost2010PropOp52
 70
     0
102
RTVSPost2010Prop53
 90
        2
102
RTVSPost2010PropOp53
 70
     1
102
RTVSPost2010Prop54
  1
strokes_ogs.tif
102
RTVSPost2010PropOp54
 70
     1
102
RTVSPost2010Prop55
280
     0
102
RTVSPost2010PropOp55
 70
     1
102
RTVSPost2010Prop56
140
1.0
102
RTVSPost2010PropOp56
 70
     1
102
RTVSPost2010Prop57
140
1.0
102
RTVSPost2010PropOp57
 70
     1
102
RTVSPropertyOp0
 70
     1
102
RTVSPropertyOp1
 70
     1
102
RTVSPropertyOp2
 70
     1
102
RTVSPropertyOp3
 70
     1
102
RTVSPropertyOp4
 70
     1
102
RTVSPropertyOp5
 70
     1
102
RTVSPropertyOp6
 70
     1
102
RTVSPropertyOp7
 70
     1
102
RTVSPropertyOp8
 70
     1
102
RTVSPropertyOp9
 70
     1
102
RTVSPropertyOp10
 70
     1
102
RTVSPropertyOp11
 70
     1
102
RTVSPropertyOp12
 70
     1
102
RTVSPropertyOp13
 70
     1
102
RTVSPropertyOp14
 70
     1
102
RTVSPropertyOp15
 70
     1
102
RTVSPropertyOp16
 70
     1
102
RTVSPropertyOp17
 70
     1
102
RTVSPropertyOp18
 70
     1
102
RTVSPropertyOp19
 70
     1
102
RTVSPropertyOp20
 70
     1
102
RTVSPropertyOp21
 70
     1
102
RTVSPropertyOp22
 70
     1
102
RTVSPropertyOp23
 70
     1
102
RTVSPropertyOp24
 70
     1
102
RTVSPropertyOp25
 70
     1
102
RTVSPropertyOp26
 70
     1
102
RTVSPropertyOp27
 70
     1
102
RTVSPropertyOp28
 70
     1
102
RTVSPropertyOp29
 70
     1
102
RTVSPropertyOp30
 70
     1
102
RTVSPropertyOp31
 70
     1
102
RTVSPropertyOp32
 70
     1
102
RTVSPropertyOp33
 70
     1
102
RTVSPropertyOp34
 70
     1
102
RTVSPropertyOp35
 70
     1
102
RTVSPropertyOp36
 70
     1
102
RTVSPropertyOp37
 70
     1
102
RTVSPropertyOp38
 70
     1
102
RTVSPropertyOp39
 70
     1
102
RTVSPropertyOp40
 70
     1
102
RTVSPropertyOp41
 70
     1
102
RTVSPropertyOp42
 70
     1
102
RTVSPropertyOp43
 70
     1
102
RTVSPropertyOp44
 70
     1
102
RTVSPropertyOp45
 70
     1
102
RTVSPropertyOp46
 70
     1
102
RTVSPropertyOp47
 70
     1
102
RTVSPropertyOp48
 70
     1
102
RTVSPropertyOp49
 70
     1
102
RTVSPropertyOp50
 70
     1
102
RTVSPropertyOp51
 70
     0
102
RTVSPropertyOp52
 70
     0
102
RTVSPropertyOp53
 70
     1
102
RTVSPropertyOp54
 70
     1
102
RTVSPropertyOp55
 70
     1
102
RTVSPropertyOp56
 70
     1
102
RTVSPropertyOp57
 70
     1
102
RTVSPropertyOp58
 70
     1
102
RTVSPropertyOp59
 70
     1
102
RTVSPropertyOp60
 70
     1
102
RTVSPropertyOp61
 70
     1
102
RTVSPropertyOp62
 70
     1
  0
XRECORD
  5
17E8
102
{ACAD_REACTORS
330
17E7
102
}
330
17E7
100
AcDbXrecord
280
     1
102
RTVSPost2010Prop28
280
     0
102
RTVSPost2010PropOp28
 70
     1
102
RTVSPost2010Prop29
280
     1
102
RTVSPost2010PropOp29
 70
     1
102
RTVSPost2010Prop30
280
     1
102
RTVSPost2010PropOp30
 70
     1
102
RTVSPost2010Prop31
280
     0
102
RTVSPost2010PropOp31
 70
     1
102
RTVSPost2010Prop32
280
     0
102
RTVSPost2010PropOp32
 70
     1
102
RTVSPost2010Prop33
280
     0
102
RTVSPost2010PropOp33
 70
     1
102
RTVSPost2010Prop34
280
     0
102
RTVSPost2010PropOp34
 70
     1
102
RTVSPost2010Prop35
280
     0
102
RTVSPost2010PropOp35
 70
     1
102
RTVSPost2010Prop36
280
     0
102
RTVSPost2010PropOp36
 70
     1
102
RTVSPost2010Prop37
 90
       50
102
RTVSPost2010PropOp37
 70
     1
102
RTVSPost2010Prop38
140
0.0
102
RTVSPost2010PropOp38
 70
     1
102
RTVSPost2010Prop39
140
1.0
102
RTVSPost2010PropOp39
 70
     1
102
RTVSPost2010Prop40
 90
        0
102
RTVSPost2010PropOp40
 70
     1
102
RTVSPost2010Prop41ColorIndex
 90
       18
102
RTVSPost2010Prop41ColorRGB
 90
        0
102
RTVSPost2010PropOp41
 70
     1
102
RTVSPost2010Prop42
 90
       50
102
RTVSPost2010PropOp42
 70
     1
102
RTVSPost2010Prop43
 90
        3
102
RTVSPost2010PropOp43
 70
     1
102
RTVSPost2010Prop44ColorIndex
 90
        5
102
RTVSPost2010Prop44ColorRGB
 90
      255
102
RTVSPost2010PropOp44
 70
     1
102
RTVSPost2010Prop45
280
     0
102
RTVSPost2010PropOp45
 70
     1
102
RTVSPost2010Prop46
 90
       50
102
RTVSPost2010PropOp46
 70
     1
102
RTVSPost2010Prop47
 90
       50
102
RTVSPost2010PropOp47
 70
     1
102
RTVSPost2010Prop48
 90
       50
102
RTVSPost2010PropOp48
 70
     1
102
RTVSPost2010Prop49
280
     0
102
RTVSPost2010PropOp49
 70
     1
102
RTVSPost2010Prop50
 90
       50
102
RTVSPost2010PropOp50
 70
     1
102
RTVSPost2010Prop51ColorIndex
 90
      256
102
RTVSPost2010Prop51ColorRGB
 90
-16777216
102
RTVSPost2010PropOp51
 70
     0
102
RTVSPost2010Prop52
140
1.0
102
RTVSPost2010PropOp52
 70
     0
102
RTVSPost2010Prop53
 90
        2
102
RTVSPost2010PropOp53
 70
     1
102
RTVSPost2010Prop54
  1
strokes_ogs.tif
102
RTVSPost2010PropOp54
 70
     1
102
RTVSPost2010Prop55
280
     0
102
RTVSPost2010PropOp55
 70
     1
102
RTVSPost2010Prop56
140
1.0
102
RTVSPost2010PropOp56
 70
     1
102
RTVSPost2010Prop57
140
1.0
102
RTVSPost2010PropOp57
 70
     1
102
RTVSPropertyOp0
 70
     1
102
RTVSPropertyOp1
 70
     1
102
RTVSPropertyOp2
 70
     1
102
RTVSPropertyOp3
 70
     1
102
RTVSPropertyOp4
 70
     1
102
RTVSPropertyOp5
 70
     1
102
RTVSPropertyOp6
 70
     1
102
RTVSPropertyOp7
 70
     1
102
RTVSPropertyOp8
 70
     1
102
RTVSPropertyOp9
 70
     1
102
RTVSPropertyOp10
 70
     1
102
RTVSPropertyOp11
 70
     1
102
RTVSPropertyOp12
 70
     1
102
RTVSPropertyOp13
 70
     1
102
RTVSPropertyOp14
 70
     1
102
RTVSPropertyOp15
 70
     1
102
RTVSPropertyOp16
 70
     1
102
RTVSPropertyOp17
 70
     1
102
RTVSPropertyOp18
 70
     1
102
RTVSPropertyOp19
 70
     1
102
RTVSPropertyOp20
 70
     1
102
RTVSPropertyOp21
 70
     1
102
RTVSPropertyOp22
 70
     1
102
RTVSPropertyOp23
 70
     1
102
RTVSPropertyOp24
 70
     1
102
RTVSPropertyOp25
 70
     1
102
RTVSPropertyOp26
 70
     1
102
RTVSPropertyOp27
 70
     1
102
RTVSPropertyOp28
 70
     1
102
RTVSPropertyOp29
 70
     1
102
RTVSPropertyOp30
 70
     1
102
RTVSPropertyOp31
 70
     1
102
RTVSPropertyOp32
 70
     1
102
RTVSPropertyOp33
 70
     1
102
RTVSPropertyOp34
 70
     1
102
RTVSPropertyOp35
 70
     1
102
RTVSPropertyOp36
 70
     1
102
RTVSPropertyOp37
 70
     1
102
RTVSPropertyOp38
 70
     1
102
RTVSPropertyOp39
 70
     1
102
RTVSPropertyOp40
 70
     1
102
RTVSPropertyOp41
 70
     1
102
RTVSPropertyOp42
 70
     1
102
RTVSPropertyOp43
 70
     1
102
RTVSPropertyOp44
 70
     1
102
RTVSPropertyOp45
 70
     1
102
RTVSPropertyOp46
 70
     1
102
RTVSPropertyOp47
 70
     1
102
RTVSPropertyOp48
 70
     1
102
RTVSPropertyOp49
 70
     1
102
RTVSPropertyOp50
 70
     1
102
RTVSPropertyOp51
 70
     0
102
RTVSPropertyOp52
 70
     0
102
RTVSPropertyOp53
 70
     1
102
RTVSPropertyOp54
 70
     1
102
RTVSPropertyOp55
 70
     1
102
RTVSPropertyOp56
 70
     1
102
RTVSPropertyOp57
 70
     1
102
RTVSPropertyOp58
 70
     1
102
RTVSPropertyOp59
 70
     1
102
RTVSPropertyOp60
 70
     1
102
RTVSPropertyOp61
 70
     1
102
RTVSPropertyOp62
 70
     1
  0
XRECORD
  5
17F0
102
{ACAD_REACTORS
330
17EF
102
}
330
17EF
100
AcDbXrecord
280
     1
102
RTVSPost2010Prop28
280
     0
102
RTVSPost2010PropOp28
 70
     1
102
RTVSPost2010Prop29
280
     1
102
RTVSPost2010PropOp29
 70
     1
102
RTVSPost2010Prop30
280
     1
102
RTVSPost2010PropOp30
 70
     1
102
RTVSPost2010Prop31
280
     0
102
RTVSPost2010PropOp31
 70
     1
102
RTVSPost2010Prop32
280
     0
102
RTVSPost2010PropOp32
 70
     1
102
RTVSPost2010Prop33
280
     0
102
RTVSPost2010PropOp33
 70
     1
102
RTVSPost2010Prop34
280
     0
102
RTVSPost2010PropOp34
 70
     1
102
RTVSPost2010Prop35
280
     0
102
RTVSPost2010PropOp35
 70
     1
102
RTVSPost2010Prop36
280
     0
102
RTVSPost2010PropOp36
 70
     1
102
RTVSPost2010Prop37
 90
       50
102
RTVSPost2010PropOp37
 70
     1
102
RTVSPost2010Prop38
140
0.0
102
RTVSPost2010PropOp38
 70
     1
102
RTVSPost2010Prop39
140
1.0
102
RTVSPost2010PropOp39
 70
     1
102
RTVSPost2010Prop40
 90
        0
102
RTVSPost2010PropOp40
 70
     1
102
RTVSPost2010Prop41ColorIndex
 90
       18
102
RTVSPost2010Prop41ColorRGB
 90
        0
102
RTVSPost2010PropOp41
 70
     1
102
RTVSPost2010Prop42
 90
       50
102
RTVSPost2010PropOp42
 70
     1
102
RTVSPost2010Prop43
 90
        3
102
RTVSPost2010PropOp43
 70
     1
102
RTVSPost2010Prop44ColorIndex
 90
        5
102
RTVSPost2010Prop44ColorRGB
 90
      255
102
RTVSPost2010PropOp44
 70
     1
102
RTVSPost2010Prop45
280
     0
102
RTVSPost2010PropOp45
 70
     1
102
RTVSPost2010Prop46
 90
       50
102
RTVSPost2010PropOp46
 70
     1
102
RTVSPost2010Prop47
 90
       50
102
RTVSPost2010PropOp47
 70
     1
102
RTVSPost2010Prop48
 90
       50
102
RTVSPost2010PropOp48
 70
     1
102
RTVSPost2010Prop49
280
     0
102
RTVSPost2010PropOp49
 70
     1
102
RTVSPost2010Prop50
 90
       50
102
RTVSPost2010PropOp50
 70
     1
102
RTVSPost2010Prop51ColorIndex
 90
      256
102
RTVSPost2010Prop51ColorRGB
 90
-16777216
102
RTVSPost2010PropOp51
 70
     0
102
RTVSPost2010Prop52
140
1.0
102
RTVSPost2010PropOp52
 70
     0
102
RTVSPost2010Prop53
 90
        2
102
RTVSPost2010PropOp53
 70
     1
102
RTVSPost2010Prop54
  1
strokes_ogs.tif
102
RTVSPost2010PropOp54
 70
     1
102
RTVSPost2010Prop55
280
     0
102
RTVSPost2010PropOp55
 70
     1
102
RTVSPost2010Prop56
140
1.0
102
RTVSPost2010PropOp56
 70
     1
102
RTVSPost2010Prop57
140
1.0
102
RTVSPost2010PropOp57
 70
     1
102
RTVSPropertyOp0
 70
     1
102
RTVSPropertyOp1
 70
     1
102
RTVSPropertyOp2
 70
     1
102
RTVSPropertyOp3
 70
     1
102
RTVSPropertyOp4
 70
     1
102
RTVSPropertyOp5
 70
     1
102
RTVSPropertyOp6
 70
     1
102
RTVSPropertyOp7
 70
     1
102
RTVSPropertyOp8
 70
     1
102
RTVSPropertyOp9
 70
     1
102
RTVSPropertyOp10
 70
     1
102
RTVSPropertyOp11
 70
     1
102
RTVSPropertyOp12
 70
     1
102
RTVSPropertyOp13
 70
     1
102
RTVSPropertyOp14
 70
     1
102
RTVSPropertyOp15
 70
     1
102
RTVSPropertyOp16
 70
     1
102
RTVSPropertyOp17
 70
     1
102
RTVSPropertyOp18
 70
     1
102
RTVSPropertyOp19
 70
     1
102
RTVSPropertyOp20
 70
     1
102
RTVSPropertyOp21
 70
     1
102
RTVSPropertyOp22
 70
     1
102
RTVSPropertyOp23
 70
     1
102
RTVSPropertyOp24
 70
     1
102
RTVSPropertyOp25
 70
     1
102
RTVSPropertyOp26
 70
     1
102
RTVSPropertyOp27
 70
     1
102
RTVSPropertyOp28
 70
     1
102
RTVSPropertyOp29
 70
     1
102
RTVSPropertyOp30
 70
     1
102
RTVSPropertyOp31
 70
     1
102
RTVSPropertyOp32
 70
     1
102
RTVSPropertyOp33
 70
     1
102
RTVSPropertyOp34
 70
     1
102
RTVSPropertyOp35
 70
     1
102
RTVSPropertyOp36
 70
     1
102
RTVSPropertyOp37
 70
     1
102
RTVSPropertyOp38
 70
     1
102
RTVSPropertyOp39
 70
     1
102
RTVSPropertyOp40
 70
     1
102
RTVSPropertyOp41
 70
     1
102
RTVSPropertyOp42
 70
     1
102
RTVSPropertyOp43
 70
     1
102
RTVSPropertyOp44
 70
     1
102
RTVSPropertyOp45
 70
     1
102
RTVSPropertyOp46
 70
     1
102
RTVSPropertyOp47
 70
     1
102
RTVSPropertyOp48
 70
     1
102
RTVSPropertyOp49
 70
     1
102
RTVSPropertyOp50
 70
     1
102
RTVSPropertyOp51
 70
     0
102
RTVSPropertyOp52
 70
     0
102
RTVSPropertyOp53
 70
     1
102
RTVSPropertyOp54
 70
     1
102
RTVSPropertyOp55
 70
     1
102
RTVSPropertyOp56
 70
     1
102
RTVSPropertyOp57
 70
     1
102
RTVSPropertyOp58
 70
     1
102
RTVSPropertyOp59
 70
     1
102
RTVSPropertyOp60
 70
     1
102
RTVSPropertyOp61
 70
     1
102
RTVSPropertyOp62
 70
     1
  0
XRECORD
  5
17E2
102
{ACAD_REACTORS
330
17E1
102
}
330
17E1
100
AcDbXrecord
280
     1
102
RTVSPost2010Prop28
280
     0
102
RTVSPost2010PropOp28
 70
     1
102
RTVSPost2010Prop29
280
     1
102
RTVSPost2010PropOp29
 70
     1
102
RTVSPost2010Prop30
280
     1
102
RTVSPost2010PropOp30
 70
     1
102
RTVSPost2010Prop31
280
     0
102
RTVSPost2010PropOp31
 70
     1
102
RTVSPost2010Prop32
280
     0
102
RTVSPost2010PropOp32
 70
     1
102
RTVSPost2010Prop33
280
     0
102
RTVSPost2010PropOp33
 70
     1
102
RTVSPost2010Prop34
280
     0
102
RTVSPost2010PropOp34
 70
     1
102
RTVSPost2010Prop35
280
     0
102
RTVSPost2010PropOp35
 70
     1
102
RTVSPost2010Prop36
280
     0
102
RTVSPost2010PropOp36
 70
     1
102
RTVSPost2010Prop37
 90
       50
102
RTVSPost2010PropOp37
 70
     1
102
RTVSPost2010Prop38
140
0.0
102
RTVSPost2010PropOp38
 70
     1
102
RTVSPost2010Prop39
140
1.0
102
RTVSPost2010PropOp39
 70
     1
102
RTVSPost2010Prop40
 90
        0
102
RTVSPost2010PropOp40
 70
     1
102
RTVSPost2010Prop41ColorIndex
 90
       18
102
RTVSPost2010Prop41ColorRGB
 90
        0
102
RTVSPost2010PropOp41
 70
     1
102
RTVSPost2010Prop42
 90
       50
102
RTVSPost2010PropOp42
 70
     1
102
RTVSPost2010Prop43
 90
        3
102
RTVSPost2010PropOp43
 70
     1
102
RTVSPost2010Prop44ColorIndex
 90
        5
102
RTVSPost2010Prop44ColorRGB
 90
      255
102
RTVSPost2010PropOp44
 70
     1
102
RTVSPost2010Prop45
280
     0
102
RTVSPost2010PropOp45
 70
     1
102
RTVSPost2010Prop46
 90
       50
102
RTVSPost2010PropOp46
 70
     1
102
RTVSPost2010Prop47
 90
       50
102
RTVSPost2010PropOp47
 70
     1
102
RTVSPost2010Prop48
 90
       50
102
RTVSPost2010PropOp48
 70
     1
102
RTVSPost2010Prop49
280
     0
102
RTVSPost2010PropOp49
 70
     1
102
RTVSPost2010Prop50
 90
       50
102
RTVSPost2010PropOp50
 70
     1
102
RTVSPost2010Prop51ColorIndex
 90
      256
102
RTVSPost2010Prop51ColorRGB
 90
-16777216
102
RTVSPost2010PropOp51
 70
     0
102
RTVSPost2010Prop52
140
1.0
102
RTVSPost2010PropOp52
 70
     0
102
RTVSPost2010Prop53
 90
        2
102
RTVSPost2010PropOp53
 70
     1
102
RTVSPost2010Prop54
  1
strokes_ogs.tif
102
RTVSPost2010PropOp54
 70
     1
102
RTVSPost2010Prop55
280
     0
102
RTVSPost2010PropOp55
 70
     1
102
RTVSPost2010Prop56
140
1.0
102
RTVSPost2010PropOp56
 70
     1
102
RTVSPost2010Prop57
140
1.0
102
RTVSPost2010PropOp57
 70
     1
102
RTVSPropertyOp0
 70
     1
102
RTVSPropertyOp1
 70
     1
102
RTVSPropertyOp2
 70
     1
102
RTVSPropertyOp3
 70
     1
102
RTVSPropertyOp4
 70
     1
102
RTVSPropertyOp5
 70
     1
102
RTVSPropertyOp6
 70
     1
102
RTVSPropertyOp7
 70
     1
102
RTVSPropertyOp8
 70
     1
102
RTVSPropertyOp9
 70
     1
102
RTVSPropertyOp10
 70
     1
102
RTVSPropertyOp11
 70
     1
102
RTVSPropertyOp12
 70
     1
102
RTVSPropertyOp13
 70
     1
102
RTVSPropertyOp14
 70
     1
102
RTVSPropertyOp15
 70
     1
102
RTVSPropertyOp16
 70
     1
102
RTVSPropertyOp17
 70
     1
102
RTVSPropertyOp18
 70
     1
102
RTVSPropertyOp19
 70
     1
102
RTVSPropertyOp20
 70
     1
102
RTVSPropertyOp21
 70
     1
102
RTVSPropertyOp22
 70
     1
102
RTVSPropertyOp23
 70
     1
102
RTVSPropertyOp24
 70
     1
102
RTVSPropertyOp25
 70
     1
102
RTVSPropertyOp26
 70
     1
102
RTVSPropertyOp27
 70
     1
102
RTVSPropertyOp28
 70
     1
102
RTVSPropertyOp29
 70
     1
102
RTVSPropertyOp30
 70
     1
102
RTVSPropertyOp31
 70
     1
102
RTVSPropertyOp32
 70
     1
102
RTVSPropertyOp33
 70
     1
102
RTVSPropertyOp34
 70
     1
102
RTVSPropertyOp35
 70
     1
102
RTVSPropertyOp36
 70
     1
102
RTVSPropertyOp37
 70
     1
102
RTVSPropertyOp38
 70
     1
102
RTVSPropertyOp39
 70
     1
102
RTVSPropertyOp40
 70
     1
102
RTVSPropertyOp41
 70
     1
102
RTVSPropertyOp42
 70
     1
102
RTVSPropertyOp43
 70
     1
102
RTVSPropertyOp44
 70
     1
102
RTVSPropertyOp45
 70
     1
102
RTVSPropertyOp46
 70
     1
102
RTVSPropertyOp47
 70
     1
102
RTVSPropertyOp48
 70
     1
102
RTVSPropertyOp49
 70
     1
102
RTVSPropertyOp50
 70
     1
102
RTVSPropertyOp51
 70
     0
102
RTVSPropertyOp52
 70
     0
102
RTVSPropertyOp53
 70
     1
102
RTVSPropertyOp54
 70
     1
102
RTVSPropertyOp55
 70
     1
102
RTVSPropertyOp56
 70
     1
102
RTVSPropertyOp57
 70
     1
102
RTVSPropertyOp58
 70
     1
102
RTVSPropertyOp59
 70
     1
102
RTVSPropertyOp60
 70
     1
102
RTVSPropertyOp61
 70
     1
102
RTVSPropertyOp62
 70
     1
  0
XRECORD
  5
17E6
102
{ACAD_REACTORS
330
17E5
102
}
330
17E5
100
AcDbXrecord
280
     1
102
RTVSPost2010Prop28
280
     0
102
RTVSPost2010PropOp28
 70
     1
102
RTVSPost2010Prop29
280
     1
102
RTVSPost2010PropOp29
 70
     1
102
RTVSPost2010Prop30
280
     1
102
RTVSPost2010PropOp30
 70
     1
102
RTVSPost2010Prop31
280
     0
102
RTVSPost2010PropOp31
 70
     1
102
RTVSPost2010Prop32
280
     0
102
RTVSPost2010PropOp32
 70
     1
102
RTVSPost2010Prop33
280
     0
102
RTVSPost2010PropOp33
 70
     1
102
RTVSPost2010Prop34
280
     0
102
RTVSPost2010PropOp34
 70
     1
102
RTVSPost2010Prop35
280
     0
102
RTVSPost2010PropOp35
 70
     1
102
RTVSPost2010Prop36
280
     0
102
RTVSPost2010PropOp36
 70
     1
102
RTVSPost2010Prop37
 90
       50
102
RTVSPost2010PropOp37
 70
     1
102
RTVSPost2010Prop38
140
0.0
102
RTVSPost2010PropOp38
 70
     1
102
RTVSPost2010Prop39
140
1.0
102
RTVSPost2010PropOp39
 70
     1
102
RTVSPost2010Prop40
 90
        0
102
RTVSPost2010PropOp40
 70
     1
102
RTVSPost2010Prop41ColorIndex
 90
       18
102
RTVSPost2010Prop41ColorRGB
 90
        0
102
RTVSPost2010PropOp41
 70
     1
102
RTVSPost2010Prop42
 90
       50
102
RTVSPost2010PropOp42
 70
     1
102
RTVSPost2010Prop43
 90
        3
102
RTVSPost2010PropOp43
 70
     1
102
RTVSPost2010Prop44ColorIndex
 90
        5
102
RTVSPost2010Prop44ColorRGB
 90
      255
102
RTVSPost2010PropOp44
 70
     1
102
RTVSPost2010Prop45
280
     0
102
RTVSPost2010PropOp45
 70
     1
102
RTVSPost2010Prop46
 90
       50
102
RTVSPost2010PropOp46
 70
     1
102
RTVSPost2010Prop47
 90
       50
102
RTVSPost2010PropOp47
 70
     1
102
RTVSPost2010Prop48
 90
       50
102
RTVSPost2010PropOp48
 70
     1
102
RTVSPost2010Prop49
280
     0
102
RTVSPost2010PropOp49
 70
     1
102
RTVSPost2010Prop50
 90
       50
102
RTVSPost2010PropOp50
 70
     1
102
RTVSPost2010Prop51ColorIndex
 90
      256
102
RTVSPost2010Prop51ColorRGB
 90
-16777216
102
RTVSPost2010PropOp51
 70
     0
102
RTVSPost2010Prop52
140
1.0
102
RTVSPost2010PropOp52
 70
     0
102
RTVSPost2010Prop53
 90
        2
102
RTVSPost2010PropOp53
 70
     1
102
RTVSPost2010Prop54
  1
strokes_ogs.tif
102
RTVSPost2010PropOp54
 70
     1
102
RTVSPost2010Prop55
280
     0
102
RTVSPost2010PropOp55
 70
     1
102
RTVSPost2010Prop56
140
1.0
102
RTVSPost2010PropOp56
 70
     1
102
RTVSPost2010Prop57
140
1.0
102
RTVSPost2010PropOp57
 70
     1
102
RTVSPropertyOp0
 70
     1
102
RTVSPropertyOp1
 70
     1
102
RTVSPropertyOp2
 70
     1
102
RTVSPropertyOp3
 70
     1
102
RTVSPropertyOp4
 70
     1
102
RTVSPropertyOp5
 70
     1
102
RTVSPropertyOp6
 70
     1
102
RTVSPropertyOp7
 70
     1
102
RTVSPropertyOp8
 70
     1
102
RTVSPropertyOp9
 70
     1
102
RTVSPropertyOp10
 70
     1
102
RTVSPropertyOp11
 70
     1
102
RTVSPropertyOp12
 70
     1
102
RTVSPropertyOp13
 70
     1
102
RTVSPropertyOp14
 70
     1
102
RTVSPropertyOp15
 70
     1
102
RTVSPropertyOp16
 70
     1
102
RTVSPropertyOp17
 70
     1
102
RTVSPropertyOp18
 70
     1
102
RTVSPropertyOp19
 70
     1
102
RTVSPropertyOp20
 70
     1
102
RTVSPropertyOp21
 70
     1
102
RTVSPropertyOp22
 70
     1
102
RTVSPropertyOp23
 70
     1
102
RTVSPropertyOp24
 70
     1
102
RTVSPropertyOp25
 70
     1
102
RTVSPropertyOp26
 70
     1
102
RTVSPropertyOp27
 70
     1
102
RTVSPropertyOp28
 70
     1
102
RTVSPropertyOp29
 70
     1
102
RTVSPropertyOp30
 70
     1
102
RTVSPropertyOp31
 70
     1
102
RTVSPropertyOp32
 70
     1
102
RTVSPropertyOp33
 70
     1
102
RTVSPropertyOp34
 70
     1
102
RTVSPropertyOp35
 70
     1
102
RTVSPropertyOp36
 70
     1
102
RTVSPropertyOp37
 70
     1
102
RTVSPropertyOp38
 70
     1
102
RTVSPropertyOp39
 70
     1
102
RTVSPropertyOp40
 70
     1
102
RTVSPropertyOp41
 70
     1
102
RTVSPropertyOp42
 70
     1
102
RTVSPropertyOp43
 70
     1
102
RTVSPropertyOp44
 70
     1
102
RTVSPropertyOp45
 70
     1
102
RTVSPropertyOp46
 70
     1
102
RTVSPropertyOp47
 70
     1
102
RTVSPropertyOp48
 70
     1
102
RTVSPropertyOp49
 70
     1
102
RTVSPropertyOp50
 70
     1
102
RTVSPropertyOp51
 70
     0
102
RTVSPropertyOp52
 70
     0
102
RTVSPropertyOp53
 70
     1
102
RTVSPropertyOp54
 70
     1
102
RTVSPropertyOp55
 70
     1
102
RTVSPropertyOp56
 70
     1
102
RTVSPropertyOp57
 70
     1
102
RTVSPropertyOp58
 70
     1
102
RTVSPropertyOp59
 70
     1
102
RTVSPropertyOp60
 70
     1
102
RTVSPropertyOp61
 70
     1
102
RTVSPropertyOp62
 70
     1
  0
XRECORD
  5
17F8
102
{ACAD_REACTORS
330
17F7
102
}
330
17F7
100
AcDbXrecord
280
     1
102
RTVSPost2010Prop28
280
     0
102
RTVSPost2010PropOp28
 70
     1
102
RTVSPost2010Prop29
280
     1
102
RTVSPost2010PropOp29
 70
     1
102
RTVSPost2010Prop30
280
     1
102
RTVSPost2010PropOp30
 70
     1
102
RTVSPost2010Prop31
280
     0
102
RTVSPost2010PropOp31
 70
     1
102
RTVSPost2010Prop32
280
     0
102
RTVSPost2010PropOp32
 70
     1
102
RTVSPost2010Prop33
280
     0
102
RTVSPost2010PropOp33
 70
     1
102
RTVSPost2010Prop34
280
     0
102
RTVSPost2010PropOp34
 70
     1
102
RTVSPost2010Prop35
280
     0
102
RTVSPost2010PropOp35
 70
     1
102
RTVSPost2010Prop36
280
     0
102
RTVSPost2010PropOp36
 70
     1
102
RTVSPost2010Prop37
 90
       50
102
RTVSPost2010PropOp37
 70
     1
102
RTVSPost2010Prop38
140
0.0
102
RTVSPost2010PropOp38
 70
     1
102
RTVSPost2010Prop39
140
1.0
102
RTVSPost2010PropOp39
 70
     1
102
RTVSPost2010Prop40
 90
        0
102
RTVSPost2010PropOp40
 70
     1
102
RTVSPost2010Prop41ColorIndex
 90
       18
102
RTVSPost2010Prop41ColorRGB
 90
        0
102
RTVSPost2010PropOp41
 70
     1
102
RTVSPost2010Prop42
 90
       50
102
RTVSPost2010PropOp42
 70
     1
102
RTVSPost2010Prop43
 90
        3
102
RTVSPost2010PropOp43
 70
     1
102
RTVSPost2010Prop44ColorIndex
 90
        5
102
RTVSPost2010Prop44ColorRGB
 90
      255
102
RTVSPost2010PropOp44
 70
     1
102
RTVSPost2010Prop45
280
     0
102
RTVSPost2010PropOp45
 70
     1
102
RTVSPost2010Prop46
 90
       50
102
RTVSPost2010PropOp46
 70
     1
102
RTVSPost2010Prop47
 90
       50
102
RTVSPost2010PropOp47
 70
     1
102
RTVSPost2010Prop48
 90
       50
102
RTVSPost2010PropOp48
 70
     1
102
RTVSPost2010Prop49
280
     0
102
RTVSPost2010PropOp49
 70
     1
102
RTVSPost2010Prop50
 90
       50
102
RTVSPost2010PropOp50
 70
     1
102
RTVSPost2010Prop51ColorIndex
 90
      256
102
RTVSPost2010Prop51ColorRGB
 90
-16777216
102
RTVSPost2010PropOp51
 70
     0
102
RTVSPost2010Prop52
140
1.0
102
RTVSPost2010PropOp52
 70
     0
102
RTVSPost2010Prop53
 90
        2
102
RTVSPost2010PropOp53
 70
     1
102
RTVSPost2010Prop54
  1
strokes_ogs.tif
102
RTVSPost2010PropOp54
 70
     1
102
RTVSPost2010Prop55
280
     0
102
RTVSPost2010PropOp55
 70
     1
102
RTVSPost2010Prop56
140
1.0
102
RTVSPost2010PropOp56
 70
     1
102
RTVSPost2010Prop57
140
1.0
102
RTVSPost2010PropOp57
 70
     1
102
RTVSPropertyOp0
 70
     0
102
RTVSPropertyOp1
 70
     0
102
RTVSPropertyOp2
 70
     0
102
RTVSPropertyOp3
 70
     0
102
RTVSPropertyOp4
 70
     0
102
RTVSPropertyOp5
 70
     0
102
RTVSPropertyOp6
 70
     0
102
RTVSPropertyOp7
 70
     0
102
RTVSPropertyOp8
 70
     0
102
RTVSPropertyOp9
 70
     0
102
RTVSPropertyOp10
 70
     0
102
RTVSPropertyOp11
 70
     0
102
RTVSPropertyOp12
 70
     0
102
RTVSPropertyOp13
 70
     0
102
RTVSPropertyOp14
 70
     2
102
RTVSPropertyOp15
 70
     0
102
RTVSPropertyOp16
 70
     0
102
RTVSPropertyOp17
 70
     0
102
RTVSPropertyOp18
 70
     0
102
RTVSPropertyOp19
 70
     0
102
RTVSPropertyOp20
 70
     0
102
RTVSPropertyOp21
 70
     0
102
RTVSPropertyOp22
 70
     0
102
RTVSPropertyOp23
 70
     0
102
RTVSPropertyOp24
 70
     0
102
RTVSPropertyOp25
 70
     0
102
RTVSPropertyOp26
 70
     0
102
RTVSPropertyOp27
 70
     0
102
RTVSPropertyOp28
 70
     1
102
RTVSPropertyOp29
 70
     1
102
RTVSPropertyOp30
 70
     1
102
RTVSPropertyOp31
 70
     1
102
RTVSPropertyOp32
 70
     1
102
RTVSPropertyOp33
 70
     1
102
RTVSPropertyOp34
 70
     1
102
RTVSPropertyOp35
 70
     1
102
RTVSPropertyOp36
 70
     1
102
RTVSPropertyOp37
 70
     1
102
RTVSPropertyOp38
 70
     1
102
RTVSPropertyOp39
 70
     1
102
RTVSPropertyOp40
 70
     1
102
RTVSPropertyOp41
 70
     1
102
RTVSPropertyOp42
 70
     1
102
RTVSPropertyOp43
 70
     1
102
RTVSPropertyOp44
 70
     1
102
RTVSPropertyOp45
 70
     1
102
RTVSPropertyOp46
 70
     1
102
RTVSPropertyOp47
 70
     1
102
RTVSPropertyOp48
 70
     1
102
RTVSPropertyOp49
 70
     1
102
RTVSPropertyOp50
 70
     1
102
RTVSPropertyOp51
 70
     0
102
RTVSPropertyOp52
 70
     0
102
RTVSPropertyOp53
 70
     1
102
RTVSPropertyOp54
 70
     1
102
RTVSPropertyOp55
 70
     1
102
RTVSPropertyOp56
 70
     1
102
RTVSPropertyOp57
 70
     1
102
RTVSPropertyOp58
 70
     1
102
RTVSPropertyOp59
 70
     1
102
RTVSPropertyOp60
 70
     1
102
RTVSPropertyOp61
 70
     1
102
RTVSPropertyOp62
 70
     1
  0
XRECORD
  5
17EE
102
{ACAD_REACTORS
330
17ED
102
}
330
17ED
100
AcDbXrecord
280
     1
102
RTVSPost2010Prop28
280
     0
102
RTVSPost2010PropOp28
 70
     1
102
RTVSPost2010Prop29
280
     1
102
RTVSPost2010PropOp29
 70
     1
102
RTVSPost2010Prop30
280
     1
102
RTVSPost2010PropOp30
 70
     1
102
RTVSPost2010Prop31
280
     0
102
RTVSPost2010PropOp31
 70
     1
102
RTVSPost2010Prop32
280
     0
102
RTVSPost2010PropOp32
 70
     1
102
RTVSPost2010Prop33
280
     0
102
RTVSPost2010PropOp33
 70
     1
102
RTVSPost2010Prop34
280
     0
102
RTVSPost2010PropOp34
 70
     1
102
RTVSPost2010Prop35
280
     0
102
RTVSPost2010PropOp35
 70
     1
102
RTVSPost2010Prop36
280
     0
102
RTVSPost2010PropOp36
 70
     1
102
RTVSPost2010Prop37
 90
       50
102
RTVSPost2010PropOp37
 70
     1
102
RTVSPost2010Prop38
140
0.0
102
RTVSPost2010PropOp38
 70
     1
102
RTVSPost2010Prop39
140
1.0
102
RTVSPost2010PropOp39
 70
     1
102
RTVSPost2010Prop40
 90
        0
102
RTVSPost2010PropOp40
 70
     1
102
RTVSPost2010Prop41ColorIndex
 90
       18
102
RTVSPost2010Prop41ColorRGB
 90
        0
102
RTVSPost2010PropOp41
 70
     1
102
RTVSPost2010Prop42
 90
       50
102
RTVSPost2010PropOp42
 70
     1
102
RTVSPost2010Prop43
 90
        3
102
RTVSPost2010PropOp43
 70
     1
102
RTVSPost2010Prop44ColorIndex
 90
        5
102
RTVSPost2010Prop44ColorRGB
 90
      255
102
RTVSPost2010PropOp44
 70
     1
102
RTVSPost2010Prop45
280
     0
102
RTVSPost2010PropOp45
 70
     1
102
RTVSPost2010Prop46
 90
       50
102
RTVSPost2010PropOp46
 70
     1
102
RTVSPost2010Prop47
 90
       50
102
RTVSPost2010PropOp47
 70
     1
102
RTVSPost2010Prop48
 90
       50
102
RTVSPost2010PropOp48
 70
     1
102
RTVSPost2010Prop49
280
     0
102
RTVSPost2010PropOp49
 70
     1
102
RTVSPost2010Prop50
 90
       50
102
RTVSPost2010PropOp50
 70
     1
102
RTVSPost2010Prop51ColorIndex
 90
      256
102
RTVSPost2010Prop51ColorRGB
 90
-16777216
102
RTVSPost2010PropOp51
 70
     0
102
RTVSPost2010Prop52
140
1.0
102
RTVSPost2010PropOp52
 70
     0
102
RTVSPost2010Prop53
 90
        2
102
RTVSPost2010PropOp53
 70
     1
102
RTVSPost2010Prop54
  1
strokes_ogs.tif
102
RTVSPost2010PropOp54
 70
     1
102
RTVSPost2010Prop55
280
     0
102
RTVSPost2010PropOp55
 70
     1
102
RTVSPost2010Prop56
140
1.0
102
RTVSPost2010PropOp56
 70
     1
102
RTVSPost2010Prop57
140
1.0
102
RTVSPost2010PropOp57
 70
     1
102
RTVSPropertyOp0
 70
     1
102
RTVSPropertyOp1
 70
     1
102
RTVSPropertyOp2
 70
     1
102
RTVSPropertyOp3
 70
     1
102
RTVSPropertyOp4
 70
     1
102
RTVSPropertyOp5
 70
     1
102
RTVSPropertyOp6
 70
     1
102
RTVSPropertyOp7
 70
     1
102
RTVSPropertyOp8
 70
     1
102
RTVSPropertyOp9
 70
     1
102
RTVSPropertyOp10
 70
     1
102
RTVSPropertyOp11
 70
     1
102
RTVSPropertyOp12
 70
     1
102
RTVSPropertyOp13
 70
     1
102
RTVSPropertyOp14
 70
     1
102
RTVSPropertyOp15
 70
     1
102
RTVSPropertyOp16
 70
     1
102
RTVSPropertyOp17
 70
     1
102
RTVSPropertyOp18
 70
     1
102
RTVSPropertyOp19
 70
     1
102
RTVSPropertyOp20
 70
     1
102
RTVSPropertyOp21
 70
     1
102
RTVSPropertyOp22
 70
     1
102
RTVSPropertyOp23
 70
     1
102
RTVSPropertyOp24
 70
     1
102
RTVSPropertyOp25
 70
     1
102
RTVSPropertyOp26
 70
     1
102
RTVSPropertyOp27
 70
     1
102
RTVSPropertyOp28
 70
     1
102
RTVSPropertyOp29
 70
     1
102
RTVSPropertyOp30
 70
     1
102
RTVSPropertyOp31
 70
     1
102
RTVSPropertyOp32
 70
     1
102
RTVSPropertyOp33
 70
     1
102
RTVSPropertyOp34
 70
     1
102
RTVSPropertyOp35
 70
     1
102
RTVSPropertyOp36
 70
     1
102
RTVSPropertyOp37
 70
     1
102
RTVSPropertyOp38
 70
     1
102
RTVSPropertyOp39
 70
     1
102
RTVSPropertyOp40
 70
     1
102
RTVSPropertyOp41
 70
     1
102
RTVSPropertyOp42
 70
     1
102
RTVSPropertyOp43
 70
     1
102
RTVSPropertyOp44
 70
     1
102
RTVSPropertyOp45
 70
     1
102
RTVSPropertyOp46
 70
     1
102
RTVSPropertyOp47
 70
     1
102
RTVSPropertyOp48
 70
     1
102
RTVSPropertyOp49
 70
     1
102
RTVSPropertyOp50
 70
     1
102
RTVSPropertyOp51
 70
     0
102
RTVSPropertyOp52
 70
     0
102
RTVSPropertyOp53
 70
     1
102
RTVSPropertyOp54
 70
     1
102
RTVSPropertyOp55
 70
     1
102
RTVSPropertyOp56
 70
     1
102
RTVSPropertyOp57
 70
     1
102
RTVSPropertyOp58
 70
     1
102
RTVSPropertyOp59
 70
     1
102
RTVSPropertyOp60
 70
     1
102
RTVSPropertyOp61
 70
     1
102
RTVSPropertyOp62
 70
     1
  0
XRECORD
  5
17D2
102
{ACAD_REACTORS
330
17D1
102
}
330
17D1
100
AcDbXrecord
280
     1
102
RTVSPost2010Prop28
280
     0
102
RTVSPost2010PropOp28
 70
     1
102
RTVSPost2010Prop29
280
     1
102
RTVSPost2010PropOp29
 70
     1
102
RTVSPost2010Prop30
280
     1
102
RTVSPost2010PropOp30
 70
     1
102
RTVSPost2010Prop31
280
     0
102
RTVSPost2010PropOp31
 70
     1
102
RTVSPost2010Prop32
280
     0
102
RTVSPost2010PropOp32
 70
     1
102
RTVSPost2010Prop33
280
     0
102
RTVSPost2010PropOp33
 70
     1
102
RTVSPost2010Prop34
280
     0
102
RTVSPost2010PropOp34
 70
     1
102
RTVSPost2010Prop35
280
     0
102
RTVSPost2010PropOp35
 70
     1
102
RTVSPost2010Prop36
280
     0
102
RTVSPost2010PropOp36
 70
     1
102
RTVSPost2010Prop37
 90
       50
102
RTVSPost2010PropOp37
 70
     1
102
RTVSPost2010Prop38
140
0.0
102
RTVSPost2010PropOp38
 70
     1
102
RTVSPost2010Prop39
140
1.0
102
RTVSPost2010PropOp39
 70
     1
102
RTVSPost2010Prop40
 90
        0
102
RTVSPost2010PropOp40
 70
     1
102
RTVSPost2010Prop41ColorIndex
 90
       18
102
RTVSPost2010Prop41ColorRGB
 90
        0
102
RTVSPost2010PropOp41
 70
     1
102
RTVSPost2010Prop42
 90
       50
102
RTVSPost2010PropOp42
 70
     1
102
RTVSPost2010Prop43
 90
        3
102
RTVSPost2010PropOp43
 70
     1
102
RTVSPost2010Prop44ColorIndex
 90
        5
102
RTVSPost2010Prop44ColorRGB
 90
      255
102
RTVSPost2010PropOp44
 70
     1
102
RTVSPost2010Prop45
280
     0
102
RTVSPost2010PropOp45
 70
     1
102
RTVSPost2010Prop46
 90
       50
102
RTVSPost2010PropOp46
 70
     1
102
RTVSPost2010Prop47
 90
       50
102
RTVSPost2010PropOp47
 70
     1
102
RTVSPost2010Prop48
 90
       50
102
RTVSPost2010PropOp48
 70
     1
102
RTVSPost2010Prop49
280
     0
102
RTVSPost2010PropOp49
 70
     1
102
RTVSPost2010Prop50
 90
       50
102
RTVSPost2010PropOp50
 70
     1
102
RTVSPost2010Prop51ColorIndex
 90
      256
102
RTVSPost2010Prop51ColorRGB
 90
-16777216
102
RTVSPost2010PropOp51
 70
     0
102
RTVSPost2010Prop52
140
1.0
102
RTVSPost2010PropOp52
 70
     0
102
RTVSPost2010Prop53
 90
        2
102
RTVSPost2010PropOp53
 70
     1
102
RTVSPost2010Prop54
  1
strokes_ogs.tif
102
RTVSPost2010PropOp54
 70
     1
102
RTVSPost2010Prop55
280
     0
102
RTVSPost2010PropOp55
 70
     1
102
RTVSPost2010Prop56
140
1.0
102
RTVSPost2010PropOp56
 70
     1
102
RTVSPost2010Prop57
140
1.0
102
RTVSPost2010PropOp57
 70
     1
102
RTVSPropertyOp0
 70
     1
102
RTVSPropertyOp1
 70
     1
102
RTVSPropertyOp2
 70
     1
102
RTVSPropertyOp3
 70
     1
102
RTVSPropertyOp4
 70
     1
102
RTVSPropertyOp5
 70
     1
102
RTVSPropertyOp6
 70
     1
102
RTVSPropertyOp7
 70
     1
102
RTVSPropertyOp8
 70
     1
102
RTVSPropertyOp9
 70
     1
102
RTVSPropertyOp10
 70
     1
102
RTVSPropertyOp11
 70
     1
102
RTVSPropertyOp12
 70
     1
102
RTVSPropertyOp13
 70
     1
102
RTVSPropertyOp14
 70
     1
102
RTVSPropertyOp15
 70
     1
102
RTVSPropertyOp16
 70
     1
102
RTVSPropertyOp17
 70
     1
102
RTVSPropertyOp18
 70
     1
102
RTVSPropertyOp19
 70
     1
102
RTVSPropertyOp20
 70
     1
102
RTVSPropertyOp21
 70
     1
102
RTVSPropertyOp22
 70
     1
102
RTVSPropertyOp23
 70
     1
102
RTVSPropertyOp24
 70
     1
102
RTVSPropertyOp25
 70
     1
102
RTVSPropertyOp26
 70
     1
102
RTVSPropertyOp27
 70
     1
102
RTVSPropertyOp28
 70
     1
102
RTVSPropertyOp29
 70
     1
102
RTVSPropertyOp30
 70
     1
102
RTVSPropertyOp31
 70
     1
102
RTVSPropertyOp32
 70
     1
102
RTVSPropertyOp33
 70
     1
102
RTVSPropertyOp34
 70
     1
102
RTVSPropertyOp35
 70
     1
102
RTVSPropertyOp36
 70
     1
102
RTVSPropertyOp37
 70
     1
102
RTVSPropertyOp38
 70
     1
102
RTVSPropertyOp39
 70
     1
102
RTVSPropertyOp40
 70
     1
102
RTVSPropertyOp41
 70
     1
102
RTVSPropertyOp42
 70
     1
102
RTVSPropertyOp43
 70
     1
102
RTVSPropertyOp44
 70
     1
102
RTVSPropertyOp45
 70
     1
102
RTVSPropertyOp46
 70
     1
102
RTVSPropertyOp47
 70
     1
102
RTVSPropertyOp48
 70
     1
102
RTVSPropertyOp49
 70
     1
102
RTVSPropertyOp50
 70
     1
102
RTVSPropertyOp51
 70
     0
102
RTVSPropertyOp52
 70
     0
102
RTVSPropertyOp53
 70
     1
102
RTVSPropertyOp54
 70
     1
102
RTVSPropertyOp55
 70
     1
102
RTVSPropertyOp56
 70
     1
102
RTVSPropertyOp57
 70
     1
102
RTVSPropertyOp58
 70
     1
102
RTVSPropertyOp59
 70
     1
102
RTVSPropertyOp60
 70
     1
102
RTVSPropertyOp61
 70
     1
102
RTVSPropertyOp62
 70
     1
  0
XRECORD
  5
17D4
102
{ACAD_REACTORS
330
17D3
102
}
330
17D3
100
AcDbXrecord
280
     1
102
RTVSPost2010Prop28
280
     0
102
RTVSPost2010PropOp28
 70
     1
102
RTVSPost2010Prop29
280
     1
102
RTVSPost2010PropOp29
 70
     1
102
RTVSPost2010Prop30
280
     1
102
RTVSPost2010PropOp30
 70
     1
102
RTVSPost2010Prop31
280
     0
102
RTVSPost2010PropOp31
 70
     1
102
RTVSPost2010Prop32
280
     0
102
RTVSPost2010PropOp32
 70
     1
102
RTVSPost2010Prop33
280
     0
102
RTVSPost2010PropOp33
 70
     1
102
RTVSPost2010Prop34
280
     0
102
RTVSPost2010PropOp34
 70
     1
102
RTVSPost2010Prop35
280
     0
102
RTVSPost2010PropOp35
 70
     1
102
RTVSPost2010Prop36
280
     0
102
RTVSPost2010PropOp36
 70
     1
102
RTVSPost2010Prop37
 90
       50
102
RTVSPost2010PropOp37
 70
     1
102
RTVSPost2010Prop38
140
0.0
102
RTVSPost2010PropOp38
 70
     1
102
RTVSPost2010Prop39
140
1.0
102
RTVSPost2010PropOp39
 70
     1
102
RTVSPost2010Prop40
 90
        0
102
RTVSPost2010PropOp40
 70
     1
102
RTVSPost2010Prop41ColorIndex
 90
       18
102
RTVSPost2010Prop41ColorRGB
 90
        0
102
RTVSPost2010PropOp41
 70
     1
102
RTVSPost2010Prop42
 90
       50
102
RTVSPost2010PropOp42
 70
     1
102
RTVSPost2010Prop43
 90
        3
102
RTVSPost2010PropOp43
 70
     1
102
RTVSPost2010Prop44ColorIndex
 90
        5
102
RTVSPost2010Prop44ColorRGB
 90
      255
102
RTVSPost2010PropOp44
 70
     1
102
RTVSPost2010Prop45
280
     0
102
RTVSPost2010PropOp45
 70
     1
102
RTVSPost2010Prop46
 90
       50
102
RTVSPost2010PropOp46
 70
     1
102
RTVSPost2010Prop47
 90
       50
102
RTVSPost2010PropOp47
 70
     1
102
RTVSPost2010Prop48
 90
       50
102
RTVSPost2010PropOp48
 70
     1
102
RTVSPost2010Prop49
280
     0
102
RTVSPost2010PropOp49
 70
     1
102
RTVSPost2010Prop50
 90
       50
102
RTVSPost2010PropOp50
 70
     1
102
RTVSPost2010Prop51ColorIndex
 90
      256
102
RTVSPost2010Prop51ColorRGB
 90
-16777216
102
RTVSPost2010PropOp51
 70
     0
102
RTVSPost2010Prop52
140
1.0
102
RTVSPost2010PropOp52
 70
     0
102
RTVSPost2010Prop53
 90
        2
102
RTVSPost2010PropOp53
 70
     1
102
RTVSPost2010Prop54
  1
strokes_ogs.tif
102
RTVSPost2010PropOp54
 70
     1
102
RTVSPost2010Prop55
280
     0
102
RTVSPost2010PropOp55
 70
     1
102
RTVSPost2010Prop56
140
1.0
102
RTVSPost2010PropOp56
 70
     1
102
RTVSPost2010Prop57
140
1.0
102
RTVSPost2010PropOp57
 70
     1
102
RTVSPropertyOp0
 70
     1
102
RTVSPropertyOp1
 70
     1
102
RTVSPropertyOp2
 70
     1
102
RTVSPropertyOp3
 70
     1
102
RTVSPropertyOp4
 70
     1
102
RTVSPropertyOp5
 70
     1
102
RTVSPropertyOp6
 70
     1
102
RTVSPropertyOp7
 70
     1
102
RTVSPropertyOp8
 70
     1
102
RTVSPropertyOp9
 70
     1
102
RTVSPropertyOp10
 70
     1
102
RTVSPropertyOp11
 70
     1
102
RTVSPropertyOp12
 70
     1
102
RTVSPropertyOp13
 70
     1
102
RTVSPropertyOp14
 70
     1
102
RTVSPropertyOp15
 70
     1
102
RTVSPropertyOp16
 70
     1
102
RTVSPropertyOp17
 70
     1
102
RTVSPropertyOp18
 70
     1
102
RTVSPropertyOp19
 70
     1
102
RTVSPropertyOp20
 70
     1
102
RTVSPropertyOp21
 70
     1
102
RTVSPropertyOp22
 70
     1
102
RTVSPropertyOp23
 70
     1
102
RTVSPropertyOp24
 70
     1
102
RTVSPropertyOp25
 70
     1
102
RTVSPropertyOp26
 70
     1
102
RTVSPropertyOp27
 70
     1
102
RTVSPropertyOp28
 70
     1
102
RTVSPropertyOp29
 70
     1
102
RTVSPropertyOp30
 70
     1
102
RTVSPropertyOp31
 70
     1
102
RTVSPropertyOp32
 70
     1
102
RTVSPropertyOp33
 70
     1
102
RTVSPropertyOp34
 70
     1
102
RTVSPropertyOp35
 70
     1
102
RTVSPropertyOp36
 70
     1
102
RTVSPropertyOp37
 70
     1
102
RTVSPropertyOp38
 70
     1
102
RTVSPropertyOp39
 70
     1
102
RTVSPropertyOp40
 70
     1
102
RTVSPropertyOp41
 70
     1
102
RTVSPropertyOp42
 70
     1
102
RTVSPropertyOp43
 70
     1
102
RTVSPropertyOp44
 70
     1
102
RTVSPropertyOp45
 70
     1
102
RTVSPropertyOp46
 70
     1
102
RTVSPropertyOp47
 70
     1
102
RTVSPropertyOp48
 70
     1
102
RTVSPropertyOp49
 70
     1
102
RTVSPropertyOp50
 70
     1
102
RTVSPropertyOp51
 70
     0
102
RTVSPropertyOp52
 70
     0
102
RTVSPropertyOp53
 70
     1
102
RTVSPropertyOp54
 70
     1
102
RTVSPropertyOp55
 70
     1
102
RTVSPropertyOp56
 70
     1
102
RTVSPropertyOp57
 70
     1
102
RTVSPropertyOp58
 70
     1
102
RTVSPropertyOp59
 70
     1
102
RTVSPropertyOp60
 70
     1
102
RTVSPropertyOp61
 70
     1
102
RTVSPropertyOp62
 70
     1
  0
XRECORD
  5
17D6
102
{ACAD_REACTORS
330
17D5
102
}
330
17D5
100
AcDbXrecord
280
     1
102
RTVSPost2010Prop28
280
     0
102
RTVSPost2010PropOp28
 70
     1
102
RTVSPost2010Prop29
280
     1
102
RTVSPost2010PropOp29
 70
     1
102
RTVSPost2010Prop30
280
     1
102
RTVSPost2010PropOp30
 70
     1
102
RTVSPost2010Prop31
280
     0
102
RTVSPost2010PropOp31
 70
     1
102
RTVSPost2010Prop32
280
     0
102
RTVSPost2010PropOp32
 70
     1
102
RTVSPost2010Prop33
280
     0
102
RTVSPost2010PropOp33
 70
     1
102
RTVSPost2010Prop34
280
     0
102
RTVSPost2010PropOp34
 70
     1
102
RTVSPost2010Prop35
280
     0
102
RTVSPost2010PropOp35
 70
     1
102
RTVSPost2010Prop36
280
     0
102
RTVSPost2010PropOp36
 70
     1
102
RTVSPost2010Prop37
 90
       50
102
RTVSPost2010PropOp37
 70
     1
102
RTVSPost2010Prop38
140
0.0
102
RTVSPost2010PropOp38
 70
     1
102
RTVSPost2010Prop39
140
1.0
102
RTVSPost2010PropOp39
 70
     1
102
RTVSPost2010Prop40
 90
        0
102
RTVSPost2010PropOp40
 70
     1
102
RTVSPost2010Prop41ColorIndex
 90
       18
102
RTVSPost2010Prop41ColorRGB
 90
        0
102
RTVSPost2010PropOp41
 70
     1
102
RTVSPost2010Prop42
 90
       50
102
RTVSPost2010PropOp42
 70
     1
102
RTVSPost2010Prop43
 90
        3
102
RTVSPost2010PropOp43
 70
     1
102
RTVSPost2010Prop44ColorIndex
 90
        5
102
RTVSPost2010Prop44ColorRGB
 90
      255
102
RTVSPost2010PropOp44
 70
     1
102
RTVSPost2010Prop45
280
     0
102
RTVSPost2010PropOp45
 70
     1
102
RTVSPost2010Prop46
 90
       50
102
RTVSPost2010PropOp46
 70
     1
102
RTVSPost2010Prop47
 90
       50
102
RTVSPost2010PropOp47
 70
     1
102
RTVSPost2010Prop48
 90
       50
102
RTVSPost2010PropOp48
 70
     1
102
RTVSPost2010Prop49
280
     0
102
RTVSPost2010PropOp49
 70
     1
102
RTVSPost2010Prop50
 90
       50
102
RTVSPost2010PropOp50
 70
     1
102
RTVSPost2010Prop51ColorIndex
 90
      256
102
RTVSPost2010Prop51ColorRGB
 90
-16777216
102
RTVSPost2010PropOp51
 70
     0
102
RTVSPost2010Prop52
140
1.0
102
RTVSPost2010PropOp52
 70
     0
102
RTVSPost2010Prop53
 90
        2
102
RTVSPost2010PropOp53
 70
     1
102
RTVSPost2010Prop54
  1
strokes_ogs.tif
102
RTVSPost2010PropOp54
 70
     1
102
RTVSPost2010Prop55
280
     0
102
RTVSPost2010PropOp55
 70
     1
102
RTVSPost2010Prop56
140
1.0
102
RTVSPost2010PropOp56
 70
     1
102
RTVSPost2010Prop57
140
1.0
102
RTVSPost2010PropOp57
 70
     1
102
RTVSPropertyOp0
 70
     1
102
RTVSPropertyOp1
 70
     1
102
RTVSPropertyOp2
 70
     1
102
RTVSPropertyOp3
 70
     1
102
RTVSPropertyOp4
 70
     1
102
RTVSPropertyOp5
 70
     1
102
RTVSPropertyOp6
 70
     1
102
RTVSPropertyOp7
 70
     1
102
RTVSPropertyOp8
 70
     1
102
RTVSPropertyOp9
 70
     1
102
RTVSPropertyOp10
 70
     1
102
RTVSPropertyOp11
 70
     1
102
RTVSPropertyOp12
 70
     1
102
RTVSPropertyOp13
 70
     1
102
RTVSPropertyOp14
 70
     1
102
RTVSPropertyOp15
 70
     1
102
RTVSPropertyOp16
 70
     1
102
RTVSPropertyOp17
 70
     1
102
RTVSPropertyOp18
 70
     1
102
RTVSPropertyOp19
 70
     1
102
RTVSPropertyOp20
 70
     1
102
RTVSPropertyOp21
 70
     1
102
RTVSPropertyOp22
 70
     1
102
RTVSPropertyOp23
 70
     1
102
RTVSPropertyOp24
 70
     1
102
RTVSPropertyOp25
 70
     1
102
RTVSPropertyOp26
 70
     1
102
RTVSPropertyOp27
 70
     1
102
RTVSPropertyOp28
 70
     1
102
RTVSPropertyOp29
 70
     1
102
RTVSPropertyOp30
 70
     1
102
RTVSPropertyOp31
 70
     1
102
RTVSPropertyOp32
 70
     1
102
RTVSPropertyOp33
 70
     1
102
RTVSPropertyOp34
 70
     1
102
RTVSPropertyOp35
 70
     1
102
RTVSPropertyOp36
 70
     1
102
RTVSPropertyOp37
 70
     1
102
RTVSPropertyOp38
 70
     1
102
RTVSPropertyOp39
 70
     1
102
RTVSPropertyOp40
 70
     1
102
RTVSPropertyOp41
 70
     1
102
RTVSPropertyOp42
 70
     1
102
RTVSPropertyOp43
 70
     1
102
RTVSPropertyOp44
 70
     1
102
RTVSPropertyOp45
 70
     1
102
RTVSPropertyOp46
 70
     1
102
RTVSPropertyOp47
 70
     1
102
RTVSPropertyOp48
 70
     1
102
RTVSPropertyOp49
 70
     1
102
RTVSPropertyOp50
 70
     1
102
RTVSPropertyOp51
 70
     0
102
RTVSPropertyOp52
 70
     0
102
RTVSPropertyOp53
 70
     1
102
RTVSPropertyOp54
 70
     1
102
RTVSPropertyOp55
 70
     1
102
RTVSPropertyOp56
 70
     1
102
RTVSPropertyOp57
 70
     1
102
RTVSPropertyOp58
 70
     1
102
RTVSPropertyOp59
 70
     1
102
RTVSPropertyOp60
 70
     1
102
RTVSPropertyOp61
 70
     1
102
RTVSPropertyOp62
 70
     1
  0
XRECORD
  5
17D8
102
{ACAD_REACTORS
330
17D7
102
}
330
17D7
100
AcDbXrecord
280
     1
102
RTVSPost2010Prop28
280
     0
102
RTVSPost2010PropOp28
 70
     1
102
RTVSPost2010Prop29
280
     1
102
RTVSPost2010PropOp29
 70
     1
102
RTVSPost2010Prop30
280
     1
102
RTVSPost2010PropOp30
 70
     1
102
RTVSPost2010Prop31
280
     0
102
RTVSPost2010PropOp31
 70
     1
102
RTVSPost2010Prop32
280
     0
102
RTVSPost2010PropOp32
 70
     1
102
RTVSPost2010Prop33
280
     0
102
RTVSPost2010PropOp33
 70
     1
102
RTVSPost2010Prop34
280
     0
102
RTVSPost2010PropOp34
 70
     1
102
RTVSPost2010Prop35
280
     0
102
RTVSPost2010PropOp35
 70
     1
102
RTVSPost2010Prop36
280
     0
102
RTVSPost2010PropOp36
 70
     1
102
RTVSPost2010Prop37
 90
       50
102
RTVSPost2010PropOp37
 70
     1
102
RTVSPost2010Prop38
140
0.0
102
RTVSPost2010PropOp38
 70
     1
102
RTVSPost2010Prop39
140
1.0
102
RTVSPost2010PropOp39
 70
     1
102
RTVSPost2010Prop40
 90
        0
102
RTVSPost2010PropOp40
 70
     1
102
RTVSPost2010Prop41ColorIndex
 90
       18
102
RTVSPost2010Prop41ColorRGB
 90
        0
102
RTVSPost2010PropOp41
 70
     1
102
RTVSPost2010Prop42
 90
       50
102
RTVSPost2010PropOp42
 70
     1
102
RTVSPost2010Prop43
 90
        3
102
RTVSPost2010PropOp43
 70
     1
102
RTVSPost2010Prop44ColorIndex
 90
        5
102
RTVSPost2010Prop44ColorRGB
 90
      255
102
RTVSPost2010PropOp44
 70
     1
102
RTVSPost2010Prop45
280
     0
102
RTVSPost2010PropOp45
 70
     1
102
RTVSPost2010Prop46
 90
       50
102
RTVSPost2010PropOp46
 70
     1
102
RTVSPost2010Prop47
 90
       50
102
RTVSPost2010PropOp47
 70
     1
102
RTVSPost2010Prop48
 90
       50
102
RTVSPost2010PropOp48
 70
     1
102
RTVSPost2010Prop49
280
     0
102
RTVSPost2010PropOp49
 70
     1
102
RTVSPost2010Prop50
 90
       50
102
RTVSPost2010PropOp50
 70
     1
102
RTVSPost2010Prop51ColorIndex
 90
      256
102
RTVSPost2010Prop51ColorRGB
 90
-16777216
102
RTVSPost2010PropOp51
 70
     0
102
RTVSPost2010Prop52
140
1.0
102
RTVSPost2010PropOp52
 70
     0
102
RTVSPost2010Prop53
 90
        2
102
RTVSPost2010PropOp53
 70
     1
102
RTVSPost2010Prop54
  1
strokes_ogs.tif
102
RTVSPost2010PropOp54
 70
     1
102
RTVSPost2010Prop55
280
     0
102
RTVSPost2010PropOp55
 70
     1
102
RTVSPost2010Prop56
140
1.0
102
RTVSPost2010PropOp56
 70
     1
102
RTVSPost2010Prop57
140
1.0
102
RTVSPost2010PropOp57
 70
     1
102
RTVSPropertyOp0
 70
     1
102
RTVSPropertyOp1
 70
     1
102
RTVSPropertyOp2
 70
     1
102
RTVSPropertyOp3
 70
     1
102
RTVSPropertyOp4
 70
     1
102
RTVSPropertyOp5
 70
     1
102
RTVSPropertyOp6
 70
     1
102
RTVSPropertyOp7
 70
     1
102
RTVSPropertyOp8
 70
     1
102
RTVSPropertyOp9
 70
     1
102
RTVSPropertyOp10
 70
     1
102
RTVSPropertyOp11
 70
     1
102
RTVSPropertyOp12
 70
     1
102
RTVSPropertyOp13
 70
     1
102
RTVSPropertyOp14
 70
     1
102
RTVSPropertyOp15
 70
     1
102
RTVSPropertyOp16
 70
     1
102
RTVSPropertyOp17
 70
     1
102
RTVSPropertyOp18
 70
     1
102
RTVSPropertyOp19
 70
     1
102
RTVSPropertyOp20
 70
     1
102
RTVSPropertyOp21
 70
     1
102
RTVSPropertyOp22
 70
     1
102
RTVSPropertyOp23
 70
     1
102
RTVSPropertyOp24
 70
     1
102
RTVSPropertyOp25
 70
     1
102
RTVSPropertyOp26
 70
     1
102
RTVSPropertyOp27
 70
     1
102
RTVSPropertyOp28
 70
     1
102
RTVSPropertyOp29
 70
     1
102
RTVSPropertyOp30
 70
     1
102
RTVSPropertyOp31
 70
     1
102
RTVSPropertyOp32
 70
     1
102
RTVSPropertyOp33
 70
     1
102
RTVSPropertyOp34
 70
     1
102
RTVSPropertyOp35
 70
     1
102
RTVSPropertyOp36
 70
     1
102
RTVSPropertyOp37
 70
     1
102
RTVSPropertyOp38
 70
     1
102
RTVSPropertyOp39
 70
     1
102
RTVSPropertyOp40
 70
     1
102
RTVSPropertyOp41
 70
     1
102
RTVSPropertyOp42
 70
     1
102
RTVSPropertyOp43
 70
     1
102
RTVSPropertyOp44
 70
     1
102
RTVSPropertyOp45
 70
     1
102
RTVSPropertyOp46
 70
     1
102
RTVSPropertyOp47
 70
     1
102
RTVSPropertyOp48
 70
     1
102
RTVSPropertyOp49
 70
     1
102
RTVSPropertyOp50
 70
     1
102
RTVSPropertyOp51
 70
     0
102
RTVSPropertyOp52
 70
     0
102
RTVSPropertyOp53
 70
     1
102
RTVSPropertyOp54
 70
     1
102
RTVSPropertyOp55
 70
     1
102
RTVSPropertyOp56
 70
     1
102
RTVSPropertyOp57
 70
     1
102
RTVSPropertyOp58
 70
     1
102
RTVSPropertyOp59
 70
     1
102
RTVSPropertyOp60
 70
     1
102
RTVSPropertyOp61
 70
     1
102
RTVSPropertyOp62
 70
     1
  0
XRECORD
  5
17E0
102
{ACAD_REACTORS
330
17DF
102
}
330
17DF
100
AcDbXrecord
280
     1
102
RTVSPost2010Prop28
280
     0
102
RTVSPost2010PropOp28
 70
     1
102
RTVSPost2010Prop29
280
     1
102
RTVSPost2010PropOp29
 70
     1
102
RTVSPost2010Prop30
280
     1
102
RTVSPost2010PropOp30
 70
     1
102
RTVSPost2010Prop31
280
     0
102
RTVSPost2010PropOp31
 70
     1
102
RTVSPost2010Prop32
280
     0
102
RTVSPost2010PropOp32
 70
     1
102
RTVSPost2010Prop33
280
     0
102
RTVSPost2010PropOp33
 70
     1
102
RTVSPost2010Prop34
280
     0
102
RTVSPost2010PropOp34
 70
     1
102
RTVSPost2010Prop35
280
     0
102
RTVSPost2010PropOp35
 70
     1
102
RTVSPost2010Prop36
280
     0
102
RTVSPost2010PropOp36
 70
     1
102
RTVSPost2010Prop37
 90
       50
102
RTVSPost2010PropOp37
 70
     1
102
RTVSPost2010Prop38
140
0.0
102
RTVSPost2010PropOp38
 70
     1
102
RTVSPost2010Prop39
140
1.0
102
RTVSPost2010PropOp39
 70
     1
102
RTVSPost2010Prop40
 90
        0
102
RTVSPost2010PropOp40
 70
     1
102
RTVSPost2010Prop41ColorIndex
 90
       18
102
RTVSPost2010Prop41ColorRGB
 90
        0
102
RTVSPost2010PropOp41
 70
     1
102
RTVSPost2010Prop42
 90
       50
102
RTVSPost2010PropOp42
 70
     1
102
RTVSPost2010Prop43
 90
        3
102
RTVSPost2010PropOp43
 70
     1
102
RTVSPost2010Prop44ColorIndex
 90
        5
102
RTVSPost2010Prop44ColorRGB
 90
      255
102
RTVSPost2010PropOp44
 70
     1
102
RTVSPost2010Prop45
280
     0
102
RTVSPost2010PropOp45
 70
     1
102
RTVSPost2010Prop46
 90
       50
102
RTVSPost2010PropOp46
 70
     1
102
RTVSPost2010Prop47
 90
       50
102
RTVSPost2010PropOp47
 70
     1
102
RTVSPost2010Prop48
 90
       50
102
RTVSPost2010PropOp48
 70
     1
102
RTVSPost2010Prop49
280
     0
102
RTVSPost2010PropOp49
 70
     1
102
RTVSPost2010Prop50
 90
       50
102
RTVSPost2010PropOp50
 70
     1
102
RTVSPost2010Prop51ColorIndex
 90
      256
102
RTVSPost2010Prop51ColorRGB
 90
-16777216
102
RTVSPost2010PropOp51
 70
     0
102
RTVSPost2010Prop52
140
1.0
102
RTVSPost2010PropOp52
 70
     0
102
RTVSPost2010Prop53
 90
        2
102
RTVSPost2010PropOp53
 70
     1
102
RTVSPost2010Prop54
  1
strokes_ogs.tif
102
RTVSPost2010PropOp54
 70
     1
102
RTVSPost2010Prop55
280
     0
102
RTVSPost2010PropOp55
 70
     1
102
RTVSPost2010Prop56
140
1.0
102
RTVSPost2010PropOp56
 70
     1
102
RTVSPost2010Prop57
140
1.0
102
RTVSPost2010PropOp57
 70
     1
102
RTVSPropertyOp0
 70
     1
102
RTVSPropertyOp1
 70
     1
102
RTVSPropertyOp2
 70
     1
102
RTVSPropertyOp3
 70
     1
102
RTVSPropertyOp4
 70
     1
102
RTVSPropertyOp5
 70
     1
102
RTVSPropertyOp6
 70
     1
102
RTVSPropertyOp7
 70
     1
102
RTVSPropertyOp8
 70
     1
102
RTVSPropertyOp9
 70
     1
102
RTVSPropertyOp10
 70
     1
102
RTVSPropertyOp11
 70
     1
102
RTVSPropertyOp12
 70
     1
102
RTVSPropertyOp13
 70
     1
102
RTVSPropertyOp14
 70
     1
102
RTVSPropertyOp15
 70
     1
102
RTVSPropertyOp16
 70
     1
102
RTVSPropertyOp17
 70
     1
102
RTVSPropertyOp18
 70
     1
102
RTVSPropertyOp19
 70
     1
102
RTVSPropertyOp20
 70
     1
102
RTVSPropertyOp21
 70
     1
102
RTVSPropertyOp22
 70
     1
102
RTVSPropertyOp23
 70
     1
102
RTVSPropertyOp24
 70
     1
102
RTVSPropertyOp25
 70
     1
102
RTVSPropertyOp26
 70
     1
102
RTVSPropertyOp27
 70
     1
102
RTVSPropertyOp28
 70
     1
102
RTVSPropertyOp29
 70
     1
102
RTVSPropertyOp30
 70
     1
102
RTVSPropertyOp31
 70
     1
102
RTVSPropertyOp32
 70
     1
102
RTVSPropertyOp33
 70
     1
102
RTVSPropertyOp34
 70
     1
102
RTVSPropertyOp35
 70
     1
102
RTVSPropertyOp36
 70
     1
102
RTVSPropertyOp37
 70
     1
102
RTVSPropertyOp38
 70
     1
102
RTVSPropertyOp39
 70
     1
102
RTVSPropertyOp40
 70
     1
102
RTVSPropertyOp41
 70
     1
102
RTVSPropertyOp42
 70
     1
102
RTVSPropertyOp43
 70
     1
102
RTVSPropertyOp44
 70
     1
102
RTVSPropertyOp45
 70
     1
102
RTVSPropertyOp46
 70
     1
102
RTVSPropertyOp47
 70
     1
102
RTVSPropertyOp48
 70
     1
102
RTVSPropertyOp49
 70
     1
102
RTVSPropertyOp50
 70
     1
102
RTVSPropertyOp51
 70
     0
102
RTVSPropertyOp52
 70
     0
102
RTVSPropertyOp53
 70
     1
102
RTVSPropertyOp54
 70
     1
102
RTVSPropertyOp55
 70
     1
102
RTVSPropertyOp56
 70
     1
102
RTVSPropertyOp57
 70
     1
102
RTVSPropertyOp58
 70
     1
102
RTVSPropertyOp59
 70
     1
102
RTVSPropertyOp60
 70
     1
102
RTVSPropertyOp61
 70
     1
102
RTVSPropertyOp62
 70
     1
  0
XRECORD
  5
17F4
102
{ACAD_REACTORS
330
17F3
102
}
330
17F3
100
AcDbXrecord
280
     1
102
RTVSPost2010Prop28
280
     0
102
RTVSPost2010PropOp28
 70
     1
102
RTVSPost2010Prop29
280
     1
102
RTVSPost2010PropOp29
 70
     1
102
RTVSPost2010Prop30
280
     1
102
RTVSPost2010PropOp30
 70
     1
102
RTVSPost2010Prop31
280
     0
102
RTVSPost2010PropOp31
 70
     1
102
RTVSPost2010Prop32
280
     0
102
RTVSPost2010PropOp32
 70
     1
102
RTVSPost2010Prop33
280
     0
102
RTVSPost2010PropOp33
 70
     1
102
RTVSPost2010Prop34
280
     0
102
RTVSPost2010PropOp34
 70
     1
102
RTVSPost2010Prop35
280
     0
102
RTVSPost2010PropOp35
 70
     1
102
RTVSPost2010Prop36
280
     0
102
RTVSPost2010PropOp36
 70
     1
102
RTVSPost2010Prop37
 90
       50
102
RTVSPost2010PropOp37
 70
     1
102
RTVSPost2010Prop38
140
0.0
102
RTVSPost2010PropOp38
 70
     1
102
RTVSPost2010Prop39
140
1.0
102
RTVSPost2010PropOp39
 70
     1
102
RTVSPost2010Prop40
 90
        0
102
RTVSPost2010PropOp40
 70
     1
102
RTVSPost2010Prop41ColorIndex
 90
       18
102
RTVSPost2010Prop41ColorRGB
 90
        0
102
RTVSPost2010PropOp41
 70
     1
102
RTVSPost2010Prop42
 90
       50
102
RTVSPost2010PropOp42
 70
     1
102
RTVSPost2010Prop43
 90
        3
102
RTVSPost2010PropOp43
 70
     1
102
RTVSPost2010Prop44ColorIndex
 90
        5
102
RTVSPost2010Prop44ColorRGB
 90
      255
102
RTVSPost2010PropOp44
 70
     1
102
RTVSPost2010Prop45
280
     0
102
RTVSPost2010PropOp45
 70
     1
102
RTVSPost2010Prop46
 90
       50
102
RTVSPost2010PropOp46
 70
     1
102
RTVSPost2010Prop47
 90
       50
102
RTVSPost2010PropOp47
 70
     1
102
RTVSPost2010Prop48
 90
       50
102
RTVSPost2010PropOp48
 70
     1
102
RTVSPost2010Prop49
280
     0
102
RTVSPost2010PropOp49
 70
     1
102
RTVSPost2010Prop50
 90
       50
102
RTVSPost2010PropOp50
 70
     1
102
RTVSPost2010Prop51ColorIndex
 90
      256
102
RTVSPost2010Prop51ColorRGB
 90
-16777216
102
RTVSPost2010PropOp51
 70
     0
102
RTVSPost2010Prop52
140
1.0
102
RTVSPost2010PropOp52
 70
     0
102
RTVSPost2010Prop53
 90
        2
102
RTVSPost2010PropOp53
 70
     1
102
RTVSPost2010Prop54
  1
strokes_ogs.tif
102
RTVSPost2010PropOp54
 70
     1
102
RTVSPost2010Prop55
280
     0
102
RTVSPost2010PropOp55
 70
     1
102
RTVSPost2010Prop56
140
1.0
102
RTVSPost2010PropOp56
 70
     1
102
RTVSPost2010Prop57
140
1.0
102
RTVSPost2010PropOp57
 70
     1
102
RTVSPropertyOp0
 70
     0
102
RTVSPropertyOp1
 70
     0
102
RTVSPropertyOp2
 70
     0
102
RTVSPropertyOp3
 70
     0
102
RTVSPropertyOp4
 70
     0
102
RTVSPropertyOp5
 70
     0
102
RTVSPropertyOp6
 70
     0
102
RTVSPropertyOp7
 70
     0
102
RTVSPropertyOp8
 70
     0
102
RTVSPropertyOp9
 70
     0
102
RTVSPropertyOp10
 70
     0
102
RTVSPropertyOp11
 70
     0
102
RTVSPropertyOp12
 70
     0
102
RTVSPropertyOp13
 70
     0
102
RTVSPropertyOp14
 70
     2
102
RTVSPropertyOp15
 70
     0
102
RTVSPropertyOp16
 70
     0
102
RTVSPropertyOp17
 70
     0
102
RTVSPropertyOp18
 70
     0
102
RTVSPropertyOp19
 70
     0
102
RTVSPropertyOp20
 70
     0
102
RTVSPropertyOp21
 70
     0
102
RTVSPropertyOp22
 70
     0
102
RTVSPropertyOp23
 70
     0
102
RTVSPropertyOp24
 70
     0
102
RTVSPropertyOp25
 70
     0
102
RTVSPropertyOp26
 70
     0
102
RTVSPropertyOp27
 70
     0
102
RTVSPropertyOp28
 70
     1
102
RTVSPropertyOp29
 70
     1
102
RTVSPropertyOp30
 70
     1
102
RTVSPropertyOp31
 70
     1
102
RTVSPropertyOp32
 70
     1
102
RTVSPropertyOp33
 70
     1
102
RTVSPropertyOp34
 70
     1
102
RTVSPropertyOp35
 70
     1
102
RTVSPropertyOp36
 70
     1
102
RTVSPropertyOp37
 70
     1
102
RTVSPropertyOp38
 70
     1
102
RTVSPropertyOp39
 70
     1
102
RTVSPropertyOp40
 70
     1
102
RTVSPropertyOp41
 70
     1
102
RTVSPropertyOp42
 70
     1
102
RTVSPropertyOp43
 70
     1
102
RTVSPropertyOp44
 70
     1
102
RTVSPropertyOp45
 70
     1
102
RTVSPropertyOp46
 70
     1
102
RTVSPropertyOp47
 70
     1
102
RTVSPropertyOp48
 70
     1
102
RTVSPropertyOp49
 70
     1
102
RTVSPropertyOp50
 70
     1
102
RTVSPropertyOp51
 70
     0
102
RTVSPropertyOp52
 70
     0
102
RTVSPropertyOp53
 70
     1
102
RTVSPropertyOp54
 70
     1
102
RTVSPropertyOp55
 70
     1
102
RTVSPropertyOp56
 70
     1
102
RTVSPropertyOp57
 70
     1
102
RTVSPropertyOp58
 70
     1
102
RTVSPropertyOp59
 70
     1
102
RTVSPropertyOp60
 70
     1
102
RTVSPropertyOp61
 70
     1
102
RTVSPropertyOp62
 70
     1
  0
XRECORD
  5
17EC
102
{ACAD_REACTORS
330
17EB
102
}
330
17EB
100
AcDbXrecord
280
     1
102
RTVSPost2010Prop28
280
     0
102
RTVSPost2010PropOp28
 70
     1
102
RTVSPost2010Prop29
280
     1
102
RTVSPost2010PropOp29
 70
     1
102
RTVSPost2010Prop30
280
     1
102
RTVSPost2010PropOp30
 70
     1
102
RTVSPost2010Prop31
280
     0
102
RTVSPost2010PropOp31
 70
     1
102
RTVSPost2010Prop32
280
     0
102
RTVSPost2010PropOp32
 70
     1
102
RTVSPost2010Prop33
280
     0
102
RTVSPost2010PropOp33
 70
     1
102
RTVSPost2010Prop34
280
     0
102
RTVSPost2010PropOp34
 70
     1
102
RTVSPost2010Prop35
280
     0
102
RTVSPost2010PropOp35
 70
     1
102
RTVSPost2010Prop36
280
     0
102
RTVSPost2010PropOp36
 70
     1
102
RTVSPost2010Prop37
 90
       50
102
RTVSPost2010PropOp37
 70
     1
102
RTVSPost2010Prop38
140
0.0
102
RTVSPost2010PropOp38
 70
     1
102
RTVSPost2010Prop39
140
1.0
102
RTVSPost2010PropOp39
 70
     1
102
RTVSPost2010Prop40
 90
        0
102
RTVSPost2010PropOp40
 70
     1
102
RTVSPost2010Prop41ColorIndex
 90
       18
102
RTVSPost2010Prop41ColorRGB
 90
        0
102
RTVSPost2010PropOp41
 70
     1
102
RTVSPost2010Prop42
 90
       50
102
RTVSPost2010PropOp42
 70
     1
102
RTVSPost2010Prop43
 90
        3
102
RTVSPost2010PropOp43
 70
     1
102
RTVSPost2010Prop44ColorIndex
 90
        5
102
RTVSPost2010Prop44ColorRGB
 90
      255
102
RTVSPost2010PropOp44
 70
     1
102
RTVSPost2010Prop45
280
     0
102
RTVSPost2010PropOp45
 70
     1
102
RTVSPost2010Prop46
 90
       50
102
RTVSPost2010PropOp46
 70
     1
102
RTVSPost2010Prop47
 90
       50
102
RTVSPost2010PropOp47
 70
     1
102
RTVSPost2010Prop48
 90
       50
102
RTVSPost2010PropOp48
 70
     1
102
RTVSPost2010Prop49
280
     0
102
RTVSPost2010PropOp49
 70
     1
102
RTVSPost2010Prop50
 90
       50
102
RTVSPost2010PropOp50
 70
     1
102
RTVSPost2010Prop51ColorIndex
 90
      256
102
RTVSPost2010Prop51ColorRGB
 90
-16777216
102
RTVSPost2010PropOp51
 70
     0
102
RTVSPost2010Prop52
140
1.0
102
RTVSPost2010PropOp52
 70
     0
102
RTVSPost2010Prop53
 90
        2
102
RTVSPost2010PropOp53
 70
     1
102
RTVSPost2010Prop54
  1
strokes_ogs.tif
102
RTVSPost2010PropOp54
 70
     1
102
RTVSPost2010Prop55
280
     0
102
RTVSPost2010PropOp55
 70
     1
102
RTVSPost2010Prop56
140
1.0
102
RTVSPost2010PropOp56
 70
     1
102
RTVSPost2010Prop57
140
1.0
102
RTVSPost2010PropOp57
 70
     1
102
RTVSPropertyOp0
 70
     1
102
RTVSPropertyOp1
 70
     1
102
RTVSPropertyOp2
 70
     1
102
RTVSPropertyOp3
 70
     1
102
RTVSPropertyOp4
 70
     1
102
RTVSPropertyOp5
 70
     1
102
RTVSPropertyOp6
 70
     1
102
RTVSPropertyOp7
 70
     1
102
RTVSPropertyOp8
 70
     1
102
RTVSPropertyOp9
 70
     1
102
RTVSPropertyOp10
 70
     1
102
RTVSPropertyOp11
 70
     1
102
RTVSPropertyOp12
 70
     1
102
RTVSPropertyOp13
 70
     1
102
RTVSPropertyOp14
 70
     1
102
RTVSPropertyOp15
 70
     1
102
RTVSPropertyOp16
 70
     1
102
RTVSPropertyOp17
 70
     1
102
RTVSPropertyOp18
 70
     1
102
RTVSPropertyOp19
 70
     1
102
RTVSPropertyOp20
 70
     1
102
RTVSPropertyOp21
 70
     1
102
RTVSPropertyOp22
 70
     1
102
RTVSPropertyOp23
 70
     1
102
RTVSPropertyOp24
 70
     1
102
RTVSPropertyOp25
 70
     1
102
RTVSPropertyOp26
 70
     1
102
RTVSPropertyOp27
 70
     1
102
RTVSPropertyOp28
 70
     1
102
RTVSPropertyOp29
 70
     1
102
RTVSPropertyOp30
 70
     1
102
RTVSPropertyOp31
 70
     1
102
RTVSPropertyOp32
 70
     1
102
RTVSPropertyOp33
 70
     1
102
RTVSPropertyOp34
 70
     1
102
RTVSPropertyOp35
 70
     1
102
RTVSPropertyOp36
 70
     1
102
RTVSPropertyOp37
 70
     1
102
RTVSPropertyOp38
 70
     1
102
RTVSPropertyOp39
 70
     1
102
RTVSPropertyOp40
 70
     1
102
RTVSPropertyOp41
 70
     1
102
RTVSPropertyOp42
 70
     1
102
RTVSPropertyOp43
 70
     1
102
RTVSPropertyOp44
 70
     1
102
RTVSPropertyOp45
 70
     1
102
RTVSPropertyOp46
 70
     1
102
RTVSPropertyOp47
 70
     1
102
RTVSPropertyOp48
 70
     1
102
RTVSPropertyOp49
 70
     1
102
RTVSPropertyOp50
 70
     1
102
RTVSPropertyOp51
 70
     0
102
RTVSPropertyOp52
 70
     0
102
RTVSPropertyOp53
 70
     1
102
RTVSPropertyOp54
 70
     1
102
RTVSPropertyOp55
 70
     1
102
RTVSPropertyOp56
 70
     1
102
RTVSPropertyOp57
 70
     1
102
RTVSPropertyOp58
 70
     1
102
RTVSPropertyOp59
 70
     1
102
RTVSPropertyOp60
 70
     1
102
RTVSPropertyOp61
 70
     1
102
RTVSPropertyOp62
 70
     1
  0
XRECORD
  5
17F6
102
{ACAD_REACTORS
330
17F5
102
}
330
17F5
100
AcDbXrecord
280
     1
102
RTVSPost2010Prop28
280
     0
102
RTVSPost2010PropOp28
 70
     1
102
RTVSPost2010Prop29
280
     1
102
RTVSPost2010PropOp29
 70
     1
102
RTVSPost2010Prop30
280
     1
102
RTVSPost2010PropOp30
 70
     1
102
RTVSPost2010Prop31
280
     0
102
RTVSPost2010PropOp31
 70
     1
102
RTVSPost2010Prop32
280
     0
102
RTVSPost2010PropOp32
 70
     1
102
RTVSPost2010Prop33
280
     0
102
RTVSPost2010PropOp33
 70
     1
102
RTVSPost2010Prop34
280
     0
102
RTVSPost2010PropOp34
 70
     1
102
RTVSPost2010Prop35
280
     0
102
RTVSPost2010PropOp35
 70
     1
102
RTVSPost2010Prop36
280
     0
102
RTVSPost2010PropOp36
 70
     1
102
RTVSPost2010Prop37
 90
       50
102
RTVSPost2010PropOp37
 70
     1
102
RTVSPost2010Prop38
140
0.0
102
RTVSPost2010PropOp38
 70
     1
102
RTVSPost2010Prop39
140
1.0
102
RTVSPost2010PropOp39
 70
     1
102
RTVSPost2010Prop40
 90
        0
102
RTVSPost2010PropOp40
 70
     1
102
RTVSPost2010Prop41ColorIndex
 90
       18
102
RTVSPost2010Prop41ColorRGB
 90
        0
102
RTVSPost2010PropOp41
 70
     1
102
RTVSPost2010Prop42
 90
       50
102
RTVSPost2010PropOp42
 70
     1
102
RTVSPost2010Prop43
 90
        3
102
RTVSPost2010PropOp43
 70
     1
102
RTVSPost2010Prop44ColorIndex
 90
        5
102
RTVSPost2010Prop44ColorRGB
 90
      255
102
RTVSPost2010PropOp44
 70
     1
102
RTVSPost2010Prop45
280
     0
102
RTVSPost2010PropOp45
 70
     1
102
RTVSPost2010Prop46
 90
       50
102
RTVSPost2010PropOp46
 70
     1
102
RTVSPost2010Prop47
 90
       50
102
RTVSPost2010PropOp47
 70
     1
102
RTVSPost2010Prop48
 90
       50
102
RTVSPost2010PropOp48
 70
     1
102
RTVSPost2010Prop49
280
     0
102
RTVSPost2010PropOp49
 70
     1
102
RTVSPost2010Prop50
 90
       50
102
RTVSPost2010PropOp50
 70
     1
102
RTVSPost2010Prop51ColorIndex
 90
      256
102
RTVSPost2010Prop51ColorRGB
 90
-16777216
102
RTVSPost2010PropOp51
 70
     0
102
RTVSPost2010Prop52
140
1.0
102
RTVSPost2010PropOp52
 70
     0
102
RTVSPost2010Prop53
 90
        2
102
RTVSPost2010PropOp53
 70
     1
102
RTVSPost2010Prop54
  1
strokes_ogs.tif
102
RTVSPost2010PropOp54
 70
     1
102
RTVSPost2010Prop55
280
     0
102
RTVSPost2010PropOp55
 70
     1
102
RTVSPost2010Prop56
140
1.0
102
RTVSPost2010PropOp56
 70
     1
102
RTVSPost2010Prop57
140
1.0
102
RTVSPost2010PropOp57
 70
     1
102
RTVSPropertyOp0
 70
     0
102
RTVSPropertyOp1
 70
     0
102
RTVSPropertyOp2
 70
     0
102
RTVSPropertyOp3
 70
     0
102
RTVSPropertyOp4
 70
     0
102
RTVSPropertyOp5
 70
     0
102
RTVSPropertyOp6
 70
     0
102
RTVSPropertyOp7
 70
     0
102
RTVSPropertyOp8
 70
     0
102
RTVSPropertyOp9
 70
     0
102
RTVSPropertyOp10
 70
     0
102
RTVSPropertyOp11
 70
     0
102
RTVSPropertyOp12
 70
     0
102
RTVSPropertyOp13
 70
     0
102
RTVSPropertyOp14
 70
     2
102
RTVSPropertyOp15
 70
     0
102
RTVSPropertyOp16
 70
     0
102
RTVSPropertyOp17
 70
     0
102
RTVSPropertyOp18
 70
     0
102
RTVSPropertyOp19
 70
     0
102
RTVSPropertyOp20
 70
     0
102
RTVSPropertyOp21
 70
     0
102
RTVSPropertyOp22
 70
     0
102
RTVSPropertyOp23
 70
     0
102
RTVSPropertyOp24
 70
     0
102
RTVSPropertyOp25
 70
     0
102
RTVSPropertyOp26
 70
     0
102
RTVSPropertyOp27
 70
     0
102
RTVSPropertyOp28
 70
     1
102
RTVSPropertyOp29
 70
     1
102
RTVSPropertyOp30
 70
     1
102
RTVSPropertyOp31
 70
     1
102
RTVSPropertyOp32
 70
     1
102
RTVSPropertyOp33
 70
     1
102
RTVSPropertyOp34
 70
     1
102
RTVSPropertyOp35
 70
     1
102
RTVSPropertyOp36
 70
     1
102
RTVSPropertyOp37
 70
     1
102
RTVSPropertyOp38
 70
     1
102
RTVSPropertyOp39
 70
     1
102
RTVSPropertyOp40
 70
     1
102
RTVSPropertyOp41
 70
     1
102
RTVSPropertyOp42
 70
     1
102
RTVSPropertyOp43
 70
     1
102
RTVSPropertyOp44
 70
     1
102
RTVSPropertyOp45
 70
     1
102
RTVSPropertyOp46
 70
     1
102
RTVSPropertyOp47
 70
     1
102
RTVSPropertyOp48
 70
     1
102
RTVSPropertyOp49
 70
     1
102
RTVSPropertyOp50
 70
     1
102
RTVSPropertyOp51
 70
     0
102
RTVSPropertyOp52
 70
     0
102
RTVSPropertyOp53
 70
     1
102
RTVSPropertyOp54
 70
     1
102
RTVSPropertyOp55
 70
     1
102
RTVSPropertyOp56
 70
     1
102
RTVSPropertyOp57
 70
     1
102
RTVSPropertyOp58
 70
     1
102
RTVSPropertyOp59
 70
     1
102
RTVSPropertyOp60
 70
     1
102
RTVSPropertyOp61
 70
     1
102
RTVSPropertyOp62
 70
     1
  0
XRECORD
  5
17E4
102
{ACAD_REACTORS
330
17E3
102
}
330
17E3
100
AcDbXrecord
280
     1
102
RTVSPost2010Prop28
280
     0
102
RTVSPost2010PropOp28
 70
     1
102
RTVSPost2010Prop29
280
     1
102
RTVSPost2010PropOp29
 70
     1
102
RTVSPost2010Prop30
280
     1
102
RTVSPost2010PropOp30
 70
     1
102
RTVSPost2010Prop31
280
     0
102
RTVSPost2010PropOp31
 70
     1
102
RTVSPost2010Prop32
280
     0
102
RTVSPost2010PropOp32
 70
     1
102
RTVSPost2010Prop33
280
     0
102
RTVSPost2010PropOp33
 70
     1
102
RTVSPost2010Prop34
280
     0
102
RTVSPost2010PropOp34
 70
     1
102
RTVSPost2010Prop35
280
     0
102
RTVSPost2010PropOp35
 70
     1
102
RTVSPost2010Prop36
280
     0
102
RTVSPost2010PropOp36
 70
     1
102
RTVSPost2010Prop37
 90
       50
102
RTVSPost2010PropOp37
 70
     1
102
RTVSPost2010Prop38
140
0.0
102
RTVSPost2010PropOp38
 70
     1
102
RTVSPost2010Prop39
140
1.0
102
RTVSPost2010PropOp39
 70
     1
102
RTVSPost2010Prop40
 90
        0
102
RTVSPost2010PropOp40
 70
     1
102
RTVSPost2010Prop41ColorIndex
 90
       18
102
RTVSPost2010Prop41ColorRGB
 90
        0
102
RTVSPost2010PropOp41
 70
     1
102
RTVSPost2010Prop42
 90
       50
102
RTVSPost2010PropOp42
 70
     1
102
RTVSPost2010Prop43
 90
        3
102
RTVSPost2010PropOp43
 70
     1
102
RTVSPost2010Prop44ColorIndex
 90
        5
102
RTVSPost2010Prop44ColorRGB
 90
      255
102
RTVSPost2010PropOp44
 70
     1
102
RTVSPost2010Prop45
280
     0
102
RTVSPost2010PropOp45
 70
     1
102
RTVSPost2010Prop46
 90
       50
102
RTVSPost2010PropOp46
 70
     1
102
RTVSPost2010Prop47
 90
       50
102
RTVSPost2010PropOp47
 70
     1
102
RTVSPost2010Prop48
 90
       50
102
RTVSPost2010PropOp48
 70
     1
102
RTVSPost2010Prop49
280
     0
102
RTVSPost2010PropOp49
 70
     1
102
RTVSPost2010Prop50
 90
       50
102
RTVSPost2010PropOp50
 70
     1
102
RTVSPost2010Prop51ColorIndex
 90
      256
102
RTVSPost2010Prop51ColorRGB
 90
-16777216
102
RTVSPost2010PropOp51
 70
     0
102
RTVSPost2010Prop52
140
1.0
102
RTVSPost2010PropOp52
 70
     0
102
RTVSPost2010Prop53
 90
        2
102
RTVSPost2010PropOp53
 70
     1
102
RTVSPost2010Prop54
  1
strokes_ogs.tif
102
RTVSPost2010PropOp54
 70
     1
102
RTVSPost2010Prop55
280
     0
102
RTVSPost2010PropOp55
 70
     1
102
RTVSPost2010Prop56
140
1.0
102
RTVSPost2010PropOp56
 70
     1
102
RTVSPost2010Prop57
140
1.0
102
RTVSPost2010PropOp57
 70
     1
102
RTVSPropertyOp0
 70
     1
102
RTVSPropertyOp1
 70
     1
102
RTVSPropertyOp2
 70
     1
102
RTVSPropertyOp3
 70
     1
102
RTVSPropertyOp4
 70
     1
102
RTVSPropertyOp5
 70
     1
102
RTVSPropertyOp6
 70
     1
102
RTVSPropertyOp7
 70
     1
102
RTVSPropertyOp8
 70
     1
102
RTVSPropertyOp9
 70
     1
102
RTVSPropertyOp10
 70
     1
102
RTVSPropertyOp11
 70
     1
102
RTVSPropertyOp12
 70
     1
102
RTVSPropertyOp13
 70
     1
102
RTVSPropertyOp14
 70
     1
102
RTVSPropertyOp15
 70
     1
102
RTVSPropertyOp16
 70
     1
102
RTVSPropertyOp17
 70
     1
102
RTVSPropertyOp18
 70
     1
102
RTVSPropertyOp19
 70
     1
102
RTVSPropertyOp20
 70
     1
102
RTVSPropertyOp21
 70
     1
102
RTVSPropertyOp22
 70
     1
102
RTVSPropertyOp23
 70
     1
102
RTVSPropertyOp24
 70
     1
102
RTVSPropertyOp25
 70
     1
102
RTVSPropertyOp26
 70
     1
102
RTVSPropertyOp27
 70
     1
102
RTVSPropertyOp28
 70
     1
102
RTVSPropertyOp29
 70
     1
102
RTVSPropertyOp30
 70
     1
102
RTVSPropertyOp31
 70
     1
102
RTVSPropertyOp32
 70
     1
102
RTVSPropertyOp33
 70
     1
102
RTVSPropertyOp34
 70
     1
102
RTVSPropertyOp35
 70
     1
102
RTVSPropertyOp36
 70
     1
102
RTVSPropertyOp37
 70
     1
102
RTVSPropertyOp38
 70
     1
102
RTVSPropertyOp39
 70
     1
102
RTVSPropertyOp40
 70
     1
102
RTVSPropertyOp41
 70
     1
102
RTVSPropertyOp42
 70
     1
102
RTVSPropertyOp43
 70
     1
102
RTVSPropertyOp44
 70
     1
102
RTVSPropertyOp45
 70
     1
102
RTVSPropertyOp46
 70
     1
102
RTVSPropertyOp47
 70
     1
102
RTVSPropertyOp48
 70
     1
102
RTVSPropertyOp49
 70
     1
102
RTVSPropertyOp50
 70
     1
102
RTVSPropertyOp51
 70
     0
102
RTVSPropertyOp52
 70
     0
102
RTVSPropertyOp53
 70
     1
102
RTVSPropertyOp54
 70
     1
102
RTVSPropertyOp55
 70
     1
102
RTVSPropertyOp56
 70
     1
102
RTVSPropertyOp57
 70
     1
102
RTVSPropertyOp58
 70
     1
102
RTVSPropertyOp59
 70
     1
102
RTVSPropertyOp60
 70
     1
102
RTVSPropertyOp61
 70
     1
102
RTVSPropertyOp62
 70
     1
  0
XRECORD
  5
1802
102
{ACAD_REACTORS
330
1801
102
}
330
1801
100
AcDbXrecord
280
     1
102
RTVSPost2010Prop28
280
     0
102
RTVSPost2010PropOp28
 70
     1
102
RTVSPost2010Prop29
280
     1
102
RTVSPost2010PropOp29
 70
     1
102
RTVSPost2010Prop30
280
     1
102
RTVSPost2010PropOp30
 70
     1
102
RTVSPost2010Prop31
280
     0
102
RTVSPost2010PropOp31
 70
     1
102
RTVSPost2010Prop32
280
     0
102
RTVSPost2010PropOp32
 70
     1
102
RTVSPost2010Prop33
280
     0
102
RTVSPost2010PropOp33
 70
     1
102
RTVSPost2010Prop34
280
     0
102
RTVSPost2010PropOp34
 70
     1
102
RTVSPost2010Prop35
280
     0
102
RTVSPost2010PropOp35
 70
     1
102
RTVSPost2010Prop36
280
     0
102
RTVSPost2010PropOp36
 70
     1
102
RTVSPost2010Prop37
 90
       50
102
RTVSPost2010PropOp37
 70
     1
102
RTVSPost2010Prop38
140
0.0
102
RTVSPost2010PropOp38
 70
     1
102
RTVSPost2010Prop39
140
1.0
102
RTVSPost2010PropOp39
 70
     1
102
RTVSPost2010Prop40
 90
        0
102
RTVSPost2010PropOp40
 70
     1
102
RTVSPost2010Prop41ColorIndex
 90
       18
102
RTVSPost2010Prop41ColorRGB
 90
        0
102
RTVSPost2010PropOp41
 70
     1
102
RTVSPost2010Prop42
 90
       50
102
RTVSPost2010PropOp42
 70
     1
102
RTVSPost2010Prop43
 90
        3
102
RTVSPost2010PropOp43
 70
     1
102
RTVSPost2010Prop44ColorIndex
 90
        5
102
RTVSPost2010Prop44ColorRGB
 90
      255
102
RTVSPost2010PropOp44
 70
     1
102
RTVSPost2010Prop45
280
     0
102
RTVSPost2010PropOp45
 70
     1
102
RTVSPost2010Prop46
 90
       50
102
RTVSPost2010PropOp46
 70
     1
102
RTVSPost2010Prop47
 90
       50
102
RTVSPost2010PropOp47
 70
     1
102
RTVSPost2010Prop48
 90
       50
102
RTVSPost2010PropOp48
 70
     1
102
RTVSPost2010Prop49
280
     0
102
RTVSPost2010PropOp49
 70
     1
102
RTVSPost2010Prop50
 90
       50
102
RTVSPost2010PropOp50
 70
     1
102
RTVSPost2010Prop51ColorIndex
 90
      256
102
RTVSPost2010Prop51ColorRGB
 90
-16777216
102
RTVSPost2010PropOp51
 70
     0
102
RTVSPost2010Prop52
140
1.0
102
RTVSPost2010PropOp52
 70
     0
102
RTVSPost2010Prop53
 90
        2
102
RTVSPost2010PropOp53
 70
     1
102
RTVSPost2010Prop54
  1
strokes_ogs.tif
102
RTVSPost2010PropOp54
 70
     1
102
RTVSPost2010Prop55
280
     0
102
RTVSPost2010PropOp55
 70
     1
102
RTVSPost2010Prop56
140
1.0
102
RTVSPost2010PropOp56
 70
     1
102
RTVSPost2010Prop57
140
1.0
102
RTVSPost2010PropOp57
 70
     1
102
RTVSPropertyOp0
 70
     1
102
RTVSPropertyOp1
 70
     1
102
RTVSPropertyOp2
 70
     1
102
RTVSPropertyOp3
 70
     1
102
RTVSPropertyOp4
 70
     1
102
RTVSPropertyOp5
 70
     1
102
RTVSPropertyOp6
 70
     1
102
RTVSPropertyOp7
 70
     1
102
RTVSPropertyOp8
 70
     1
102
RTVSPropertyOp9
 70
     1
102
RTVSPropertyOp10
 70
     1
102
RTVSPropertyOp11
 70
     1
102
RTVSPropertyOp12
 70
     1
102
RTVSPropertyOp13
 70
     1
102
RTVSPropertyOp14
 70
     1
102
RTVSPropertyOp15
 70
     1
102
RTVSPropertyOp16
 70
     1
102
RTVSPropertyOp17
 70
     1
102
RTVSPropertyOp18
 70
     1
102
RTVSPropertyOp19
 70
     1
102
RTVSPropertyOp20
 70
     1
102
RTVSPropertyOp21
 70
     1
102
RTVSPropertyOp22
 70
     1
102
RTVSPropertyOp23
 70
     1
102
RTVSPropertyOp24
 70
     1
102
RTVSPropertyOp25
 70
     1
102
RTVSPropertyOp26
 70
     1
102
RTVSPropertyOp27
 70
     1
102
RTVSPropertyOp28
 70
     1
102
RTVSPropertyOp29
 70
     1
102
RTVSPropertyOp30
 70
     1
102
RTVSPropertyOp31
 70
     1
102
RTVSPropertyOp32
 70
     1
102
RTVSPropertyOp33
 70
     1
102
RTVSPropertyOp34
 70
     1
102
RTVSPropertyOp35
 70
     1
102
RTVSPropertyOp36
 70
     1
102
RTVSPropertyOp37
 70
     1
102
RTVSPropertyOp38
 70
     1
102
RTVSPropertyOp39
 70
     1
102
RTVSPropertyOp40
 70
     1
102
RTVSPropertyOp41
 70
     1
102
RTVSPropertyOp42
 70
     1
102
RTVSPropertyOp43
 70
     1
102
RTVSPropertyOp44
 70
     1
102
RTVSPropertyOp45
 70
     1
102
RTVSPropertyOp46
 70
     1
102
RTVSPropertyOp47
 70
     1
102
RTVSPropertyOp48
 70
     1
102
RTVSPropertyOp49
 70
     1
102
RTVSPropertyOp50
 70
     1
102
RTVSPropertyOp51
 70
     0
102
RTVSPropertyOp52
 70
     0
102
RTVSPropertyOp53
 70
     1
102
RTVSPropertyOp54
 70
     1
102
RTVSPropertyOp55
 70
     1
102
RTVSPropertyOp56
 70
     1
102
RTVSPropertyOp57
 70
     1
102
RTVSPropertyOp58
 70
     1
102
RTVSPropertyOp59
 70
     1
102
RTVSPropertyOp60
 70
     1
102
RTVSPropertyOp61
 70
     1
102
RTVSPropertyOp62
 70
     1
  0
XRECORD
  5
1800
102
{ACAD_REACTORS
330
17FF
102
}
330
17FF
100
AcDbXrecord
280
     1
102
RTVSPost2010Prop28
280
     0
102
RTVSPost2010PropOp28
 70
     1
102
RTVSPost2010Prop29
280
     1
102
RTVSPost2010PropOp29
 70
     1
102
RTVSPost2010Prop30
280
     1
102
RTVSPost2010PropOp30
 70
     1
102
RTVSPost2010Prop31
280
     0
102
RTVSPost2010PropOp31
 70
     1
102
RTVSPost2010Prop32
280
     0
102
RTVSPost2010PropOp32
 70
     1
102
RTVSPost2010Prop33
280
     0
102
RTVSPost2010PropOp33
 70
     1
102
RTVSPost2010Prop34
280
     0
102
RTVSPost2010PropOp34
 70
     1
102
RTVSPost2010Prop35
280
     0
102
RTVSPost2010PropOp35
 70
     1
102
RTVSPost2010Prop36
280
     0
102
RTVSPost2010PropOp36
 70
     1
102
RTVSPost2010Prop37
 90
       50
102
RTVSPost2010PropOp37
 70
     1
102
RTVSPost2010Prop38
140
0.0
102
RTVSPost2010PropOp38
 70
     1
102
RTVSPost2010Prop39
140
1.0
102
RTVSPost2010PropOp39
 70
     1
102
RTVSPost2010Prop40
 90
        0
102
RTVSPost2010PropOp40
 70
     1
102
RTVSPost2010Prop41ColorIndex
 90
       18
102
RTVSPost2010Prop41ColorRGB
 90
        0
102
RTVSPost2010PropOp41
 70
     1
102
RTVSPost2010Prop42
 90
       50
102
RTVSPost2010PropOp42
 70
     1
102
RTVSPost2010Prop43
 90
        3
102
RTVSPost2010PropOp43
 70
     1
102
RTVSPost2010Prop44ColorIndex
 90
        5
102
RTVSPost2010Prop44ColorRGB
 90
      255
102
RTVSPost2010PropOp44
 70
     1
102
RTVSPost2010Prop45
280
     0
102
RTVSPost2010PropOp45
 70
     1
102
RTVSPost2010Prop46
 90
       50
102
RTVSPost2010PropOp46
 70
     1
102
RTVSPost2010Prop47
 90
       50
102
RTVSPost2010PropOp47
 70
     1
102
RTVSPost2010Prop48
 90
       50
102
RTVSPost2010PropOp48
 70
     1
102
RTVSPost2010Prop49
280
     0
102
RTVSPost2010PropOp49
 70
     1
102
RTVSPost2010Prop50
 90
       50
102
RTVSPost2010PropOp50
 70
     1
102
RTVSPost2010Prop51ColorIndex
 90
      256
102
RTVSPost2010Prop51ColorRGB
 90
-16777216
102
RTVSPost2010PropOp51
 70
     0
102
RTVSPost2010Prop52
140
1.0
102
RTVSPost2010PropOp52
 70
     0
102
RTVSPost2010Prop53
 90
        2
102
RTVSPost2010PropOp53
 70
     1
102
RTVSPost2010Prop54
  1
strokes_ogs.tif
102
RTVSPost2010PropOp54
 70
     1
102
RTVSPost2010Prop55
280
     0
102
RTVSPost2010PropOp55
 70
     1
102
RTVSPost2010Prop56
140
1.0
102
RTVSPost2010PropOp56
 70
     1
102
RTVSPost2010Prop57
140
1.0
102
RTVSPost2010PropOp57
 70
     1
102
RTVSPropertyOp0
 70
     1
102
RTVSPropertyOp1
 70
     1
102
RTVSPropertyOp2
 70
     1
102
RTVSPropertyOp3
 70
     1
102
RTVSPropertyOp4
 70
     1
102
RTVSPropertyOp5
 70
     1
102
RTVSPropertyOp6
 70
     1
102
RTVSPropertyOp7
 70
     1
102
RTVSPropertyOp8
 70
     1
102
RTVSPropertyOp9
 70
     1
102
RTVSPropertyOp10
 70
     1
102
RTVSPropertyOp11
 70
     1
102
RTVSPropertyOp12
 70
     1
102
RTVSPropertyOp13
 70
     1
102
RTVSPropertyOp14
 70
     1
102
RTVSPropertyOp15
 70
     1
102
RTVSPropertyOp16
 70
     1
102
RTVSPropertyOp17
 70
     1
102
RTVSPropertyOp18
 70
     1
102
RTVSPropertyOp19
 70
     1
102
RTVSPropertyOp20
 70
     1
102
RTVSPropertyOp21
 70
     1
102
RTVSPropertyOp22
 70
     1
102
RTVSPropertyOp23
 70
     1
102
RTVSPropertyOp24
 70
     1
102
RTVSPropertyOp25
 70
     1
102
RTVSPropertyOp26
 70
     1
102
RTVSPropertyOp27
 70
     1
102
RTVSPropertyOp28
 70
     1
102
RTVSPropertyOp29
 70
     1
102
RTVSPropertyOp30
 70
     1
102
RTVSPropertyOp31
 70
     1
102
RTVSPropertyOp32
 70
     1
102
RTVSPropertyOp33
 70
     1
102
RTVSPropertyOp34
 70
     1
102
RTVSPropertyOp35
 70
     1
102
RTVSPropertyOp36
 70
     1
102
RTVSPropertyOp37
 70
     1
102
RTVSPropertyOp38
 70
     1
102
RTVSPropertyOp39
 70
     1
102
RTVSPropertyOp40
 70
     1
102
RTVSPropertyOp41
 70
     1
102
RTVSPropertyOp42
 70
     1
102
RTVSPropertyOp43
 70
     1
102
RTVSPropertyOp44
 70
     1
102
RTVSPropertyOp45
 70
     1
102
RTVSPropertyOp46
 70
     1
102
RTVSPropertyOp47
 70
     1
102
RTVSPropertyOp48
 70
     1
102
RTVSPropertyOp49
 70
     1
102
RTVSPropertyOp50
 70
     1
102
RTVSPropertyOp51
 70
     0
102
RTVSPropertyOp52
 70
     0
102
RTVSPropertyOp53
 70
     1
102
RTVSPropertyOp54
 70
     1
102
RTVSPropertyOp55
 70
     1
102
RTVSPropertyOp56
 70
     1
102
RTVSPropertyOp57
 70
     1
102
RTVSPropertyOp58
 70
     1
102
RTVSPropertyOp59
 70
     1
102
RTVSPropertyOp60
 70
     1
102
RTVSPropertyOp61
 70
     1
102
RTVSPropertyOp62
 70
     1
  0
XRECORD
  5
17FA
102
{ACAD_REACTORS
330
17F9
102
}
330
17F9
100
AcDbXrecord
280
     1
102
RTVSPost2010Prop28
280
     0
102
RTVSPost2010PropOp28
 70
     1
102
RTVSPost2010Prop29
280
     1
102
RTVSPost2010PropOp29
 70
     1
102
RTVSPost2010Prop30
280
     1
102
RTVSPost2010PropOp30
 70
     1
102
RTVSPost2010Prop31
280
     0
102
RTVSPost2010PropOp31
 70
     1
102
RTVSPost2010Prop32
280
     0
102
RTVSPost2010PropOp32
 70
     1
102
RTVSPost2010Prop33
280
     0
102
RTVSPost2010PropOp33
 70
     1
102
RTVSPost2010Prop34
280
     0
102
RTVSPost2010PropOp34
 70
     1
102
RTVSPost2010Prop35
280
     0
102
RTVSPost2010PropOp35
 70
     1
102
RTVSPost2010Prop36
280
     0
102
RTVSPost2010PropOp36
 70
     1
102
RTVSPost2010Prop37
 90
       50
102
RTVSPost2010PropOp37
 70
     1
102
RTVSPost2010Prop38
140
0.0
102
RTVSPost2010PropOp38
 70
     1
102
RTVSPost2010Prop39
140
1.0
102
RTVSPost2010PropOp39
 70
     1
102
RTVSPost2010Prop40
 90
        0
102
RTVSPost2010PropOp40
 70
     1
102
RTVSPost2010Prop41ColorIndex
 90
       18
102
RTVSPost2010Prop41ColorRGB
 90
        0
102
RTVSPost2010PropOp41
 70
     1
102
RTVSPost2010Prop42
 90
       50
102
RTVSPost2010PropOp42
 70
     1
102
RTVSPost2010Prop43
 90
        3
102
RTVSPost2010PropOp43
 70
     1
102
RTVSPost2010Prop44ColorIndex
 90
        5
102
RTVSPost2010Prop44ColorRGB
 90
      255
102
RTVSPost2010PropOp44
 70
     1
102
RTVSPost2010Prop45
280
     0
102
RTVSPost2010PropOp45
 70
     1
102
RTVSPost2010Prop46
 90
       50
102
RTVSPost2010PropOp46
 70
     1
102
RTVSPost2010Prop47
 90
       50
102
RTVSPost2010PropOp47
 70
     1
102
RTVSPost2010Prop48
 90
       50
102
RTVSPost2010PropOp48
 70
     1
102
RTVSPost2010Prop49
280
     0
102
RTVSPost2010PropOp49
 70
     1
102
RTVSPost2010Prop50
 90
       50
102
RTVSPost2010PropOp50
 70
     1
102
RTVSPost2010Prop51ColorIndex
 90
      256
102
RTVSPost2010Prop51ColorRGB
 90
-16777216
102
RTVSPost2010PropOp51
 70
     0
102
RTVSPost2010Prop52
140
1.0
102
RTVSPost2010PropOp52
 70
     0
102
RTVSPost2010Prop53
 90
        2
102
RTVSPost2010PropOp53
 70
     1
102
RTVSPost2010Prop54
  1
strokes_ogs.tif
102
RTVSPost2010PropOp54
 70
     1
102
RTVSPost2010Prop55
280
     0
102
RTVSPost2010PropOp55
 70
     1
102
RTVSPost2010Prop56
140
1.0
102
RTVSPost2010PropOp56
 70
     1
102
RTVSPost2010Prop57
140
1.0
102
RTVSPost2010PropOp57
 70
     1
102
RTVSPropertyOp0
 70
     1
102
RTVSPropertyOp1
 70
     1
102
RTVSPropertyOp2
 70
     1
102
RTVSPropertyOp3
 70
     1
102
RTVSPropertyOp4
 70
     1
102
RTVSPropertyOp5
 70
     1
102
RTVSPropertyOp6
 70
     1
102
RTVSPropertyOp7
 70
     1
102
RTVSPropertyOp8
 70
     1
102
RTVSPropertyOp9
 70
     1
102
RTVSPropertyOp10
 70
     1
102
RTVSPropertyOp11
 70
     1
102
RTVSPropertyOp12
 70
     1
102
RTVSPropertyOp13
 70
     1
102
RTVSPropertyOp14
 70
     1
102
RTVSPropertyOp15
 70
     1
102
RTVSPropertyOp16
 70
     1
102
RTVSPropertyOp17
 70
     1
102
RTVSPropertyOp18
 70
     1
102
RTVSPropertyOp19
 70
     1
102
RTVSPropertyOp20
 70
     1
102
RTVSPropertyOp21
 70
     1
102
RTVSPropertyOp22
 70
     1
102
RTVSPropertyOp23
 70
     1
102
RTVSPropertyOp24
 70
     1
102
RTVSPropertyOp25
 70
     1
102
RTVSPropertyOp26
 70
     1
102
RTVSPropertyOp27
 70
     1
102
RTVSPropertyOp28
 70
     1
102
RTVSPropertyOp29
 70
     1
102
RTVSPropertyOp30
 70
     1
102
RTVSPropertyOp31
 70
     1
102
RTVSPropertyOp32
 70
     1
102
RTVSPropertyOp33
 70
     1
102
RTVSPropertyOp34
 70
     1
102
RTVSPropertyOp35
 70
     1
102
RTVSPropertyOp36
 70
     1
102
RTVSPropertyOp37
 70
     1
102
RTVSPropertyOp38
 70
     1
102
RTVSPropertyOp39
 70
     1
102
RTVSPropertyOp40
 70
     1
102
RTVSPropertyOp41
 70
     1
102
RTVSPropertyOp42
 70
     1
102
RTVSPropertyOp43
 70
     1
102
RTVSPropertyOp44
 70
     1
102
RTVSPropertyOp45
 70
     1
102
RTVSPropertyOp46
 70
     1
102
RTVSPropertyOp47
 70
     1
102
RTVSPropertyOp48
 70
     1
102
RTVSPropertyOp49
 70
     1
102
RTVSPropertyOp50
 70
     1
102
RTVSPropertyOp51
 70
     0
102
RTVSPropertyOp52
 70
     0
102
RTVSPropertyOp53
 70
     1
102
RTVSPropertyOp54
 70
     1
102
RTVSPropertyOp55
 70
     1
102
RTVSPropertyOp56
 70
     1
102
RTVSPropertyOp57
 70
     1
102
RTVSPropertyOp58
 70
     1
102
RTVSPropertyOp59
 70
     1
102
RTVSPropertyOp60
 70
     1
102
RTVSPropertyOp61
 70
     1
102
RTVSPropertyOp62
 70
     1
  0
XRECORD
  5
17FC
102
{ACAD_REACTORS
330
17FB
102
}
330
17FB
100
AcDbXrecord
280
     1
102
RTVSPost2010Prop28
280
     0
102
RTVSPost2010PropOp28
 70
     1
102
RTVSPost2010Prop29
280
     1
102
RTVSPost2010PropOp29
 70
     1
102
RTVSPost2010Prop30
280
     1
102
RTVSPost2010PropOp30
 70
     1
102
RTVSPost2010Prop31
280
     0
102
RTVSPost2010PropOp31
 70
     1
102
RTVSPost2010Prop32
280
     0
102
RTVSPost2010PropOp32
 70
     1
102
RTVSPost2010Prop33
280
     0
102
RTVSPost2010PropOp33
 70
     1
102
RTVSPost2010Prop34
280
     0
102
RTVSPost2010PropOp34
 70
     1
102
RTVSPost2010Prop35
280
     0
102
RTVSPost2010PropOp35
 70
     1
102
RTVSPost2010Prop36
280
     0
102
RTVSPost2010PropOp36
 70
     1
102
RTVSPost2010Prop37
 90
       50
102
RTVSPost2010PropOp37
 70
     1
102
RTVSPost2010Prop38
140
0.0
102
RTVSPost2010PropOp38
 70
     1
102
RTVSPost2010Prop39
140
1.0
102
RTVSPost2010PropOp39
 70
     1
102
RTVSPost2010Prop40
 90
        0
102
RTVSPost2010PropOp40
 70
     1
102
RTVSPost2010Prop41ColorIndex
 90
       18
102
RTVSPost2010Prop41ColorRGB
 90
        0
102
RTVSPost2010PropOp41
 70
     1
102
RTVSPost2010Prop42
 90
       50
102
RTVSPost2010PropOp42
 70
     1
102
RTVSPost2010Prop43
 90
        3
102
RTVSPost2010PropOp43
 70
     1
102
RTVSPost2010Prop44ColorIndex
 90
        5
102
RTVSPost2010Prop44ColorRGB
 90
      255
102
RTVSPost2010PropOp44
 70
     1
102
RTVSPost2010Prop45
280
     0
102
RTVSPost2010PropOp45
 70
     1
102
RTVSPost2010Prop46
 90
       50
102
RTVSPost2010PropOp46
 70
     1
102
RTVSPost2010Prop47
 90
       50
102
RTVSPost2010PropOp47
 70
     1
102
RTVSPost2010Prop48
 90
       50
102
RTVSPost2010PropOp48
 70
     1
102
RTVSPost2010Prop49
280
     0
102
RTVSPost2010PropOp49
 70
     1
102
RTVSPost2010Prop50
 90
       50
102
RTVSPost2010PropOp50
 70
     1
102
RTVSPost2010Prop51ColorIndex
 90
      256
102
RTVSPost2010Prop51ColorRGB
 90
-16777216
102
RTVSPost2010PropOp51
 70
     0
102
RTVSPost2010Prop52
140
1.0
102
RTVSPost2010PropOp52
 70
     0
102
RTVSPost2010Prop53
 90
        2
102
RTVSPost2010PropOp53
 70
     1
102
RTVSPost2010Prop54
  1
strokes_ogs.tif
102
RTVSPost2010PropOp54
 70
     1
102
RTVSPost2010Prop55
280
     0
102
RTVSPost2010PropOp55
 70
     1
102
RTVSPost2010Prop56
140
1.0
102
RTVSPost2010PropOp56
 70
     1
102
RTVSPost2010Prop57
140
1.0
102
RTVSPost2010PropOp57
 70
     1
102
RTVSPropertyOp0
 70
     1
102
RTVSPropertyOp1
 70
     1
102
RTVSPropertyOp2
 70
     1
102
RTVSPropertyOp3
 70
     1
102
RTVSPropertyOp4
 70
     1
102
RTVSPropertyOp5
 70
     1
102
RTVSPropertyOp6
 70
     1
102
RTVSPropertyOp7
 70
     1
102
RTVSPropertyOp8
 70
     1
102
RTVSPropertyOp9
 70
     1
102
RTVSPropertyOp10
 70
     1
102
RTVSPropertyOp11
 70
     1
102
RTVSPropertyOp12
 70
     1
102
RTVSPropertyOp13
 70
     1
102
RTVSPropertyOp14
 70
     1
102
RTVSPropertyOp15
 70
     1
102
RTVSPropertyOp16
 70
     1
102
RTVSPropertyOp17
 70
     1
102
RTVSPropertyOp18
 70
     1
102
RTVSPropertyOp19
 70
     1
102
RTVSPropertyOp20
 70
     1
102
RTVSPropertyOp21
 70
     1
102
RTVSPropertyOp22
 70
     1
102
RTVSPropertyOp23
 70
     1
102
RTVSPropertyOp24
 70
     1
102
RTVSPropertyOp25
 70
     1
102
RTVSPropertyOp26
 70
     1
102
RTVSPropertyOp27
 70
     1
102
RTVSPropertyOp28
 70
     1
102
RTVSPropertyOp29
 70
     1
102
RTVSPropertyOp30
 70
     1
102
RTVSPropertyOp31
 70
     1
102
RTVSPropertyOp32
 70
     1
102
RTVSPropertyOp33
 70
     1
102
RTVSPropertyOp34
 70
     1
102
RTVSPropertyOp35
 70
     1
102
RTVSPropertyOp36
 70
     1
102
RTVSPropertyOp37
 70
     1
102
RTVSPropertyOp38
 70
     1
102
RTVSPropertyOp39
 70
     1
102
RTVSPropertyOp40
 70
     1
102
RTVSPropertyOp41
 70
     1
102
RTVSPropertyOp42
 70
     1
102
RTVSPropertyOp43
 70
     1
102
RTVSPropertyOp44
 70
     1
102
RTVSPropertyOp45
 70
     1
102
RTVSPropertyOp46
 70
     1
102
RTVSPropertyOp47
 70
     1
102
RTVSPropertyOp48
 70
     1
102
RTVSPropertyOp49
 70
     1
102
RTVSPropertyOp50
 70
     1
102
RTVSPropertyOp51
 70
     0
102
RTVSPropertyOp52
 70
     0
102
RTVSPropertyOp53
 70
     1
102
RTVSPropertyOp54
 70
     1
102
RTVSPropertyOp55
 70
     1
102
RTVSPropertyOp56
 70
     1
102
RTVSPropertyOp57
 70
     1
102
RTVSPropertyOp58
 70
     1
102
RTVSPropertyOp59
 70
     1
102
RTVSPropertyOp60
 70
     1
102
RTVSPropertyOp61
 70
     1
102
RTVSPropertyOp62
 70
     1
  0
XRECORD
  5
17EA
102
{ACAD_REACTORS
330
17E9
102
}
330
17E9
100
AcDbXrecord
280
     1
102
RTVSPost2010Prop28
280
     0
102
RTVSPost2010PropOp28
 70
     1
102
RTVSPost2010Prop29
280
     1
102
RTVSPost2010PropOp29
 70
     1
102
RTVSPost2010Prop30
280
     1
102
RTVSPost2010PropOp30
 70
     1
102
RTVSPost2010Prop31
280
     0
102
RTVSPost2010PropOp31
 70
     1
102
RTVSPost2010Prop32
280
     0
102
RTVSPost2010PropOp32
 70
     1
102
RTVSPost2010Prop33
280
     0
102
RTVSPost2010PropOp33
 70
     1
102
RTVSPost2010Prop34
280
     0
102
RTVSPost2010PropOp34
 70
     1
102
RTVSPost2010Prop35
280
     0
102
RTVSPost2010PropOp35
 70
     1
102
RTVSPost2010Prop36
280
     0
102
RTVSPost2010PropOp36
 70
     1
102
RTVSPost2010Prop37
 90
       50
102
RTVSPost2010PropOp37
 70
     1
102
RTVSPost2010Prop38
140
0.0
102
RTVSPost2010PropOp38
 70
     1
102
RTVSPost2010Prop39
140
1.0
102
RTVSPost2010PropOp39
 70
     1
102
RTVSPost2010Prop40
 90
        0
102
RTVSPost2010PropOp40
 70
     1
102
RTVSPost2010Prop41ColorIndex
 90
       18
102
RTVSPost2010Prop41ColorRGB
 90
        0
102
RTVSPost2010PropOp41
 70
     1
102
RTVSPost2010Prop42
 90
       50
102
RTVSPost2010PropOp42
 70
     1
102
RTVSPost2010Prop43
 90
        3
102
RTVSPost2010PropOp43
 70
     1
102
RTVSPost2010Prop44ColorIndex
 90
        5
102
RTVSPost2010Prop44ColorRGB
 90
      255
102
RTVSPost2010PropOp44
 70
     1
102
RTVSPost2010Prop45
280
     0
102
RTVSPost2010PropOp45
 70
     1
102
RTVSPost2010Prop46
 90
       50
102
RTVSPost2010PropOp46
 70
     1
102
RTVSPost2010Prop47
 90
       50
102
RTVSPost2010PropOp47
 70
     1
102
RTVSPost2010Prop48
 90
       50
102
RTVSPost2010PropOp48
 70
     1
102
RTVSPost2010Prop49
280
     0
102
RTVSPost2010PropOp49
 70
     1
102
RTVSPost2010Prop50
 90
       50
102
RTVSPost2010PropOp50
 70
     1
102
RTVSPost2010Prop51ColorIndex
 90
      256
102
RTVSPost2010Prop51ColorRGB
 90
-16777216
102
RTVSPost2010PropOp51
 70
     0
102
RTVSPost2010Prop52
140
1.0
102
RTVSPost2010PropOp52
 70
     0
102
RTVSPost2010Prop53
 90
        2
102
RTVSPost2010PropOp53
 70
     1
102
RTVSPost2010Prop54
  1
strokes_ogs.tif
102
RTVSPost2010PropOp54
 70
     1
102
RTVSPost2010Prop55
280
     0
102
RTVSPost2010PropOp55
 70
     1
102
RTVSPost2010Prop56
140
1.0
102
RTVSPost2010PropOp56
 70
     1
102
RTVSPost2010Prop57
140
1.0
102
RTVSPost2010PropOp57
 70
     1
102
RTVSPropertyOp0
 70
     1
102
RTVSPropertyOp1
 70
     1
102
RTVSPropertyOp2
 70
     1
102
RTVSPropertyOp3
 70
     1
102
RTVSPropertyOp4
 70
     1
102
RTVSPropertyOp5
 70
     1
102
RTVSPropertyOp6
 70
     1
102
RTVSPropertyOp7
 70
     1
102
RTVSPropertyOp8
 70
     1
102
RTVSPropertyOp9
 70
     1
102
RTVSPropertyOp10
 70
     1
102
RTVSPropertyOp11
 70
     1
102
RTVSPropertyOp12
 70
     1
102
RTVSPropertyOp13
 70
     1
102
RTVSPropertyOp14
 70
     1
102
RTVSPropertyOp15
 70
     1
102
RTVSPropertyOp16
 70
     1
102
RTVSPropertyOp17
 70
     1
102
RTVSPropertyOp18
 70
     1
102
RTVSPropertyOp19
 70
     1
102
RTVSPropertyOp20
 70
     1
102
RTVSPropertyOp21
 70
     1
102
RTVSPropertyOp22
 70
     1
102
RTVSPropertyOp23
 70
     1
102
RTVSPropertyOp24
 70
     1
102
RTVSPropertyOp25
 70
     1
102
RTVSPropertyOp26
 70
     1
102
RTVSPropertyOp27
 70
     1
102
RTVSPropertyOp28
 70
     1
102
RTVSPropertyOp29
 70
     1
102
RTVSPropertyOp30
 70
     1
102
RTVSPropertyOp31
 70
     1
102
RTVSPropertyOp32
 70
     1
102
RTVSPropertyOp33
 70
     1
102
RTVSPropertyOp34
 70
     1
102
RTVSPropertyOp35
 70
     1
102
RTVSPropertyOp36
 70
     1
102
RTVSPropertyOp37
 70
     1
102
RTVSPropertyOp38
 70
     1
102
RTVSPropertyOp39
 70
     1
102
RTVSPropertyOp40
 70
     1
102
RTVSPropertyOp41
 70
     1
102
RTVSPropertyOp42
 70
     1
102
RTVSPropertyOp43
 70
     1
102
RTVSPropertyOp44
 70
     1
102
RTVSPropertyOp45
 70
     1
102
RTVSPropertyOp46
 70
     1
102
RTVSPropertyOp47
 70
     1
102
RTVSPropertyOp48
 70
     1
102
RTVSPropertyOp49
 70
     1
102
RTVSPropertyOp50
 70
     1
102
RTVSPropertyOp51
 70
     0
102
RTVSPropertyOp52
 70
     0
102
RTVSPropertyOp53
 70
     1
102
RTVSPropertyOp54
 70
     1
102
RTVSPropertyOp55
 70
     1
102
RTVSPropertyOp56
 70
     1
102
RTVSPropertyOp57
 70
     1
102
RTVSPropertyOp58
 70
     1
102
RTVSPropertyOp59
 70
     1
102
RTVSPropertyOp60
 70
     1
102
RTVSPropertyOp61
 70
     1
102
RTVSPropertyOp62
 70
     1
  0
XRECORD
  5
17DE
102
{ACAD_REACTORS
330
17DD
102
}
330
17DD
100
AcDbXrecord
280
     1
102
RTVSPost2010Prop28
280
     0
102
RTVSPost2010PropOp28
 70
     1
102
RTVSPost2010Prop29
280
     1
102
RTVSPost2010PropOp29
 70
     1
102
RTVSPost2010Prop30
280
     1
102
RTVSPost2010PropOp30
 70
     1
102
RTVSPost2010Prop31
280
     0
102
RTVSPost2010PropOp31
 70
     1
102
RTVSPost2010Prop32
280
     0
102
RTVSPost2010PropOp32
 70
     1
102
RTVSPost2010Prop33
280
     0
102
RTVSPost2010PropOp33
 70
     1
102
RTVSPost2010Prop34
280
     0
102
RTVSPost2010PropOp34
 70
     1
102
RTVSPost2010Prop35
280
     0
102
RTVSPost2010PropOp35
 70
     1
102
RTVSPost2010Prop36
280
     0
102
RTVSPost2010PropOp36
 70
     1
102
RTVSPost2010Prop37
 90
       50
102
RTVSPost2010PropOp37
 70
     1
102
RTVSPost2010Prop38
140
0.0
102
RTVSPost2010PropOp38
 70
     1
102
RTVSPost2010Prop39
140
1.0
102
RTVSPost2010PropOp39
 70
     1
102
RTVSPost2010Prop40
 90
        0
102
RTVSPost2010PropOp40
 70
     1
102
RTVSPost2010Prop41ColorIndex
 90
       18
102
RTVSPost2010Prop41ColorRGB
 90
        0
102
RTVSPost2010PropOp41
 70
     1
102
RTVSPost2010Prop42
 90
       50
102
RTVSPost2010PropOp42
 70
     1
102
RTVSPost2010Prop43
 90
        3
102
RTVSPost2010PropOp43
 70
     1
102
RTVSPost2010Prop44ColorIndex
 90
        5
102
RTVSPost2010Prop44ColorRGB
 90
      255
102
RTVSPost2010PropOp44
 70
     1
102
RTVSPost2010Prop45
280
     0
102
RTVSPost2010PropOp45
 70
     1
102
RTVSPost2010Prop46
 90
       50
102
RTVSPost2010PropOp46
 70
     1
102
RTVSPost2010Prop47
 90
       50
102
RTVSPost2010PropOp47
 70
     1
102
RTVSPost2010Prop48
 90
       50
102
RTVSPost2010PropOp48
 70
     1
102
RTVSPost2010Prop49
280
     0
102
RTVSPost2010PropOp49
 70
     1
102
RTVSPost2010Prop50
 90
       50
102
RTVSPost2010PropOp50
 70
     1
102
RTVSPost2010Prop51ColorIndex
 90
      256
102
RTVSPost2010Prop51ColorRGB
 90
-16777216
102
RTVSPost2010PropOp51
 70
     0
102
RTVSPost2010Prop52
140
1.0
102
RTVSPost2010PropOp52
 70
     0
102
RTVSPost2010Prop53
 90
        2
102
RTVSPost2010PropOp53
 70
     1
102
RTVSPost2010Prop54
  1
strokes_ogs.tif
102
RTVSPost2010PropOp54
 70
     1
102
RTVSPost2010Prop55
280
     0
102
RTVSPost2010PropOp55
 70
     1
102
RTVSPost2010Prop56
140
1.0
102
RTVSPost2010PropOp56
 70
     1
102
RTVSPost2010Prop57
140
1.0
102
RTVSPost2010PropOp57
 70
     1
102
RTVSPropertyOp0
 70
     1
102
RTVSPropertyOp1
 70
     1
102
RTVSPropertyOp2
 70
     1
102
RTVSPropertyOp3
 70
     1
102
RTVSPropertyOp4
 70
     1
102
RTVSPropertyOp5
 70
     1
102
RTVSPropertyOp6
 70
     1
102
RTVSPropertyOp7
 70
     1
102
RTVSPropertyOp8
 70
     1
102
RTVSPropertyOp9
 70
     1
102
RTVSPropertyOp10
 70
     1
102
RTVSPropertyOp11
 70
     1
102
RTVSPropertyOp12
 70
     1
102
RTVSPropertyOp13
 70
     1
102
RTVSPropertyOp14
 70
     1
102
RTVSPropertyOp15
 70
     1
102
RTVSPropertyOp16
 70
     1
102
RTVSPropertyOp17
 70
     1
102
RTVSPropertyOp18
 70
     1
102
RTVSPropertyOp19
 70
     1
102
RTVSPropertyOp20
 70
     1
102
RTVSPropertyOp21
 70
     1
102
RTVSPropertyOp22
 70
     1
102
RTVSPropertyOp23
 70
     1
102
RTVSPropertyOp24
 70
     1
102
RTVSPropertyOp25
 70
     1
102
RTVSPropertyOp26
 70
     1
102
RTVSPropertyOp27
 70
     1
102
RTVSPropertyOp28
 70
     1
102
RTVSPropertyOp29
 70
     1
102
RTVSPropertyOp30
 70
     1
102
RTVSPropertyOp31
 70
     1
102
RTVSPropertyOp32
 70
     1
102
RTVSPropertyOp33
 70
     1
102
RTVSPropertyOp34
 70
     1
102
RTVSPropertyOp35
 70
     1
102
RTVSPropertyOp36
 70
     1
102
RTVSPropertyOp37
 70
     1
102
RTVSPropertyOp38
 70
     1
102
RTVSPropertyOp39
 70
     1
102
RTVSPropertyOp40
 70
     1
102
RTVSPropertyOp41
 70
     1
102
RTVSPropertyOp42
 70
     1
102
RTVSPropertyOp43
 70
     1
102
RTVSPropertyOp44
 70
     1
102
RTVSPropertyOp45
 70
     1
102
RTVSPropertyOp46
 70
     1
102
RTVSPropertyOp47
 70
     1
102
RTVSPropertyOp48
 70
     1
102
RTVSPropertyOp49
 70
     1
102
RTVSPropertyOp50
 70
     1
102
RTVSPropertyOp51
 70
     0
102
RTVSPropertyOp52
 70
     0
102
RTVSPropertyOp53
 70
     1
102
RTVSPropertyOp54
 70
     1
102
RTVSPropertyOp55
 70
     1
102
RTVSPropertyOp56
 70
     1
102
RTVSPropertyOp57
 70
     1
102
RTVSPropertyOp58
 70
     1
102
RTVSPropertyOp59
 70
     1
102
RTVSPropertyOp60
 70
     1
102
RTVSPropertyOp61
 70
     1
102
RTVSPropertyOp62
 70
     1
  0
XRECORD
  5
17FE
102
{ACAD_REACTORS
330
17FD
102
}
330
17FD
100
AcDbXrecord
280
     1
102
RTVSPost2010Prop28
280
     0
102
RTVSPost2010PropOp28
 70
     1
102
RTVSPost2010Prop29
280
     1
102
RTVSPost2010PropOp29
 70
     1
102
RTVSPost2010Prop30
280
     1
102
RTVSPost2010PropOp30
 70
     1
102
RTVSPost2010Prop31
280
     0
102
RTVSPost2010PropOp31
 70
     1
102
RTVSPost2010Prop32
280
     0
102
RTVSPost2010PropOp32
 70
     1
102
RTVSPost2010Prop33
280
     0
102
RTVSPost2010PropOp33
 70
     1
102
RTVSPost2010Prop34
280
     0
102
RTVSPost2010PropOp34
 70
     1
102
RTVSPost2010Prop35
280
     0
102
RTVSPost2010PropOp35
 70
     1
102
RTVSPost2010Prop36
280
     0
102
RTVSPost2010PropOp36
 70
     1
102
RTVSPost2010Prop37
 90
       50
102
RTVSPost2010PropOp37
 70
     1
102
RTVSPost2010Prop38
140
0.0
102
RTVSPost2010PropOp38
 70
     1
102
RTVSPost2010Prop39
140
1.0
102
RTVSPost2010PropOp39
 70
     1
102
RTVSPost2010Prop40
 90
        0
102
RTVSPost2010PropOp40
 70
     1
102
RTVSPost2010Prop41ColorIndex
 90
       18
102
RTVSPost2010Prop41ColorRGB
 90
        0
102
RTVSPost2010PropOp41
 70
     1
102
RTVSPost2010Prop42
 90
       50
102
RTVSPost2010PropOp42
 70
     1
102
RTVSPost2010Prop43
 90
        3
102
RTVSPost2010PropOp43
 70
     1
102
RTVSPost2010Prop44ColorIndex
 90
        5
102
RTVSPost2010Prop44ColorRGB
 90
      255
102
RTVSPost2010PropOp44
 70
     1
102
RTVSPost2010Prop45
280
     0
102
RTVSPost2010PropOp45
 70
     1
102
RTVSPost2010Prop46
 90
       50
102
RTVSPost2010PropOp46
 70
     1
102
RTVSPost2010Prop47
 90
       50
102
RTVSPost2010PropOp47
 70
     1
102
RTVSPost2010Prop48
 90
       50
102
RTVSPost2010PropOp48
 70
     1
102
RTVSPost2010Prop49
280
     0
102
RTVSPost2010PropOp49
 70
     1
102
RTVSPost2010Prop50
 90
       50
102
RTVSPost2010PropOp50
 70
     1
102
RTVSPost2010Prop51ColorIndex
 90
      256
102
RTVSPost2010Prop51ColorRGB
 90
-16777216
102
RTVSPost2010PropOp51
 70
     0
102
RTVSPost2010Prop52
140
1.0
102
RTVSPost2010PropOp52
 70
     0
102
RTVSPost2010Prop53
 90
        2
102
RTVSPost2010PropOp53
 70
     1
102
RTVSPost2010Prop54
  1
strokes_ogs.tif
102
RTVSPost2010PropOp54
 70
     1
102
RTVSPost2010Prop55
280
     0
102
RTVSPost2010PropOp55
 70
     1
102
RTVSPost2010Prop56
140
1.0
102
RTVSPost2010PropOp56
 70
     1
102
RTVSPost2010Prop57
140
1.0
102
RTVSPost2010PropOp57
 70
     1
102
RTVSPropertyOp0
 70
     1
102
RTVSPropertyOp1
 70
     1
102
RTVSPropertyOp2
 70
     1
102
RTVSPropertyOp3
 70
     1
102
RTVSPropertyOp4
 70
     1
102
RTVSPropertyOp5
 70
     1
102
RTVSPropertyOp6
 70
     1
102
RTVSPropertyOp7
 70
     1
102
RTVSPropertyOp8
 70
     1
102
RTVSPropertyOp9
 70
     1
102
RTVSPropertyOp10
 70
     1
102
RTVSPropertyOp11
 70
     1
102
RTVSPropertyOp12
 70
     1
102
RTVSPropertyOp13
 70
     1
102
RTVSPropertyOp14
 70
     1
102
RTVSPropertyOp15
 70
     1
102
RTVSPropertyOp16
 70
     1
102
RTVSPropertyOp17
 70
     1
102
RTVSPropertyOp18
 70
     1
102
RTVSPropertyOp19
 70
     1
102
RTVSPropertyOp20
 70
     1
102
RTVSPropertyOp21
 70
     1
102
RTVSPropertyOp22
 70
     1
102
RTVSPropertyOp23
 70
     1
102
RTVSPropertyOp24
 70
     1
102
RTVSPropertyOp25
 70
     1
102
RTVSPropertyOp26
 70
     1
102
RTVSPropertyOp27
 70
     1
102
RTVSPropertyOp28
 70
     1
102
RTVSPropertyOp29
 70
     1
102
RTVSPropertyOp30
 70
     1
102
RTVSPropertyOp31
 70
     1
102
RTVSPropertyOp32
 70
     1
102
RTVSPropertyOp33
 70
     1
102
RTVSPropertyOp34
 70
     1
102
RTVSPropertyOp35
 70
     1
102
RTVSPropertyOp36
 70
     1
102
RTVSPropertyOp37
 70
     1
102
RTVSPropertyOp38
 70
     1
102
RTVSPropertyOp39
 70
     1
102
RTVSPropertyOp40
 70
     1
102
RTVSPropertyOp41
 70
     1
102
RTVSPropertyOp42
 70
     1
102
RTVSPropertyOp43
 70
     1
102
RTVSPropertyOp44
 70
     1
102
RTVSPropertyOp45
 70
     1
102
RTVSPropertyOp46
 70
     1
102
RTVSPropertyOp47
 70
     1
102
RTVSPropertyOp48
 70
     1
102
RTVSPropertyOp49
 70
     1
102
RTVSPropertyOp50
 70
     1
102
RTVSPropertyOp51
 70
     0
102
RTVSPropertyOp52
 70
     0
102
RTVSPropertyOp53
 70
     1
102
RTVSPropertyOp54
 70
     1
102
RTVSPropertyOp55
 70
     1
102
RTVSPropertyOp56
 70
     1
102
RTVSPropertyOp57
 70
     1
102
RTVSPropertyOp58
 70
     1
102
RTVSPropertyOp59
 70
     1
102
RTVSPropertyOp60
 70
     1
102
RTVSPropertyOp61
 70
     1
102
RTVSPropertyOp62
 70
     1
  0
ENDSEC
  0
EOF
