  0
SECTION
  2
HEADER
  9
$ACADVER
  1
AC1015
  9
$ACADMAINTVER
 70
    18
  9
$DWGCODEPAGE
  3
ANSI_1252
  9
$INSBASE
 10
0.0
 20
0.0
 30
0.0
  9
$EXTMIN
 10
-158.0191032099759
 20
-206.2540278689168
 30
-0.0015258207003583
  9
$EXTMAX
 10
174.1433722737052
 20
260.5049292378883
 30
0.0000000349246037
  9
$LIMMIN
 10
0.0
 20
0.0
  9
$LIMMAX
 10
420.0
 20
297.0
  9
$ORTHOMODE
 70
     0
  9
$REGENMODE
 70
     1
  9
$FILLMODE
 70
     1
  9
$QTEXTMODE
 70
     0
  9
$MIRRTEXT
 70
     0
  9
$LTSCALE
 40
1.0
  9
$ATTMODE
 70
     1
  9
$TEXTSIZE
 40
2.5
  9
$TRACEWID
 40
1.0
  9
$TEXTSTYLE
  7
Standard
  9
$CLAYER
  8
0
  9
$CELTYPE
  6
ByLayer
  9
$CECOLOR
 62
   256
  9
$CELTSCALE
 40
1.0
  9
$DISPSILH
 70
     0
  9
$DIMSCALE
 40
1.0
  9
$DIMASZ
 40
2.5
  9
$DIMEXO
 40
0.625
  9
$DIMDLI
 40
3.75
  9
$DIMRND
 40
0.0
  9
$DIMDLE
 40
0.0
  9
$DIMEXE
 40
1.25
  9
$DIMTP
 40
0.0
  9
$DIMTM
 40
0.0
  9
$DIMTXT
 40
2.5
  9
$DIMCEN
 40
2.5
  9
$DIMTSZ
 40
0.0
  9
$DIMTOL
 70
     0
  9
$DIMLIM
 70
     0
  9
$DIMTIH
 70
     0
  9
$DIMTOH
 70
     0
  9
$DIMSE1
 70
     0
  9
$DIMSE2
 70
     0
  9
$DIMTAD
 70
     1
  9
$DIMZIN
 70
     8
  9
$DIMBLK
  1

  9
$DIMASO
 70
     1
  9
$DIMSHO
 70
     1
  9
$DIMPOST
  1

  9
$DIMAPOST
  1

  9
$DIMALT
 70
     0
  9
$DIMALTD
 70
     3
  9
$DIMALTF
 40
0.03937007874016
  9
$DIMLFAC
 40
1.0
  9
$DIMTOFL
 70
     1
  9
$DIMTVP
 40
0.0
  9
$DIMTIX
 70
     0
  9
$DIMSOXD
 70
     0
  9
$DIMSAH
 70
     0
  9
$DIMBLK1
  1

  9
$DIMBLK2
  1

  9
$DIMSTYLE
  2
ISO-25
  9
$DIMCLRD
 70
     0
  9
$DIMCLRE
 70
     0
  9
$DIMCLRT
 70
     0
  9
$DIMTFAC
 40
1.0
  9
$DIMGAP
 40
0.625
  9
$DIMJUST
 70
     0
  9
$DIMSD1
 70
     0
  9
$DIMSD2
 70
     0
  9
$DIMTOLJ
 70
     0
  9
$DIMTZIN
 70
     8
  9
$DIMALTZ
 70
     0
  9
$DIMALTTZ
 70
     0
  9
$DIMUPT
 70
     0
  9
$DIMDEC
 70
     2
  9
$DIMTDEC
 70
     2
  9
$DIMALTU
 70
     2
  9
$DIMALTTD
 70
     3
  9
$DIMTXSTY
  7
Standard
  9
$DIMAUNIT
 70
     0
  9
$DIMADEC
 70
     0
  9
$DIMALTRND
 40
0.0
  9
$DIMAZIN
 70
     0
  9
$DIMDSEP
 70
    44
  9
$DIMATFIT
 70
     3
  9
$DIMFRAC
 70
     0
  9
$DIMLDRBLK
  1

  9
$DIMLUNIT
 70
     2
  9
$DIMLWD
 70
    -2
  9
$DIMLWE
 70
    -2
  9
$DIMTMOVE
 70
     0
  9
$LUNITS
 70
     2
  9
$LUPREC
 70
     4
  9
$SKETCHINC
 40
1.0
  9
$FILLETRAD
 40
0.0
  9
$AUNITS
 70
     0
  9
$AUPREC
 70
     0
  9
$MENU
  1
.
  9
$ELEVATION
 40
0.0
  9
$PELEVATION
 40
0.0
  9
$THICKNESS
 40
0.0
  9
$LIMCHECK
 70
     0
  9
$CHAMFERA
 40
0.0
  9
$CHAMFERB
 40
0.0
  9
$CHAMFERC
 40
0.0
  9
$CHAMFERD
 40
0.0
  9
$SKPOLY
 70
     0
  9
$TDCREATE
 40
2460572.688854167
  9
$TDUCREATE
 40
2460572.397187500
  9
$TDUPDATE
 40
2460573.368425926
  9
$TDUUPDATE
 40
2460573.076759259
  9
$TDINDWG
 40
0.6771527778
  9
$TDUSRTIMER
 40
0.6771527778
  9
$USRTIMER
 70
     1
  9
$ANGBASE
 50
0.0
  9
$ANGDIR
 70
     0
  9
$PDMODE
 70
     0
  9
$PDSIZE
 40
0.0
  9
$PLINEWID
 40
0.0
  9
$SPLFRAME
 70
     0
  9
$SPLINETYPE
 70
     6
  9
$SPLINESEGS
 70
     8
  9
$HANDSEED
  5
C8A
  9
$SURFTAB1
 70
     6
  9
$SURFTAB2
 70
     6
  9
$SURFTYPE
 70
     6
  9
$SURFU
 70
     6
  9
$SURFV
 70
     6
  9
$UCSBASE
  2

  9
$UCSNAME
  2

  9
$UCSORG
 10
0.0
 20
0.0
 30
0.0
  9
$UCSXDIR
 10
1.0
 20
0.0
 30
0.0
  9
$UCSYDIR
 10
0.0
 20
1.0
 30
0.0
  9
$UCSORTHOREF
  2

  9
$UCSORTHOVIEW
 70
     0
  9
$UCSORGTOP
 10
0.0
 20
0.0
 30
0.0
  9
$UCSORGBOTTOM
 10
0.0
 20
0.0
 30
0.0
  9
$UCSORGLEFT
 10
0.0
 20
0.0
 30
0.0
  9
$UCSORGRIGHT
 10
0.0
 20
0.0
 30
0.0
  9
$UCSORGFRONT
 10
0.0
 20
0.0
 30
0.0
  9
$UCSORGBACK
 10
0.0
 20
0.0
 30
0.0
  9
$PUCSBASE
  2

  9
$PUCSNAME
  2

  9
$PUCSORG
 10
0.0
 20
0.0
 30
0.0
  9
$PUCSXDIR
 10
1.0
 20
0.0
 30
0.0
  9
$PUCSYDIR
 10
0.0
 20
1.0
 30
0.0
  9
$PUCSORTHOREF
  2

  9
$PUCSORTHOVIEW
 70
     0
  9
$PUCSORGTOP
 10
0.0
 20
0.0
 30
0.0
  9
$PUCSORGBOTTOM
 10
0.0
 20
0.0
 30
0.0
  9
$PUCSORGLEFT
 10
0.0
 20
0.0
 30
0.0
  9
$PUCSORGRIGHT
 10
0.0
 20
0.0
 30
0.0
  9
$PUCSORGFRONT
 10
0.0
 20
0.0
 30
0.0
  9
$PUCSORGBACK
 10
0.0
 20
0.0
 30
0.0
  9
$USERI1
 70
     0
  9
$USERI2
 70
     0
  9
$USERI3
 70
     0
  9
$USERI4
 70
     0
  9
$USERI5
 70
     0
  9
$USERR1
 40
0.0
  9
$USERR2
 40
0.0
  9
$USERR3
 40
0.0
  9
$USERR4
 40
0.0
  9
$USERR5
 40
0.0
  9
$WORLDVIEW
 70
     1
  9
$SHADEDGE
 70
     3
  9
$SHADEDIF
 70
    70
  9
$TILEMODE
 70
     1
  9
$MAXACTVP
 70
    48
  9
$PINSBASE
 10
0.0
 20
0.0
 30
0.0
  9
$PLIMCHECK
 70
     0
  9
$PEXTMIN
 10
0.0
 20
0.0
 30
0.0
  9
$PEXTMAX
 10
0.0
 20
0.0
 30
0.0
  9
$PLIMMIN
 10
0.0
 20
0.0
  9
$PLIMMAX
 10
12.0
 20
9.0
  9
$UNITMODE
 70
     0
  9
$VISRETAIN
 70
     1
  9
$PLINEGEN
 70
     0
  9
$PSLTSCALE
 70
     1
  9
$TREEDEPTH
 70
  3020
  9
$CMLSTYLE
  2
Standard
  9
$CMLJUST
 70
     0
  9
$CMLSCALE
 40
20.0
  9
$PROXYGRAPHICS
 70
     1
  9
$MEASUREMENT
 70
     1
  9
$CELWEIGHT
370
    -1
  9
$ENDCAPS
280
     0
  9
$JOINSTYLE
280
     0
  9
$LWDISPLAY
290
     0
  9
$INSUNITS
 70
     4
  9
$HYPERLINKBASE
  1

  9
$STYLESHEET
  1

  9
$XEDIT
290
     1
  9
$CEPSNTYPE
380
     0
  9
$PSTYLEMODE
290
     1
  9
$FINGERPRINTGUID
  2
{0174FB10-CBEE-A049-BD77-4D56BD155670}
  9
$VERSIONGUID
  2
{3CECF1DB-9955-C04F-ADC0-C8B2A5F0A7B1}
  9
$EXTNAMES
290
     1
  9
$PSVPSCALE
 40
0.0
  9
$OLESTARTUP
290
     0
  0
ENDSEC
  0
SECTION
  2
CLASSES
  0
CLASS
  1
ACDBDICTIONARYWDFLT
  2
AcDbDictionaryWithDefault
  3
ObjectDBX Classes
 90
        0
280
     0
281
     0
  0
CLASS
  1
ACDBPLACEHOLDER
  2
AcDbPlaceHolder
  3
ObjectDBX Classes
 90
        0
280
     0
281
     0
  0
CLASS
  1
LAYOUT
  2
AcDbLayout
  3
ObjectDBX Classes
 90
        0
280
     0
281
     0
  0
CLASS
  1
DICTIONARYVAR
  2
AcDbDictionaryVar
  3
ObjectDBX Classes
 90
        0
280
     0
281
     0
  0
CLASS
  1
TABLESTYLE
  2
AcDbTableStyle
  3
ObjectDBX Classes
 90
     4095
280
     0
281
     0
  0
CLASS
  1
MATERIAL
  2
AcDbMaterial
  3
ObjectDBX Classes
 90
     1153
280
     0
281
     0
  0
CLASS
  1
VISUALSTYLE
  2
AcDbVisualStyle
  3
ObjectDBX Classes
 90
     4095
280
     0
281
     0
  0
CLASS
  1
SCALE
  2
AcDbScale
  3
ObjectDBX Classes
 90
     1153
280
     0
281
     0
  0
CLASS
  1
MLEADERSTYLE
  2
AcDbMLeaderStyle
  3
ACDB_MLEADERSTYLE_CLASS
 90
     4095
280
     0
281
     0
  0
CLASS
  1
CELLSTYLEMAP
  2
AcDbCellStyleMap
  3
ObjectDBX Classes
 90
     1152
280
     0
281
     0
  0
CLASS
  1
EXACXREFPANELOBJECT
  2
ExAcXREFPanelObject
  3
EXAC_ESW
 90
    33793
280
     0
281
     0
  0
CLASS
  1
NPOCOLLECTION
  2
AcDbImpNonPersistentObjectsCollection
  3
ObjectDBX Classes
 90
    33921
280
     0
281
     0
  0
CLASS
  1
LAYER_INDEX
  2
AcDbLayerIndex
  3
ObjectDBX Classes
 90
    32768
280
     0
281
     0
  0
CLASS
  1
SPATIAL_INDEX
  2
AcDbSpatialIndex
  3
ObjectDBX Classes
 90
    32768
280
     0
281
     0
  0
CLASS
  1
IDBUFFER
  2
AcDbIdBuffer
  3
ObjectDBX Classes
 90
    32768
280
     0
281
     0
  0
CLASS
  1
ACDBSECTIONVIEWSTYLE
  2
AcDbSectionViewStyle
  3
ObjectDBX Classes
 90
     1025
280
     0
281
     0
  0
CLASS
  1
ACDBDETAILVIEWSTYLE
  2
AcDbDetailViewStyle
  3
ObjectDBX Classes
 90
     1025
280
     0
281
     0
  0
CLASS
  1
XRECORD
  2
AcDbXrecord
  3
ObjectDBX Classes
 90
        0
280
     0
281
     0
  0
ENDSEC
  0
SECTION
  2
TABLES
  0
TABLE
  2
VPORT
  5
8
102
{ACAD_XDICTIONARY
360
B98
102
}
330
0
100
AcDbSymbolTable
 70
     1
  0
VPORT
  5
EA
330
8
100
AcDbSymbolTableRecord
100
AcDbViewportTableRecord
  2
*Active
 70
     0
 10
0.0
 20
0.0
 11
1.0
 21
1.0
 12
8.062134531864671
 22
27.12545068448574
 13
0.0
 23
0.0
 14
10.0
 24
10.0
 15
10.0
 25
10.0
 16
0.0
 26
0.0
 36
1.0
 17
0.0
 27
0.0
 37
0.0
 40
496.3558516386358
 41
0.9846153846153846
 42
50.0
 43
0.0
 44
0.0
 50
0.0
 51
0.0
 71
     0
 72
  1000
 73
     1
 74
     3
 75
     0
 76
     1
 77
     0
 78
     0
281
     0
 65
     1
110
0.0
120
0.0
130
0.0
111
1.0
121
0.0
131
0.0
112
0.0
122
1.0
132
0.0
 79
     0
146
0.0
1001
ACAD_NAV_VCDISPLAY
1070
     3
  0
ENDTAB
  0
TABLE
  2
LTYPE
  5
5
330
0
100
AcDbSymbolTable
 70
     1
  0
LTYPE
  5
14
330
5
100
AcDbSymbolTableRecord
100
AcDbLinetypeTableRecord
  2
ByBlock
 70
     0
  3

 72
    65
 73
     0
 40
0.0
  0
LTYPE
  5
15
330
5
100
AcDbSymbolTableRecord
100
AcDbLinetypeTableRecord
  2
ByLayer
 70
     0
  3

 72
    65
 73
     0
 40
0.0
  0
LTYPE
  5
16
330
5
100
AcDbSymbolTableRecord
100
AcDbLinetypeTableRecord
  2
Continuous
 70
     0
  3
Solid line
 72
    65
 73
     0
 40
0.0
  0
ENDTAB
  0
TABLE
  2
LAYER
  5
2
102
{ACAD_XDICTIONARY
360
1FF
102
}
330
0
100
AcDbSymbolTable
 70
     1
  0
LAYER
  5
10
102
{ACAD_XDICTIONARY
360
13C
102
}
330
2
100
AcDbSymbolTableRecord
100
AcDbLayerTableRecord
  2
0
 70
     0
 62
     7
  6
Continuous
370
    -3
390
F
  0
ENDTAB
  0
TABLE
  2
STYLE
  5
3
330
0
100
AcDbSymbolTable
 70
     1
  0
STYLE
  5
11
330
3
100
AcDbSymbolTableRecord
100
AcDbTextStyleTableRecord
  2
Standard
 70
     0
 40
0.0
 41
1.0
 50
0.0
 71
     0
 42
2.5
  3
arial.ttf
  4

1001
ACAD
1000
Arial
1071
       34
  0
ENDTAB
  0
TABLE
  2
VIEW
  5
6
330
0
100
AcDbSymbolTable
 70
     0
  0
ENDTAB
  0
TABLE
  2
UCS
  5
7
330
0
100
AcDbSymbolTable
 70
     0
  0
ENDTAB
  0
TABLE
  2
APPID
  5
9
330
0
100
AcDbSymbolTable
 70
     8
  0
APPID
  5
12
330
9
100
AcDbSymbolTableRecord
100
AcDbRegAppTableRecord
  2
ACAD
 70
     0
  0
APPID
  5
9E
330
9
100
AcDbSymbolTableRecord
100
AcDbRegAppTableRecord
  2
ACAD_PSEXT
 70
     0
  0
APPID
  5
133
330
9
100
AcDbSymbolTableRecord
100
AcDbRegAppTableRecord
  2
AcadAnnoPO
 70
     0
  0
APPID
  5
134
330
9
100
AcDbSymbolTableRecord
100
AcDbRegAppTableRecord
  2
AcadAnnotative
 70
     0
  0
APPID
  5
135
330
9
100
AcDbSymbolTableRecord
100
AcDbRegAppTableRecord
  2
ACAD_DSTYLE_DIMJAG
 70
     0
  0
APPID
  5
136
330
9
100
AcDbSymbolTableRecord
100
AcDbRegAppTableRecord
  2
ACAD_DSTYLE_DIMTALN
 70
     0
  0
APPID
  5
165
330
9
100
AcDbSymbolTableRecord
100
AcDbRegAppTableRecord
  2
ACAD_MLEADERVER
 70
     0
  0
APPID
  5
217
330
9
100
AcDbSymbolTableRecord
100
AcDbRegAppTableRecord
  2
ACAD_NAV_VCDISPLAY
 70
     0
  0
ENDTAB
  0
TABLE
  2
DIMSTYLE
  5
A
330
0
100
AcDbSymbolTable
 70
     1
100
AcDbDimStyleTable
 71
     0
  0
DIMSTYLE
105
27
330
A
100
AcDbSymbolTableRecord
100
AcDbDimStyleTableRecord
  2
ISO-25
 70
     0
 41
2.5
 42
0.625
 43
3.75
 44
1.25
 73
     0
 74
     0
 77
     1
 78
     8
140
2.5
141
2.5
143
0.03937007874016
147
0.625
171
     3
172
     1
271
     2
272
     2
274
     3
278
    44
283
     0
284
     8
340
11
  0
ENDTAB
  0
TABLE
  2
BLOCK_RECORD
  5
1
330
0
100
AcDbSymbolTable
 70
     7
  0
BLOCK_RECORD
  5
1F
102
{ACAD_XDICTIONARY
360
1CE
102
}
330
1
100
AcDbSymbolTableRecord
100
AcDbBlockTableRecord
  2
*Model_Space
340
22
  0
BLOCK_RECORD
  5
D2
102
{ACAD_XDICTIONARY
360
B4B
102
}
330
1
100
AcDbSymbolTableRecord
100
AcDbBlockTableRecord
  2
*Paper_Space
340
D3
  0
BLOCK_RECORD
  5
D6
102
{ACAD_XDICTIONARY
360
B4D
102
}
330
1
100
AcDbSymbolTableRecord
100
AcDbBlockTableRecord
  2
*Paper_Space0
340
D7
  0
BLOCK_RECORD
  5
9A7
330
1
100
AcDbSymbolTableRecord
100
AcDbBlockTableRecord
  2
AKR135Z-Front
340
0
102
{BLKREFS
331
B41
102
}
  0
BLOCK_RECORD
  5
9F6
330
1
100
AcDbSymbolTableRecord
100
AcDbBlockTableRecord
  2
AKR135Z-Left
340
0
102
{BLKREFS
331
B42
102
}
  0
BLOCK_RECORD
  5
A1A
330
1
100
AcDbSymbolTableRecord
100
AcDbBlockTableRecord
  2
AKR135Z-Right
340
0
102
{BLKREFS
331
B43
102
}
  0
BLOCK_RECORD
  5
A41
330
1
100
AcDbSymbolTableRecord
100
AcDbBlockTableRecord
  2
AKR135Z-Top
340
0
102
{BLKREFS
331
B44
102
}
  0
BLOCK_RECORD
  5
A85
330
1
100
AcDbSymbolTableRecord
100
AcDbBlockTableRecord
  2
AKR135Z-Bottom
340
0
102
{BLKREFS
331
B45
102
}
  0
BLOCK_RECORD
  5
AB4
330
1
100
AcDbSymbolTableRecord
100
AcDbBlockTableRecord
  2
AKR135Z-ISO
340
0
102
{BLKREFS
331
B46
102
}
  0
ENDTAB
  0
ENDSEC
  0
SECTION
  2
BLOCKS
  0
BLOCK
  5
20
330
1F
100
AcDbEntity
  8
0
100
AcDbBlockBegin
  2
*Model_Space
 70
     0
 10
0.0
 20
0.0
 30
0.0
  3
*Model_Space
  1

  0
ENDBLK
  5
21
330
1F
100
AcDbEntity
  8
0
100
AcDbBlockEnd
  0
BLOCK
  5
D4
330
D2
100
AcDbEntity
 67
     1
  8
0
100
AcDbBlockBegin
  2
*Paper_Space
 70
     0
 10
0.0
 20
0.0
 30
0.0
  3
*Paper_Space
  1

  0
ENDBLK
  5
D5
330
D2
100
AcDbEntity
 67
     1
  8
0
100
AcDbBlockEnd
  0
BLOCK
  5
D8
330
D6
100
AcDbEntity
 67
     1
  8
0
100
AcDbBlockBegin
  2
*Paper_Space0
 70
     0
 10
0.0
 20
0.0
 30
0.0
  3
*Paper_Space0
  1

  0
ENDBLK
  5
D9
330
D6
100
AcDbEntity
 67
     1
  8
0
100
AcDbBlockEnd
  0
BLOCK
  5
9A8
330
9A7
100
AcDbEntity
  8
0
100
AcDbBlockBegin
  2
AKR135Z-Front
 70
     0
 10
0.0
 20
0.0
 30
0.0
  3
AKR135Z-Front
  1

  0
CIRCLE
  5
9AA
330
9A7
100
AcDbEntity
  8
0
100
AcDbCircle
 10
-22.49999999999998
 20
127.0
 30
0.0
 40
2.6
  0
CIRCLE
  5
9AB
330
9A7
100
AcDbEntity
  8
0
100
AcDbCircle
 10
-13.99999999999998
 20
107.0
 30
0.0
 40
2.6
  0
CIRCLE
  5
9AC
330
9A7
100
AcDbEntity
  8
0
100
AcDbCircle
 10
0.0000000000000136
 20
117.0
 30
0.0
 40
2.600000000000001
  0
CIRCLE
  5
9AD
330
9A7
100
AcDbEntity
  8
0
100
AcDbCircle
 10
14.00000000000002
 20
107.0
 30
0.0
 40
2.600000000000002
  0
CIRCLE
  5
9AE
330
9A7
100
AcDbEntity
  8
0
100
AcDbCircle
 10
22.50000000000002
 20
127.0
 30
0.0
 40
2.600000000000002
  0
CIRCLE
  5
9AF
330
9A7
100
AcDbEntity
  8
0
100
AcDbCircle
 10
0.0000000000000114
 20
97.0
 30
0.0
 40
6.750000000000003
  0
CIRCLE
  5
9B0
330
9A7
100
AcDbEntity
  8
0
100
AcDbCircle
 10
-22.5
 20
87.00000000000001
 30
0.0
 40
2.600000000000006
  0
CIRCLE
  5
9B1
330
9A7
100
AcDbEntity
  8
0
100
AcDbCircle
 10
22.50000000000001
 20
87.00000000000001
 30
0.0
 40
2.600000000000001
  0
CIRCLE
  5
9B2
330
9A7
100
AcDbEntity
  8
0
100
AcDbCircle
 10
0.000000000000005
 20
40.0
 30
0.0
 40
2.6
  0
CIRCLE
  5
9B3
330
9A7
100
AcDbEntity
  8
0
100
AcDbCircle
 10
14.00000000000001
 20
50.0
 30
0.0
 40
2.6
  0
CIRCLE
  5
9B4
330
9A7
100
AcDbEntity
  8
0
100
AcDbCircle
 10
-13.99999999999999
 20
50.0
 30
0.0
 40
2.6
  0
CIRCLE
  5
9B5
330
9A7
100
AcDbEntity
  8
0
100
AcDbCircle
 10
0.0000000000000072
 20
60.0
 30
0.0
 40
2.6
  0
CIRCLE
  5
9B6
330
9A7
100
AcDbEntity
  8
0
100
AcDbCircle
 10
20.00000000000001
 20
69.0
 30
0.0
 40
2.6
  0
CIRCLE
  5
9B7
330
9A7
100
AcDbEntity
  8
0
100
AcDbCircle
 10
-19.99999999999999
 20
69.0
 30
0.0
 40
2.6
  0
CIRCLE
  5
9B8
330
9A7
100
AcDbEntity
  8
0
100
AcDbCircle
 10
0.0000000000000092
 20
78.0
 30
0.0
 40
2.6
  0
LINE
  5
9B9
330
9A7
100
AcDbEntity
  8
0
100
AcDbLine
 10
32.50000000000002
 20
71.49999999999991
 30
0.0
 11
32.50000000000002
 21
128.0
 31
0.0
  0
LINE
  5
9BA
330
9A7
100
AcDbEntity
  8
0
100
AcDbLine
 10
-32.5
 20
71.49999999999991
 30
0.0
 11
-32.49999999999999
 21
128.0
 31
0.0
  0
LINE
  5
9BB
330
9A7
100
AcDbEntity
  8
0
100
AcDbLine
 10
19.40049474616514
 20
14.78494715841456
 30
0.0
 11
22.88089344101219
 21
9.483549287033993
 31
0.0
  0
ELLIPSE
  5
9BC
330
9A7
100
AcDbEntity
  8
0
100
AcDbEllipse
 10
21.84265019811888
 20
29.55706345359769
 30
0.0
 11
-2.149316260459677
 21
-14.99707715516456
 31
0.0
210
0.0
220
0.0
230
1.0
 40
0.1377659927417799
 41
4.906663367072862
 42
6.128393843468899
  0
LINE
  5
9BD
330
9A7
100
AcDbEntity
  8
0
100
AcDbLine
 10
22.88089344101218
 20
57.01806215511449
 30
0.0
 11
19.40049474616514
 21
26.95234078859373
 31
0.0
  0
LINE
  5
9BE
330
9A7
100
AcDbEntity
  8
0
100
AcDbLine
 10
-19.40049474616514
 20
26.95234078859374
 30
0.0
 11
-22.88089344101218
 21
57.01806215511449
 31
0.0
  0
ELLIPSE
  5
9BF
330
9A7
100
AcDbEntity
  8
0
100
AcDbEllipse
 10
-21.84265019811888
 20
29.5570634535977
 30
0.0
 11
-2.149316260459888
 21
14.99707715516454
 31
0.0
210
0.0
220
0.0
230
1.0
 40
0.1377659927417808
 41
3.296384117292438
 42
4.518114593693583
  0
LINE
  5
9C0
330
9A7
100
AcDbEntity
  8
0
100
AcDbLine
 10
-22.88089344101225
 20
9.483549287033998
 30
0.0
 11
-19.40049474616516
 21
14.78494715841457
 31
0.0
  0
LINE
  5
9C1
330
9A7
100
AcDbEntity
  8
0
100
AcDbLine
 10
-25.50000000000003
 20
2.999999999999996
 30
0.0
 11
25.49999999999996
 21
2.99999999999999
 31
0.0
  0
SPLINE
  5
9C2
330
9A7
100
AcDbEntity
  8
0
100
AcDbSpline
210
0.0
220
0.0
230
1.0
 70
     8
 71
     3
 72
    20
 73
    16
 74
     0
 42
0.000000001
 43
0.0000000001
 40
-1.0
 40
-1.0
 40
-1.0
 40
-1.0
 40
-0.8557507846683195
 40
-0.8557507846683195
 40
-0.8557507846683195
 40
-0.4725410755540734
 40
-0.4725410755540734
 40
-0.4725410755540734
 40
-0.2262668722288412
 40
-0.2262668722288412
 40
-0.2262668722288412
 40
-0.0545088760457658
 40
-0.0545088760457658
 40
-0.0545088760457658
 40
0.0
 40
0.0
 40
0.0
 40
0.0
 10
-32.50000000000002
 20
71.49999999999986
 30
0.0
 10
-32.49596368058214
 20
70.51422263202126
 30
0.0
 10
-32.37910965910396
 20
69.60755482003515
 30
0.0
 10
-32.16692343470167
 20
68.7957910374861
 30
0.0
 10
-31.6032335654411
 20
66.63927488407186
 30
0.0
 10
-30.41855420421606
 20
65.0916475761896
 30
0.0
 10
-29.21981211983748
 20
63.52662748020549
 30
0.0
 10
-28.44942649337427
 20
62.52084900393114
 30
0.0
 10
-27.6722133332771
 20
61.51295505185366
 30
0.0
 10
-27.05454655899853
 20
60.34589916495417
 30
0.0
 10
-26.623769782436
 20
59.53196421821191
 30
0.0
 10
-26.26601864944883
 20
58.6248351365755
 30
0.0
 10
-26.05086466152155
 20
57.60015142180009
 30
0.0
 10
-25.98258369458375
 20
57.2749592395667
 30
0.0
 10
-25.9303995756151
 20
56.93850065069966
 30
0.0
 10
-25.89060973843285
 20
56.59507411448339
 30
0.0
  0
LINE
  5
9C3
330
9A7
100
AcDbEntity
  8
0
100
AcDbLine
 10
-25.17482914753293
 20
56.69567051616646
 30
0.0
 11
-25.89060973854643
 21
56.59507411444166
 31
0.0
  0
LINE
  5
9C4
330
9A7
100
AcDbEntity
  8
0
100
AcDbLine
 10
-22.88089344101222
 20
57.0180621551145
 30
0.0
 11
-25.17482914753293
 21
56.69567051616646
 31
0.0
  0
SPLINE
  5
9C5
330
9A7
100
AcDbEntity
  8
0
100
AcDbSpline
210
0.0
220
0.0
230
1.0
 70
     8
 71
     3
 72
    20
 73
    16
 74
     0
 42
0.000000001
 43
0.0000000001
 40
-1.0
 40
-1.0
 40
-1.0
 40
-1.0
 40
-0.9088715958329444
 40
-0.9088715958329444
 40
-0.9088715958329444
 40
-0.5828186689869098
 40
-0.5828186689869098
 40
-0.5828186689869098
 40
-0.2914093344934549
 40
-0.2914093344934549
 40
-0.2914093344934549
 40
-0.0928699318600557
 40
-0.0928699318600557
 40
-0.0928699318600557
 40
0.0
 40
0.0
 40
0.0
 40
0.0
 10
-22.88089344101214
 20
57.01806215511449
 30
0.0
 10
-22.95107176353277
 20
57.57938543731778
 30
0.0
 10
-23.07522524431968
 20
58.14364667626666
 30
0.0
 10
-23.26450560144822
 20
58.64983352162081
 30
0.0
 10
-23.94174136564624
 20
60.46094504022185
 30
0.0
 10
-25.33408821792699
 20
61.82174983836238
 30
0.0
 10
-26.82594339256952
 20
63.11352620216434
 30
0.0
 10
-28.15928680956784
 20
64.26804946969403
 30
0.0
 10
-29.56933279791363
 20
65.35846526265181
 30
0.0
 10
-30.65800991237687
 20
66.66991389099532
 30
0.0
 10
-31.39973393553454
 20
67.56341384599268
 30
0.0
 10
-31.98832103113332
 20
68.5591554986608
 30
0.0
 10
-32.2844086179968
 20
69.72610773898603
 30
0.0
 10
-32.42290824906195
 20
70.27196802467983
 30
0.0
 10
-32.49448861012107
 20
70.86263892803422
 30
0.0
 10
-32.50000000000145
 20
71.50000000006291
 30
0.0
  0
LINE
  5
9C6
330
9A7
100
AcDbEntity
  8
0
100
AcDbLine
 10
-22.34380262810205
 20
57.09354534627188
 30
0.0
 11
-22.88089344101218
 21
57.01806215511449
 31
0.0
  0
LINE
  5
9C7
330
9A7
100
AcDbEntity
  8
0
100
AcDbLine
 10
-19.40135808271012
 20
57.50707895874676
 30
0.0
 11
-22.34380262810205
 21
57.09354534627188
 31
0.0
  0
SPLINE
  5
9C8
330
9A7
100
AcDbEntity
  8
0
100
AcDbSpline
210
0.0
220
0.0
230
1.0
 70
     8
 71
     2
 72
     6
 73
     3
 74
     0
 42
0.000000001
 43
0.0000000001
 40
0.0
 40
0.0
 40
0.0
 40
1.0
 40
1.0
 40
1.0
 10
-19.40135808271012
 20
57.50707895874676
 30
0.0
 10
-20.85646379032761
 20
67.86069405359666
 30
0.0
 10
-32.49999999999999
 20
71.49999999999993
 30
0.0
  0
SPLINE
  5
9C9
330
9A7
100
AcDbEntity
  8
0
100
AcDbSpline
210
0.0
220
0.0
230
1.0
 70
     8
 71
     3
 72
    20
 73
    16
 74
     0
 42
0.000000001
 43
0.0000000001
 40
-1.0
 40
-1.0
 40
-1.0
 40
-1.0
 40
-0.8565140843593937
 40
-0.8565140843593937
 40
-0.8565140843593937
 40
-0.5402558541842986
 40
-0.5402558541842986
 40
-0.5402558541842986
 40
-0.2701279270921493
 40
-0.2701279270921493
 40
-0.2701279270921493
 40
-0.0852549168078418
 40
-0.0852549168078418
 40
-0.0852549168078418
 40
0.0
 40
0.0
 40
0.0
 40
0.0
 10
22.88089344101216
 20
57.01806215511449
 30
0.0
 10
22.98563906630071
 20
57.92230508726806
 30
0.0
 10
23.2510894520219
 20
58.75125606593146
 30
0.0
 10
23.64500443041021
 20
59.4906380602164
 30
0.0
 10
24.5132349696123
 20
61.1203146726693
 30
0.0
 10
25.94709485152871
 20
62.37298809433237
 30
0.0
 10
27.41482735374078
 20
63.61722483984735
 30
0.0
 10
28.66847232016209
 20
64.67997376085332
 30
0.0
 10
29.9240279311662
 20
65.70892477045387
 30
0.0
 10
30.88879741844861
 20
66.95682341167345
 30
0.0
 10
31.54907657308598
 20
67.81087349385271
 30
0.0
 10
32.05964361544615
 20
68.7654776648898
 30
0.0
 10
32.31762450953586
 20
69.85892594190142
 30
0.0
 10
32.43659341489316
 20
70.36317392134927
 30
0.0
 10
32.49484871723281
 20
70.90289999942268
 30
0.0
 10
32.50000000000147
 20
71.5000000000629
 30
0.0
  0
SPLINE
  5
9CA
330
9A7
100
AcDbEntity
  8
0
100
AcDbSpline
210
0.0
220
0.0
230
1.0
 70
     8
 71
     2
 72
     6
 73
     3
 74
     0
 42
0.000000001
 43
0.0000000001
 40
0.0
 40
0.0
 40
0.0
 40
1.0
 40
1.0
 40
1.0
 10
19.40135808271013
 20
57.50707895874676
 30
0.0
 10
20.85646379032763
 20
67.86069405359666
 30
0.0
 10
32.50000000000001
 20
71.49999999999993
 30
0.0
  0
LINE
  5
9CB
330
9A7
100
AcDbEntity
  8
0
100
AcDbLine
 10
22.34380262810205
 20
57.09354534627188
 30
0.0
 11
19.40135808271013
 21
57.50707895874676
 31
0.0
  0
LINE
  5
9CC
330
9A7
100
AcDbEntity
  8
0
100
AcDbLine
 10
22.88089344101218
 20
57.01806215511449
 30
0.0
 11
22.34380262810205
 21
57.09354534627188
 31
0.0
  0
SPLINE
  5
9CD
330
9A7
100
AcDbEntity
  8
0
100
AcDbSpline
210
0.0
220
0.0
230
1.0
 70
     8
 71
     3
 72
    20
 73
    16
 74
     0
 42
0.000000001
 43
0.0000000001
 40
-1.0
 40
-1.0
 40
-1.0
 40
-1.0
 40
-0.8557507846683195
 40
-0.8557507846683195
 40
-0.8557507846683195
 40
-0.4725410755540734
 40
-0.4725410755540734
 40
-0.4725410755540734
 40
-0.2262668722288412
 40
-0.2262668722288412
 40
-0.2262668722288412
 40
-0.0545088760457658
 40
-0.0545088760457658
 40
-0.0545088760457658
 40
0.0
 40
0.0
 40
0.0
 40
0.0
 10
32.50000000000004
 20
71.49999999999986
 30
0.0
 10
32.49596368058217
 20
70.51422263202126
 30
0.0
 10
32.37910965910398
 20
69.60755482003515
 30
0.0
 10
32.16692343470169
 20
68.7957910374861
 30
0.0
 10
31.60323356544112
 20
66.63927488407186
 30
0.0
 10
30.41855420421608
 20
65.0916475761896
 30
0.0
 10
29.21981211983749
 20
63.52662748020549
 30
0.0
 10
28.44942649337428
 20
62.52084900393114
 30
0.0
 10
27.67221333327711
 20
61.51295505185366
 30
0.0
 10
27.05454655899855
 20
60.34589916495417
 30
0.0
 10
26.62376978243601
 20
59.53196421821191
 30
0.0
 10
26.26601864944883
 20
58.6248351365755
 30
0.0
 10
26.05086466152156
 20
57.60015142180009
 30
0.0
 10
25.98258369458376
 20
57.2749592395667
 30
0.0
 10
25.93039957561511
 20
56.93850065069966
 30
0.0
 10
25.89060973843287
 20
56.59507411448339
 30
0.0
  0
LINE
  5
9CE
330
9A7
100
AcDbEntity
  8
0
100
AcDbLine
 10
25.89060973854643
 20
56.59507411444166
 30
0.0
 11
25.17482914753293
 21
56.69567051616645
 31
0.0
  0
LINE
  5
9CF
330
9A7
100
AcDbEntity
  8
0
100
AcDbLine
 10
24.95106001327095
 20
56.72711921707627
 30
0.0
 11
22.88089344101223
 21
57.01806215511449
 31
0.0
  0
LINE
  5
9D0
330
9A7
100
AcDbEntity
  8
0
100
AcDbLine
 10
25.17482914753293
 20
56.69567051616645
 30
0.0
 11
24.95106001327095
 21
56.72711921707627
 31
0.0
  0
SPLINE
  5
9D1
330
9A7
100
AcDbEntity
  8
0
100
AcDbSpline
210
0.0
220
0.0
230
1.0
 70
     8
 71
     3
 72
    14
 73
    10
 74
     0
 42
0.000000001
 43
0.0000000001
 40
-0.4328660091423387
 40
-0.4328660091423387
 40
-0.4328660091423387
 40
-0.4328660091423387
 40
-0.2262668722288412
 40
-0.2262668722288412
 40
-0.2262668722288412
 40
-0.0545088760457658
 40
-0.0545088760457658
 40
-0.0545088760457658
 40
0.0
 40
0.0
 40
0.0
 40
0.0
 10
28.84764604188747
 20
5.258496106894471
 30
0.0
 10
28.20314737039775
 20
6.188089808332065
 30
0.0
 10
27.57270648294952
 20
7.097101139023042
 30
0.0
 10
27.05454655899851
 20
7.846564790700558
 30
0.0
 10
26.62376978243598
 20
8.469637940701558
 30
0.0
 10
26.26601864944881
 20
8.989941880013947
 30
0.0
 10
26.05086466152153
 20
9.312718229935358
 30
0.0
 10
25.98258369458373
 20
9.415154078276401
 30
0.0
 10
25.93039957561508
 20
9.494468906985627
 30
0.0
 10
25.89060973843283
 20
9.55813349111505
 30
0.0
  0
SPLINE
  5
9D2
330
9A7
100
AcDbEntity
  8
0
100
AcDbSpline
210
0.0
220
0.0
230
1.0
 70
     8
 71
     3
 72
    20
 73
    16
 74
     0
 42
0.000000001
 43
0.0000000001
 40
-1.0
 40
-1.0
 40
-1.0
 40
-1.0
 40
-0.8565140843593937
 40
-0.8565140843593937
 40
-0.8565140843593937
 40
-0.5402558541842986
 40
-0.5402558541842986
 40
-0.5402558541842986
 40
-0.2701279270921493
 40
-0.2701279270921493
 40
-0.2701279270921493
 40
-0.0852549168078418
 40
-0.0852549168078418
 40
-0.0852549168078418
 40
0.0
 40
0.0
 40
0.0
 40
0.0
 10
22.88089344101213
 20
9.483549287033962
 30
0.0
 10
22.98563906630068
 20
9.32009246234417
 30
0.0
 10
23.25108945202187
 20
9.072461725055759
 30
0.0
 10
23.64500443041018
 20
8.763930907759096
 30
0.0
 10
24.51323496961226
 20
8.083896147573163
 30
0.0
 10
25.94709485152868
 20
7.123035516962782
 30
0.0
 10
27.41482735374074
 20
6.173960274836077
 30
0.0
 10
28.66847232016205
 20
5.363319781248837
 30
0.0
 10
29.92402793116616
 20
4.579673909819009
 30
0.0
 10
30.88879741844858
 20
3.984753324035454
 30
0.0
 10
31.54907657308594
 20
3.577595275780822
 30
0.0
 10
32.05964361544611
 20
3.265340377926668
 30
0.0
 10
32.31762450953583
 20
3.108560584061585
 30
0.0
 10
32.43659341489311
 20
3.03626096464952
 30
0.0
 10
32.49484871723276
 20
2.999954352938686
 30
0.0
 10
32.50000000000143
 20
2.999999999892053
 30
0.0
  0
LINE
  5
9D3
330
9A7
100
AcDbEntity
  8
0
100
AcDbLine
 10
22.34380262810206
 20
5.586466387525106
 30
0.0
 11
22.88089344101219
 21
9.483549287033993
 31
0.0
  0
ELLIPSE
  5
9D4
330
9A7
100
AcDbEntity
  8
0
100
AcDbEllipse
 10
19.40135808271009
 20
5.999999999999992
 30
0.0
 11
0.0000000000000063
 21
-3.0
 31
0.0
210
0.0
220
0.0
230
1.0
 40
0.9902680687415704
 41
0.0000000000000001
 42
1.432511480600926
  0
LINE
  5
9D5
330
9A7
100
AcDbEntity
  8
0
100
AcDbLine
 10
25.17482914754549
 20
9.540395631335664
 30
0.0
 11
25.89060973854639
 21
9.558133491121624
 31
0.0
  0
LINE
  5
9D6
330
9A7
100
AcDbEntity
  8
0
100
AcDbLine
 10
24.95106001325726
 20
9.534850376856384
 30
0.0
 11
25.17482914754549
 21
9.540395631335664
 31
0.0
  0
LINE
  5
9D7
330
9A7
100
AcDbEntity
  8
0
100
AcDbLine
 10
22.8808934410122
 20
9.483549287033991
 30
0.0
 11
24.95106001325726
 21
9.534850376856384
 31
0.0
  0
SPLINE
  5
9D8
330
9A7
100
AcDbEntity
  8
0
100
AcDbSpline
210
0.0
220
0.0
230
1.0
 70
     8
 71
     3
 72
    14
 73
    10
 74
     0
 42
0.000000001
 43
0.0000000001
 40
-0.4328660091423388
 40
-0.4328660091423388
 40
-0.4328660091423388
 40
-0.4328660091423388
 40
-0.2262668722288412
 40
-0.2262668722288412
 40
-0.2262668722288412
 40
-0.0545088760457658
 40
-0.0545088760457658
 40
-0.0545088760457658
 40
0.0
 40
0.0
 40
0.0
 40
0.0
 10
-28.84764604188753
 20
5.258496106894478
 30
0.0
 10
-28.2031473703978
 20
6.18808980833207
 30
0.0
 10
-27.57270648294957
 20
7.097101139023047
 30
0.0
 10
-27.05454655899857
 20
7.846564790700564
 30
0.0
 10
-26.62376978243603
 20
8.469637940701563
 30
0.0
 10
-26.26601864944885
 20
8.989941880013955
 30
0.0
 10
-26.05086466152159
 20
9.312718229935363
 30
0.0
 10
-25.98258369458378
 20
9.415154078276406
 30
0.0
 10
-25.93039957561514
 20
9.494468906985632
 30
0.0
 10
-25.89060973843289
 20
9.558133491115055
 30
0.0
  0
SPLINE
  5
9D9
330
9A7
100
AcDbEntity
  8
0
100
AcDbSpline
210
0.0
220
0.0
230
1.0
 70
     8
 71
     3
 72
    20
 73
    16
 74
     0
 42
0.000000001
 43
0.0000000001
 40
-1.0
 40
-1.0
 40
-1.0
 40
-1.0
 40
-0.8565140843593937
 40
-0.8565140843593937
 40
-0.8565140843593937
 40
-0.5402558541842986
 40
-0.5402558541842986
 40
-0.5402558541842986
 40
-0.2701279270921493
 40
-0.2701279270921493
 40
-0.2701279270921493
 40
-0.0852549168078418
 40
-0.0852549168078418
 40
-0.0852549168078418
 40
0.0
 40
0.0
 40
0.0
 40
0.0
 10
-22.88089344101218
 20
9.483549287033968
 30
0.0
 10
-22.98563906630073
 20
9.320092462344176
 30
0.0
 10
-23.25108945202192
 20
9.072461725055765
 30
0.0
 10
-23.64500443041023
 20
8.763930907759101
 30
0.0
 10
-24.51323496961232
 20
8.083896147573168
 30
0.0
 10
-25.94709485152873
 20
7.123035516962787
 30
0.0
 10
-27.4148273537408
 20
6.173960274836084
 30
0.0
 10
-28.6684723201621
 20
5.363319781248844
 30
0.0
 10
-29.92402793116621
 20
4.579673909819015
 30
0.0
 10
-30.88879741844863
 20
3.984753324035461
 30
0.0
 10
-31.54907657308599
 20
3.577595275780829
 30
0.0
 10
-32.05964361544617
 20
3.265340377926675
 30
0.0
 10
-32.31762450953588
 20
3.108560584061593
 30
0.0
 10
-32.43659341489318
 20
3.036260964649528
 30
0.0
 10
-32.49484871723284
 20
2.999954352938693
 30
0.0
 10
-32.5000000000015
 20
2.999999999892061
 30
0.0
  0
ELLIPSE
  5
9DA
330
9A7
100
AcDbEntity
  8
0
100
AcDbEllipse
 10
-19.40135808271014
 20
5.999999999999997
 30
0.0
 11
0.0000000000000017
 21
-3.0
 31
0.0
210
0.0
220
0.0
230
1.0
 40
0.9902680687415701
 41
4.850673826578656
 42
6.283185307179584
  0
LINE
  5
9DB
330
9A7
100
AcDbEntity
  8
0
100
AcDbLine
 10
-22.88089344101225
 20
9.483549287033998
 30
0.0
 11
-22.34380262810212
 21
5.586466387525109
 31
0.0
  0
LINE
  5
9DC
330
9A7
100
AcDbEntity
  8
0
100
AcDbLine
 10
-25.89060973854645
 20
9.558133491121626
 30
0.0
 11
-25.17482914754554
 21
9.540395631335668
 31
0.0
  0
LINE
  5
9DD
330
9A7
100
AcDbEntity
  8
0
100
AcDbLine
 10
-24.95106001325731
 20
9.534850376856386
 30
0.0
 11
-22.88089344101225
 21
9.483549287033994
 31
0.0
  0
LINE
  5
9DE
330
9A7
100
AcDbEntity
  8
0
100
AcDbLine
 10
-25.17482914754554
 20
9.540395631335668
 30
0.0
 11
-24.95106001325731
 21
9.534850376856386
 31
0.0
  0
LINE
  5
9DF
330
9A7
100
AcDbEntity
  8
0
100
AcDbLine
 10
25.49999999999996
 20
0.0
 30
0.0
 11
32.49999999999996
 21
0.0
 31
0.0
  0
LINE
  5
9E0
330
9A7
100
AcDbEntity
  8
0
100
AcDbLine
 10
-32.50000000000003
 20
0.0
 30
0.0
 11
-25.50000000000003
 21
0.0
 31
0.0
  0
LINE
  5
9E1
330
9A7
100
AcDbEntity
  8
0
100
AcDbLine
 10
25.50000000000001
 20
135.0
 30
0.0
 11
32.50000000000002
 21
128.0
 31
0.0
  0
LINE
  5
9E2
330
9A7
100
AcDbEntity
  8
0
100
AcDbLine
 10
-32.49999999999999
 20
128.0
 30
0.0
 11
-25.49999999999999
 21
135.0
 31
0.0
  0
LINE
  5
9E3
330
9A7
100
AcDbEntity
  8
0
100
AcDbLine
 10
-25.50000000000003
 20
2.999999999999996
 30
0.0
 11
-32.50000000000003
 21
2.999999999999997
 31
0.0
  0
LINE
  5
9E4
330
9A7
100
AcDbEntity
  8
0
100
AcDbLine
 10
32.49999999999996
 20
2.99999999999999
 30
0.0
 11
25.49999999999996
 21
2.99999999999999
 31
0.0
  0
LINE
  5
9E5
330
9A7
100
AcDbEntity
  8
0
100
AcDbLine
 10
25.49999999999996
 20
2.99999999999999
 30
0.0
 11
25.49999999999996
 21
0.0
 31
0.0
  0
LINE
  5
9E6
330
9A7
100
AcDbEntity
  8
0
100
AcDbLine
 10
-25.50000000000003
 20
0.0
 30
0.0
 11
-25.50000000000003
 21
2.999999999999996
 31
0.0
  0
LINE
  5
9E7
330
9A7
100
AcDbEntity
  8
0
100
AcDbLine
 10
-25.50000000000003
 20
0.0
 30
0.0
 11
25.49999999999996
 21
0.0
 31
0.0
  0
LINE
  5
9E8
330
9A7
100
AcDbEntity
  8
0
100
AcDbLine
 10
-25.89060973854645
 20
9.558133491121632
 30
0.0
 11
-22.45917600970657
 21
14.78494715841457
 31
0.0
  0
ELLIPSE
  5
9E9
330
9A7
100
AcDbEntity
  8
0
100
AcDbEllipse
 10
-24.90133146166029
 20
29.5570634535977
 30
0.0
 11
-2.149316260459888
 21
14.99707715516454
 31
0.0
210
0.0
220
0.0
230
1.0
 40
0.1377659927417808
 41
3.296384117292438
 42
4.518114593693583
  0
LINE
  5
9EA
330
9A7
100
AcDbEntity
  8
0
100
AcDbLine
 10
-22.45917600970655
 20
26.95234078859374
 30
0.0
 11
-25.89060973854638
 21
56.59507411444166
 31
0.0
  0
LINE
  5
9EB
330
9A7
100
AcDbEntity
  8
0
100
AcDbLine
 10
25.50000000000001
 20
135.0
 30
0.0
 11
-25.49999999999999
 21
135.0
 31
0.0
  0
LINE
  5
9EC
330
9A7
100
AcDbEntity
  8
0
100
AcDbLine
 10
-13.14629605568256
 20
12.99999999999999
 30
0.0
 11
-19.40135808271007
 21
57.50707895874676
 31
0.0
  0
LINE
  5
9ED
330
9A7
100
AcDbEntity
  8
0
100
AcDbLine
 10
19.40135808271009
 20
57.50707895874676
 30
0.0
 11
13.14629605568258
 21
12.99999999999999
 31
0.0
  0
ELLIPSE
  5
9EE
330
9A7
100
AcDbEntity
  8
0
100
AcDbEllipse
 10
14.13008189859931
 20
12.99999999999999
 30
0.0
 11
-0.9932598611245534
 21
-9.999531768717298
 31
0.0
210
0.0
220
0.0
230
1.0
 40
0.0974265314997314
 41
4.722066117737837
 42
6.292862444532735
  0
ELLIPSE
  5
9EF
330
9A7
100
AcDbEntity
  8
0
100
AcDbEllipse
 10
-14.13008189859931
 20
12.99999999999999
 30
0.0
 11
-0.9932598611246525
 21
9.999531768717289
 31
0.0
210
0.0
220
0.0
230
0.9999999999999998
 40
0.0974265314997322
 41
3.131915516220285
 42
4.702711843026084
  0
LINE
  5
9F0
330
9A7
100
AcDbEntity
  8
0
100
AcDbLine
 10
11.25186178957983
 20
7.956249513346433
 30
0.0
 11
-10.50942157036229
 21
7.956249513346437
 31
0.0
  0
LINE
  5
9F1
330
9A7
100
AcDbEntity
  8
0
100
AcDbLine
 10
22.45917600970654
 20
14.78494715841456
 30
0.0
 11
25.89060973854639
 21
9.558133491121624
 31
0.0
  0
LINE
  5
9F2
330
9A7
100
AcDbEntity
  8
0
100
AcDbLine
 10
25.89060973854638
 20
56.59507411444167
 30
0.0
 11
22.45917600970654
 21
26.95234078859373
 31
0.0
  0
ELLIPSE
  5
9F3
330
9A7
100
AcDbEntity
  8
0
100
AcDbEllipse
 10
24.90133146166027
 20
29.55706345359769
 30
0.0
 11
-2.149316260459677
 21
-14.99707715516456
 31
0.0
210
0.0
220
0.0
230
1.0
 40
0.1377659927417799
 41
4.906663367072864
 42
6.1283938434689
  0
LINE
  5
9F4
330
9A7
100
AcDbEntity
  8
0
100
AcDbLine
 10
32.49999999999996
 20
0.0
 30
0.0
 11
32.49999999999996
 21
2.99999999999999
 31
0.0
  0
LINE
  5
9F5
330
9A7
100
AcDbEntity
  8
0
100
AcDbLine
 10
-32.50000000000003
 20
2.999999999999997
 30
0.0
 11
-32.50000000000003
 21
0.0
 31
0.0
  0
ENDBLK
  5
9A9
330
9A7
100
AcDbEntity
  8
0
100
AcDbBlockEnd
  0
BLOCK
  5
9F7
330
9F6
100
AcDbEntity
  8
0
100
AcDbBlockBegin
  2
AKR135Z-Left
 70
     0
 10
0.0
 20
0.0
 30
0.0
  3
AKR135Z-Left
  1

  0
ELLIPSE
  5
9F9
330
9F6
100
AcDbEntity
  8
0
100
AcDbEllipse
 10
6.000000000000001
 20
57.50707895874676
 30
0.0
 11
-6.0
 21
-0.000000000000001
 31
0.0
210
0.0
220
0.0
230
1.0
 40
0.139173100960066
 41
0.0
 42
1.432511480600928
  0
LINE
  5
9FA
330
9F6
100
AcDbEntity
  8
0
100
AcDbLine
 10
9.558133491121632
 20
56.59507411444163
 30
0.0
 11
5.172932775050226
 21
56.68001173379697
 31
0.0
  0
SPLINE
  5
9FB
330
9F6
100
AcDbEntity
  8
0
100
AcDbSpline
210
0.0
220
0.0
230
1.0
 70
     8
 71
     3
 72
    20
 73
    16
 74
     0
 42
0.000000001
 43
0.0000000001
 40
-1.0
 40
-1.0
 40
-1.0
 40
-1.0
 40
-0.8557507846683195
 40
-0.8557507846683195
 40
-0.8557507846683195
 40
-0.4725410755540734
 40
-0.4725410755540734
 40
-0.4725410755540734
 40
-0.2262668722288412
 40
-0.2262668722288412
 40
-0.2262668722288412
 40
-0.0545088760457658
 40
-0.0545088760457658
 40
-0.0545088760457658
 40
0.0
 40
0.0
 40
0.0
 40
0.0
 10
-0.0000000000000127
 20
71.49999999999986
 30
0.0
 10
-0.0000078262250649
 20
70.51422263202124
 30
0.0
 10
0.1669297411121825
 20
69.60755482003513
 30
0.0
 10
0.4742787332309791
 20
68.7957910374861
 30
0.0
 10
1.290776192822593
 20
66.63927488407185
 30
0.0
 10
2.992237894652656
 20
65.0916475761896
 30
0.0
 10
4.72164872416673
 20
63.52662748020549
 30
0.0
 10
5.833074828805511
 20
62.52084900393113
 30
0.0
 10
6.953174980386971
 20
61.51295505185365
 30
0.0
 10
7.846564790700556
 20
60.34589916495416
 30
0.0
 10
8.469637940701558
 20
59.5319642182119
 30
0.0
 10
8.989941880013947
 20
58.62483513657548
 30
0.0
 10
9.312718229935356
 20
57.60015142180008
 30
0.0
 10
9.415154078276398
 20
57.27495923956668
 30
0.0
 10
9.494468906985623
 20
56.93850065069966
 30
0.0
 10
9.558133491115048
 20
56.59507411448338
 30
0.0
  0
LINE
  5
9FC
330
9F6
100
AcDbEntity
  8
0
100
AcDbLine
 10
0.0
 20
57.50707895874676
 30
0.0
 11
0.0
 21
71.49999999999993
 31
0.0
  0
LINE
  5
9FD
330
9F6
100
AcDbEntity
  8
0
100
AcDbLine
 10
9.540395631335336
 20
56.69567051616645
 30
0.0
 11
9.558133491121607
 21
56.59507411444164
 31
0.0
  0
LINE
  5
9FE
330
9F6
100
AcDbEntity
  8
0
100
AcDbLine
 10
9.483549287033973
 20
57.01806215511449
 30
0.0
 11
9.540395631335336
 21
56.69567051616645
 31
0.0
  0
SPLINE
  5
9FF
330
9F6
100
AcDbEntity
  8
0
100
AcDbSpline
210
0.0
220
0.0
230
1.0
 70
     8
 71
     3
 72
    20
 73
    16
 74
     0
 42
0.000000001
 43
0.0000000001
 40
-1.0
 40
-1.0
 40
-1.0
 40
-1.0
 40
-0.9088715958329444
 40
-0.9088715958329444
 40
-0.9088715958329444
 40
-0.5828186689869098
 40
-0.5828186689869098
 40
-0.5828186689869098
 40
-0.2914093344934549
 40
-0.2914093344934549
 40
-0.2914093344934549
 40
-0.0928699318600557
 40
-0.0928699318600557
 40
-0.0928699318600557
 40
0.0
 40
0.0
 40
0.0
 40
0.0
 10
9.483549287033968
 20
57.01806215511449
 30
0.0
 10
9.381205847232649
 20
57.57938543731778
 30
0.0
 10
9.242871727533787
 20
58.14364667626664
 30
0.0
 10
9.075602150584499
 20
58.64983352162081
 30
0.0
 10
8.47711987016803
 20
60.46094504022184
 30
0.0
 10
7.532747205687577
 20
61.82174983836237
 30
0.0
 10
6.557137773804656
 20
63.11352620216433
 30
0.0
 10
5.685188247018809
 20
64.26804946969403
 30
0.0
 10
4.799672206599675
 20
65.35846526265179
 30
0.0
 10
4.126648050399493
 20
66.6699138909953
 30
0.0
 10
3.668111558553405
 20
67.56341384599267
 30
0.0
 10
3.310874912189953
 20
68.5591554986608
 30
0.0
 10
3.128360718183704
 20
69.72610773898603
 30
0.0
 10
3.042986829998135
 20
70.27196802467982
 30
0.0
 10
3.002604530250605
 20
70.8626389280342
 30
0.0
 10
2.999999999892111
 20
71.5000000000629
 30
0.0
  0
ELLIPSE
  5
A00
330
9F6
100
AcDbEntity
  8
0
100
AcDbEllipse
 10
57.50707895874676
 20
5.999999999999987
 30
0.0
 11
0.0000000000000006
 21
-6.0
 31
0.0
210
0.0
220
0.0
230
1.0
 40
0.1391731009600662
 41
4.850673826578719
 42
6.283185307179711
  0
LINE
  5
A01
330
9F6
100
AcDbEntity
  8
0
100
AcDbLine
 10
57.50707895874676
 20
0.0
 30
0.0
 11
71.49999999999993
 21
0.0
 31
0.0
  0
SPLINE
  5
A02
330
9F6
100
AcDbEntity
  8
0
100
AcDbSpline
210
0.0
220
0.0
230
1.0
 70
     8
 71
     3
 72
    20
 73
    16
 74
     0
 42
0.000000001
 43
0.0000000001
 40
-1.0
 40
-1.0
 40
-1.0
 40
-1.0
 40
-0.8557507846683195
 40
-0.8557507846683195
 40
-0.8557507846683195
 40
-0.4725410755540734
 40
-0.4725410755540734
 40
-0.4725410755540734
 40
-0.2262668722288412
 40
-0.2262668722288412
 40
-0.2262668722288412
 40
-0.0545088760457658
 40
-0.0545088760457658
 40
-0.0545088760457658
 40
0.0
 40
0.0
 40
0.0
 40
0.0
 10
71.49999999999986
 20
-0.0000000000000109
 30
0.0
 10
70.51422263202124
 20
-0.0000078262250631
 30
0.0
 10
69.60755482003513
 20
0.1669297411121843
 30
0.0
 10
68.7957910374861
 20
0.4742787332309808
 30
0.0
 10
66.63927488407185
 20
1.290776192822594
 30
0.0
 10
65.0916475761896
 20
2.992237894652657
 30
0.0
 10
63.52662748020549
 20
4.72164872416673
 30
0.0
 10
62.52084900393113
 20
5.833074828805511
 30
0.0
 10
61.51295505185365
 20
6.953174980386971
 30
0.0
 10
60.34589916495416
 20
7.846564790700555
 30
0.0
 10
59.5319642182119
 20
8.469637940701556
 30
0.0
 10
58.62483513657548
 20
8.989941880013944
 30
0.0
 10
57.60015142180008
 20
9.312718229935354
 30
0.0
 10
57.27495923956668
 20
9.415154078276398
 30
0.0
 10
56.93850065069966
 20
9.494468906985623
 30
0.0
 10
56.59507411448338
 20
9.558133491115047
 30
0.0
  0
LINE
  5
A03
330
9F6
100
AcDbEntity
  8
0
100
AcDbLine
 10
56.68001173379697
 20
5.172932775050217
 30
0.0
 11
56.59507411444163
 21
9.558133491121624
 31
0.0
  0
SPLINE
  5
A04
330
9F6
100
AcDbEntity
  8
0
100
AcDbSpline
210
0.0
220
0.0
230
1.0
 70
     8
 71
     3
 72
    20
 73
    16
 74
     0
 42
0.000000001
 43
0.0000000001
 40
-1.0
 40
-1.0
 40
-1.0
 40
-1.0
 40
-0.8565140843593937
 40
-0.8565140843593937
 40
-0.8565140843593937
 40
-0.5402558541842986
 40
-0.5402558541842986
 40
-0.5402558541842986
 40
-0.2701279270921493
 40
-0.2701279270921493
 40
-0.2701279270921493
 40
-0.0852549168078418
 40
-0.0852549168078418
 40
-0.0852549168078418
 40
0.0
 40
0.0
 40
0.0
 40
0.0
 10
57.01806215511448
 20
9.483549287033959
 30
0.0
 10
57.92230508726804
 20
9.320092462344167
 30
0.0
 10
58.75125606593145
 20
9.072461725055756
 30
0.0
 10
59.49063806021638
 20
8.763930907759093
 30
0.0
 10
61.12031467266928
 20
8.08389614757316
 30
0.0
 10
62.37298809433237
 20
7.123035516962779
 30
0.0
 10
63.61722483984734
 20
6.173960274836075
 30
0.0
 10
64.6799737608533
 20
5.363319781248835
 30
0.0
 10
65.70892477045386
 20
4.579673909819006
 30
0.0
 10
66.95682341167344
 20
3.984753324035453
 30
0.0
 10
67.81087349385271
 20
3.57759527578082
 30
0.0
 10
68.7654776648898
 20
3.265340377926666
 30
0.0
 10
69.85892594190142
 20
3.108560584061584
 30
0.0
 10
70.36317392134927
 20
3.036260964649519
 30
0.0
 10
70.90289999942267
 20
2.999954352938685
 30
0.0
 10
71.50000000006288
 20
2.999999999892052
 30
0.0
  0
LINE
  5
A05
330
9F6
100
AcDbEntity
  8
0
100
AcDbLine
 10
56.59507411444164
 20
9.558133491121619
 30
0.0
 11
56.69567051616468
 21
9.540395631335659
 31
0.0
  0
LINE
  5
A06
330
9F6
100
AcDbEntity
  8
0
100
AcDbLine
 10
56.72711921707819
 20
9.534850376856379
 30
0.0
 11
57.01806215511449
 21
9.483549287033985
 31
0.0
  0
LINE
  5
A07
330
9F6
100
AcDbEntity
  8
0
100
AcDbLine
 10
56.69567051616468
 20
9.540395631335659
 30
0.0
 11
56.72711921707819
 21
9.534850376856379
 31
0.0
  0
LINE
  5
A08
330
9F6
100
AcDbEntity
  8
0
100
AcDbLine
 10
0.0
 20
57.50707895874676
 30
0.0
 11
0.0
 21
9.999999999999991
 31
0.0
  0
ARC
  5
A09
330
9F6
100
AcDbEntity
  8
0
100
AcDbCircle
 10
10.0
 20
9.999999999999991
 30
0.0
 40
9.999999999999998
100
AcDbArc
 50
180.0
 51
270.0
  0
LINE
  5
A0A
330
9F6
100
AcDbEntity
  8
0
100
AcDbLine
 10
10.0
 20
0.0
 30
0.0
 11
57.50707895874676
 21
0.0
 31
0.0
  0
LINE
  5
A0B
330
9F6
100
AcDbEntity
  8
0
100
AcDbLine
 10
0.0
 20
128.0
 30
0.0
 11
0.0
 21
71.4999999999999
 31
0.0
  0
LINE
  5
A0C
330
9F6
100
AcDbEntity
  8
0
100
AcDbLine
 10
0.0
 20
135.0
 30
0.0
 11
0.0
 21
128.0
 31
0.0
  0
LINE
  5
A0D
330
9F6
100
AcDbEntity
  8
0
100
AcDbLine
 10
77.99999999999998
 20
0.0
 30
0.0
 11
85.0
 21
0.0
 31
0.0
  0
LINE
  5
A0E
330
9F6
100
AcDbEntity
  8
0
100
AcDbLine
 10
3.000000000000001
 20
128.0
 30
0.0
 11
3.000000000000005
 21
135.0
 31
0.0
  0
LINE
  5
A0F
330
9F6
100
AcDbEntity
  8
0
100
AcDbLine
 10
85.0
 20
2.999999999999987
 30
0.0
 11
77.99999999999998
 21
2.999999999999988
 31
0.0
  0
LINE
  5
A10
330
9F6
100
AcDbEntity
  8
0
100
AcDbLine
 10
85.0
 20
0.0
 30
0.0
 11
85.0
 21
2.999999999999987
 31
0.0
  0
LINE
  5
A11
330
9F6
100
AcDbEntity
  8
0
100
AcDbLine
 10
0.0
 20
128.0
 30
0.0
 11
3.000000000000001
 21
128.0
 31
0.0
  0
LINE
  5
A12
330
9F6
100
AcDbEntity
  8
0
100
AcDbLine
 10
71.49999999999993
 20
0.0
 30
0.0
 11
77.99999999999998
 21
0.0
 31
0.0
  0
LINE
  5
A13
330
9F6
100
AcDbEntity
  8
0
100
AcDbLine
 10
71.49999999999993
 20
2.999999999999989
 30
0.0
 11
77.99999999999998
 21
2.999999999999988
 31
0.0
  0
LINE
  5
A14
330
9F6
100
AcDbEntity
  8
0
100
AcDbLine
 10
77.99999999999998
 20
2.999999999999988
 30
0.0
 11
77.99999999999998
 21
0.0
 31
0.0
  0
LINE
  5
A15
330
9F6
100
AcDbEntity
  8
0
100
AcDbLine
 10
56.59507411444166
 20
9.558133491121623
 30
0.0
 11
26.95234078859373
 21
14.78494715841456
 31
0.0
  0
ARC
  5
A16
330
9F6
100
AcDbEntity
  8
0
100
AcDbCircle
 10
29.55706345359767
 20
29.55706345359769
 30
0.0
 40
15.0
100
AcDbArc
 50
190.0
 51
260.0
  0
LINE
  5
A17
330
9F6
100
AcDbEntity
  8
0
100
AcDbLine
 10
14.78494715841456
 20
26.95234078859373
 30
0.0
 11
9.558133491121608
 21
56.59507411444164
 31
0.0
  0
LINE
  5
A18
330
9F6
100
AcDbEntity
  8
0
100
AcDbLine
 10
2.999999999999997
 20
71.4999999999999
 30
0.0
 11
3.000000000000001
 21
128.0
 31
0.0
  0
LINE
  5
A19
330
9F6
100
AcDbEntity
  8
0
100
AcDbLine
 10
3.000000000000005
 20
135.0
 30
0.0
 11
0.0
 21
135.0
 31
0.0
  0
ENDBLK
  5
9F8
330
9F6
100
AcDbEntity
  8
0
100
AcDbBlockEnd
  0
BLOCK
  5
A1B
330
A1A
100
AcDbEntity
  8
0
100
AcDbBlockBegin
  2
AKR135Z-Right
 70
     0
 10
0.0
 20
0.0
 30
0.0
  3
AKR135Z-Right
  1

  0
SPLINE
  5
A1D
330
A1A
100
AcDbEntity
  8
0
100
AcDbSpline
210
0.0
220
0.0
230
1.0
 70
     8
 71
     3
 72
    14
 73
    10
 74
     0
 42
0.000000001
 43
0.0000000001
 40
-0.997791135887833
 40
-0.997791135887833
 40
-0.997791135887833
 40
-0.997791135887833
 40
-0.9088715958329444
 40
-0.9088715958329444
 40
-0.9088715958329444
 40
-0.5828186689869098
 40
-0.5828186689869098
 40
-0.5828186689869098
 40
-0.3945525681298281
 40
-0.3945525681298281
 40
-0.3945525681298281
 40
-0.3945525681298281
 10
-9.47604383354632
 20
57.05888426008629
 30
0.0
 10
-9.374482677043395
 20
57.60670560690622
 30
0.0
 10
-9.238817275258915
 20
58.15591615433962
 30
0.0
 10
-9.075602150584499
 20
58.64983352162081
 30
0.0
 10
-8.47711987016803
 20
60.46094504022184
 30
0.0
 10
-7.532747205687577
 20
61.82174983836237
 30
0.0
 10
-6.557137773804656
 20
63.11352620216433
 30
0.0
 10
-5.993811489705008
 20
63.85941031841756
 30
0.0
 10
-5.424822739783728
 20
64.57853690554525
 30
0.0
 10
-4.911128954568994
 20
65.34779503646024
 30
0.0
  0
SPLINE
  5
A1E
330
A1A
100
AcDbEntity
  8
0
100
AcDbSpline
210
0.0
220
0.0
230
1.0
 70
     8
 71
     3
 72
    11
 73
     7
 74
     0
 42
0.000000001
 43
0.0000000001
 40
-0.2254785667258471
 40
-0.2254785667258471
 40
-0.2254785667258471
 40
-0.2254785667258471
 40
-0.0928699318600557
 40
-0.0928699318600557
 40
-0.0928699318600557
 40
0.0
 40
0.0
 40
0.0
 40
0.0
 10
-3.706038760933816
 20
67.59640186052756
 30
0.0
 10
-3.45011775143547
 20
68.24362414414891
 30
0.0
 10
-3.25026577979754
 20
68.94667584037773
 30
0.0
 10
-3.128360718183704
 20
69.72610773898603
 30
0.0
 10
-3.042986829998135
 20
70.27196802467982
 30
0.0
 10
-3.002604530250605
 20
70.8626389280342
 30
0.0
 10
-2.999999999892111
 20
71.5000000000629
 30
0.0
  0
SPLINE
  5
A1F
330
A1A
100
AcDbEntity
  8
0
100
AcDbSpline
210
0.0
220
0.0
230
1.0
 70
     8
 71
     3
 72
    20
 73
    16
 74
     0
 42
0.000000001
 43
0.0000000001
 40
-1.0
 40
-1.0
 40
-1.0
 40
-1.0
 40
-0.8565140843593937
 40
-0.8565140843593937
 40
-0.8565140843593937
 40
-0.5402558541842986
 40
-0.5402558541842986
 40
-0.5402558541842986
 40
-0.2701279270921493
 40
-0.2701279270921493
 40
-0.2701279270921493
 40
-0.0852549168078418
 40
-0.0852549168078418
 40
-0.0852549168078418
 40
0.0
 40
0.0
 40
0.0
 40
0.0
 10
-9.483549287033984
 20
57.01806215511448
 30
0.0
 10
-9.320092462344192
 20
57.92230508726804
 30
0.0
 10
-9.072461725055781
 20
58.75125606593145
 30
0.0
 10
-8.763930907759117
 20
59.49063806021638
 30
0.0
 10
-8.083896147573184
 20
61.12031467266928
 30
0.0
 10
-7.123035516962803
 20
62.37298809433237
 30
0.0
 10
-6.173960274836101
 20
63.61722483984734
 30
0.0
 10
-5.363319781248861
 20
64.6799737608533
 30
0.0
 10
-4.579673909819032
 20
65.70892477045386
 30
0.0
 10
-3.984753324035479
 20
66.95682341167344
 30
0.0
 10
-3.577595275780847
 20
67.81087349385271
 30
0.0
 10
-3.265340377926694
 20
68.7654776648898
 30
0.0
 10
-3.108560584061611
 20
69.85892594190142
 30
0.0
 10
-3.036260964649546
 20
70.36317392134927
 30
0.0
 10
-2.999954352938711
 20
70.90289999942267
 30
0.0
 10
-2.99999999989208
 20
71.50000000006288
 30
0.0
  0
ELLIPSE
  5
A20
330
A1A
100
AcDbEntity
  8
0
100
AcDbEllipse
 10
-6.000000000000019
 20
57.50707895874676
 30
0.0
 11
6.0
 21
-0.0000000000000095
 31
0.0
210
0.0
220
0.0
230
1.0
 40
0.1391731009600659
 41
4.850673826579114
 42
6.28318530718048
  0
LINE
  5
A21
330
A1A
100
AcDbEntity
  8
0
100
AcDbLine
 10
0.0
 20
57.50707895874676
 30
0.0
 11
0.0
 21
71.49999999999993
 31
0.0
  0
SPLINE
  5
A22
330
A1A
100
AcDbEntity
  8
0
100
AcDbSpline
210
0.0
220
0.0
230
1.0
 70
     8
 71
     3
 72
    20
 73
    16
 74
     0
 42
0.000000001
 43
0.0000000001
 40
-1.0
 40
-1.0
 40
-1.0
 40
-1.0
 40
-0.8557507846683195
 40
-0.8557507846683195
 40
-0.8557507846683195
 40
-0.4725410755540734
 40
-0.4725410755540734
 40
-0.4725410755540734
 40
-0.2262668722288412
 40
-0.2262668722288412
 40
-0.2262668722288412
 40
-0.0545088760457658
 40
-0.0545088760457658
 40
-0.0545088760457658
 40
0.0
 40
0.0
 40
0.0
 40
0.0
 10
-0.0000000000000164
 20
71.49999999999986
 30
0.0
 10
0.0000078262250357
 20
70.51422263202124
 30
0.0
 10
-0.1669297411122115
 20
69.60755482003513
 30
0.0
 10
-0.474278733231008
 20
68.7957910374861
 30
0.0
 10
-1.290776192822621
 20
66.63927488407185
 30
0.0
 10
-2.992237894652683
 20
65.0916475761896
 30
0.0
 10
-4.721648724166756
 20
63.52662748020549
 30
0.0
 10
-5.833074828805537
 20
62.52084900393113
 30
0.0
 10
-6.953174980386997
 20
61.51295505185365
 30
0.0
 10
-7.846564790700581
 20
60.34589916495416
 30
0.0
 10
-8.469637940701579
 20
59.5319642182119
 30
0.0
 10
-8.989941880013969
 20
58.62483513657548
 30
0.0
 10
-9.312718229935379
 20
57.60015142180008
 30
0.0
 10
-9.415154078276421
 20
57.27495923956668
 30
0.0
 10
-9.494468906985646
 20
56.93850065069966
 30
0.0
 10
-9.558133491115071
 20
56.59507411448338
 30
0.0
  0
LINE
  5
A23
330
A1A
100
AcDbEntity
  8
0
100
AcDbLine
 10
-5.172932775050247
 20
56.68001173379697
 30
0.0
 11
-9.558133491121655
 21
56.59507411444163
 31
0.0
  0
LINE
  5
A24
330
A1A
100
AcDbEntity
  8
0
100
AcDbLine
 10
-9.558133491121632
 20
56.59507411444164
 30
0.0
 11
-9.540395631335359
 21
56.69567051616645
 31
0.0
  0
LINE
  5
A25
330
A1A
100
AcDbEntity
  8
0
100
AcDbLine
 10
-9.534850376856729
 20
56.72711921707627
 30
0.0
 11
-9.483549287033998
 21
57.01806215511449
 31
0.0
  0
LINE
  5
A26
330
A1A
100
AcDbEntity
  8
0
100
AcDbLine
 10
-9.540395631335359
 20
56.69567051616645
 30
0.0
 11
-9.534850376856729
 21
56.72711921707627
 31
0.0
  0
ELLIPSE
  5
A27
330
A1A
100
AcDbEntity
  8
0
100
AcDbEllipse
 10
-57.50707895874676
 20
5.999999999999984
 30
0.0
 11
0.0000000000000009
 21
-6.000000000000001
 31
0.0
210
0.0
220
0.0
230
1.0
 40
0.1391731009600658
 41
0.0
 42
1.432511480600928
  0
LINE
  5
A28
330
A1A
100
AcDbEntity
  8
0
100
AcDbLine
 10
-56.59507411444167
 20
9.558133491121619
 30
0.0
 11
-56.68001173379701
 21
5.17293277505021
 31
0.0
  0
SPLINE
  5
A29
330
A1A
100
AcDbEntity
  8
0
100
AcDbSpline
210
0.0
220
0.0
230
1.0
 70
     8
 71
     3
 72
    20
 73
    16
 74
     0
 42
0.000000001
 43
0.0000000001
 40
-1.0
 40
-1.0
 40
-1.0
 40
-1.0
 40
-0.8557507846683195
 40
-0.8557507846683195
 40
-0.8557507846683195
 40
-0.4725410755540734
 40
-0.4725410755540734
 40
-0.4725410755540734
 40
-0.2262668722288412
 40
-0.2262668722288412
 40
-0.2262668722288412
 40
-0.0545088760457658
 40
-0.0545088760457658
 40
-0.0545088760457658
 40
0.0
 40
0.0
 40
0.0
 40
0.0
 10
-71.49999999999988
 20
-0.0000000000000174
 30
0.0
 10
-70.51422263202129
 20
-0.0000078262250696
 30
0.0
 10
-69.60755482003517
 20
0.1669297411121777
 30
0.0
 10
-68.79579103748612
 20
0.4742787332309744
 30
0.0
 10
-66.63927488407189
 20
1.290776192822588
 30
0.0
 10
-65.09164757618963
 20
2.992237894652651
 30
0.0
 10
-63.52662748020552
 20
4.721648724166723
 30
0.0
 10
-62.52084900393116
 20
5.833074828805504
 30
0.0
 10
-61.51295505185368
 20
6.953174980386966
 30
0.0
 10
-60.3458991649542
 20
7.846564790700549
 30
0.0
 10
-59.53196421821194
 20
8.469637940701549
 30
0.0
 10
-58.62483513657552
 20
8.989941880013939
 30
0.0
 10
-57.6001514218001
 20
9.312718229935349
 30
0.0
 10
-57.27495923956673
 20
9.415154078276392
 30
0.0
 10
-56.9385006506997
 20
9.494468906985618
 30
0.0
 10
-56.59507411448341
 20
9.558133491115041
 30
0.0
  0
LINE
  5
A2A
330
A1A
100
AcDbEntity
  8
0
100
AcDbLine
 10
-57.50707895874676
 20
0.0
 30
0.0
 11
-71.49999999999995
 21
0.0
 31
0.0
  0
SPLINE
  5
A2B
330
A1A
100
AcDbEntity
  8
0
100
AcDbSpline
210
0.0
220
0.0
230
1.0
 70
     8
 71
     3
 72
    20
 73
    16
 74
     0
 42
0.000000001
 43
0.0000000001
 40
-1.0
 40
-1.0
 40
-1.0
 40
-1.0
 40
-0.8565140843593937
 40
-0.8565140843593937
 40
-0.8565140843593937
 40
-0.5402558541842986
 40
-0.5402558541842986
 40
-0.5402558541842986
 40
-0.2701279270921493
 40
-0.2701279270921493
 40
-0.2701279270921493
 40
-0.0852549168078418
 40
-0.0852549168078418
 40
-0.0852549168078418
 40
0.0
 40
0.0
 40
0.0
 40
0.0
 10
-57.01806215511452
 20
9.483549287033953
 30
0.0
 10
-57.92230508726809
 20
9.320092462344163
 30
0.0
 10
-58.75125606593148
 20
9.072461725055752
 30
0.0
 10
-59.49063806021642
 20
8.763930907759089
 30
0.0
 10
-61.12031467266931
 20
8.083896147573156
 30
0.0
 10
-62.37298809433241
 20
7.123035516962774
 30
0.0
 10
-63.61722483984737
 20
6.173960274836069
 30
0.0
 10
-64.67997376085334
 20
5.363319781248829
 30
0.0
 10
-65.70892477045389
 20
4.579673909819
 30
0.0
 10
-66.95682341167348
 20
3.984753324035446
 30
0.0
 10
-67.81087349385273
 20
3.577595275780813
 30
0.0
 10
-68.76547766488982
 20
3.26534037792666
 30
0.0
 10
-69.85892594190144
 20
3.108560584061578
 30
0.0
 10
-70.3631739213493
 20
3.036260964649513
 30
0.0
 10
-70.9028999994227
 20
2.999954352938678
 30
0.0
 10
-71.50000000006293
 20
2.999999999892046
 30
0.0
  0
LINE
  5
A2C
330
A1A
100
AcDbEntity
  8
0
100
AcDbLine
 10
-56.69567051616471
 20
9.540395631335655
 30
0.0
 11
-56.59507411444168
 21
9.558133491121616
 31
0.0
  0
LINE
  5
A2D
330
A1A
100
AcDbEntity
  8
0
100
AcDbLine
 10
-56.72711921707822
 20
9.534850376856375
 30
0.0
 11
-56.69567051616471
 21
9.540395631335655
 31
0.0
  0
LINE
  5
A2E
330
A1A
100
AcDbEntity
  8
0
100
AcDbLine
 10
-57.01806215511453
 20
9.483549287033984
 30
0.0
 11
-56.72711921707822
 21
9.534850376856375
 31
0.0
  0
LINE
  5
A2F
330
A1A
100
AcDbEntity
  8
0
100
AcDbLine
 10
0.0
 20
9.999999999999989
 30
0.0
 11
0.0
 21
57.50707895874676
 31
0.0
  0
ARC
  5
A30
330
A1A
100
AcDbEntity
  8
0
100
AcDbCircle
 10
-10.00000000000001
 20
9.999999999999989
 30
0.0
 40
10.0
100
AcDbArc
 50
270.0
 51
0.0
  0
LINE
  5
A31
330
A1A
100
AcDbEntity
  8
0
100
AcDbLine
 10
-57.50707895874676
 20
0.0
 30
0.0
 11
-10.00000000000001
 21
0.0
 31
0.0
  0
LINE
  5
A32
330
A1A
100
AcDbEntity
  8
0
100
AcDbLine
 10
0.0
 20
128.0
 30
0.0
 11
0.0
 21
135.0
 31
0.0
  0
LINE
  5
A33
330
A1A
100
AcDbEntity
  8
0
100
AcDbLine
 10
-85.0
 20
0.0
 30
0.0
 11
-78.00000000000003
 21
0.0
 31
0.0
  0
LINE
  5
A34
330
A1A
100
AcDbEntity
  8
0
100
AcDbLine
 10
-3.000000000000027
 20
135.0
 30
0.0
 11
-3.00000000000003
 21
128.0
 31
0.0
  0
LINE
  5
A35
330
A1A
100
AcDbEntity
  8
0
100
AcDbLine
 10
-78.00000000000003
 20
2.999999999999982
 30
0.0
 11
-85.0
 21
2.999999999999982
 31
0.0
  0
LINE
  5
A36
330
A1A
100
AcDbEntity
  8
0
100
AcDbLine
 10
-85.0
 20
2.999999999999982
 30
0.0
 11
-85.0
 21
0.0
 31
0.0
  0
LINE
  5
A37
330
A1A
100
AcDbEntity
  8
0
100
AcDbLine
 10
-3.00000000000003
 20
128.0
 30
0.0
 11
0.0
 21
128.0
 31
0.0
  0
LINE
  5
A38
330
A1A
100
AcDbEntity
  8
0
100
AcDbLine
 10
0.0
 20
71.4999999999999
 30
0.0
 11
0.0
 21
128.0
 31
0.0
  0
LINE
  5
A39
330
A1A
100
AcDbEntity
  8
0
100
AcDbLine
 10
-78.00000000000003
 20
0.0
 30
0.0
 11
-71.49999999999995
 21
0.0
 31
0.0
  0
LINE
  5
A3A
330
A1A
100
AcDbEntity
  8
0
100
AcDbLine
 10
-78.00000000000003
 20
2.999999999999982
 30
0.0
 11
-71.49999999999995
 21
2.999999999999982
 31
0.0
  0
LINE
  5
A3B
330
A1A
100
AcDbEntity
  8
0
100
AcDbLine
 10
-78.00000000000003
 20
0.0
 30
0.0
 11
-78.00000000000003
 21
2.999999999999982
 31
0.0
  0
LINE
  5
A3C
330
A1A
100
AcDbEntity
  8
0
100
AcDbLine
 10
-3.000000000000025
 20
71.4999999999999
 30
0.0
 11
-3.00000000000003
 21
128.0
 31
0.0
  0
LINE
  5
A3D
330
A1A
100
AcDbEntity
  8
0
100
AcDbLine
 10
-26.95234078859375
 20
14.78494715841456
 30
0.0
 11
-56.59507411444167
 21
9.558133491121616
 31
0.0
  0
LINE
  5
A3E
330
A1A
100
AcDbEntity
  8
0
100
AcDbLine
 10
-9.55813349112163
 20
56.59507411444166
 30
0.0
 11
-14.78494715841457
 21
26.95234078859372
 31
0.0
  0
ARC
  5
A3F
330
A1A
100
AcDbEntity
  8
0
100
AcDbCircle
 10
-29.55706345359769
 20
29.55706345359768
 30
0.0
 40
15.0
100
AcDbArc
 50
279.9999999999999
 51
350.0
  0
LINE
  5
A40
330
A1A
100
AcDbEntity
  8
0
100
AcDbLine
 10
0.0
 20
135.0
 30
0.0
 11
-3.000000000000027
 21
135.0
 31
0.0
  0
ENDBLK
  5
A1C
330
A1A
100
AcDbEntity
  8
0
100
AcDbBlockEnd
  0
BLOCK
  5
A42
330
A41
100
AcDbEntity
  8
0
100
AcDbBlockBegin
  2
AKR135Z-Top
 70
     0
 10
0.0
 20
0.0
 30
0.0
  3
AKR135Z-Top
  1

  0
CIRCLE
  5
A44
330
A41
100
AcDbEntity
  8
0
100
AcDbCircle
 10
-0.0000000000000088
 20
-25.00000000000001
 30
0.0
 40
6.749999999999996
  0
CIRCLE
  5
A45
330
A41
100
AcDbEntity
  8
0
100
AcDbCircle
 10
-0.0000000000000266
 20
-65.00000000000001
 30
0.0
 40
5.5
  0
CIRCLE
  5
A46
330
A41
100
AcDbEntity
  8
0
100
AcDbCircle
 10
-22.50000000000003
 20
-74.99999999999999
 30
0.0
 40
2.6
  0
CIRCLE
  5
A47
330
A41
100
AcDbEntity
  8
0
100
AcDbCircle
 10
22.49999999999996
 20
-75.00000000000003
 30
0.0
 40
2.6
  0
LINE
  5
A48
330
A41
100
AcDbEntity
  8
0
100
AcDbLine
 10
19.40049474616514
 20
-26.95234078859375
 30
0.0
 11
22.88089344101219
 21
-57.01806215511452
 31
0.0
  0
ELLIPSE
  5
A49
330
A41
100
AcDbEntity
  8
0
100
AcDbEllipse
 10
21.84265019811888
 20
-29.55706345359769
 30
0.0
 11
2.149316260459895
 21
-14.99707715516453
 31
0.0
210
0.0
220
0.0
230
1.0
 40
0.1377659927417796
 41
3.296384117292443
 42
4.518114593693587
  0
LINE
  5
A4A
330
A41
100
AcDbEntity
  8
0
100
AcDbLine
 10
22.88089344101218
 20
-9.483549287034001
 30
0.0
 11
19.40049474616514
 21
-14.78494715841457
 31
0.0
  0
LINE
  5
A4B
330
A41
100
AcDbEntity
  8
0
100
AcDbLine
 10
-19.40049474616514
 20
-14.78494715841456
 30
0.0
 11
-22.88089344101218
 21
-9.483549287033977
 31
0.0
  0
ELLIPSE
  5
A4C
330
A41
100
AcDbEntity
  8
0
100
AcDbEllipse
 10
-21.84265019811888
 20
-29.55706345359767
 30
0.0
 11
2.149316260459696
 21
14.99707715516456
 31
0.0
210
0.0
220
0.0
230
1.0
 40
0.1377659927417794
 41
4.90666336707286
 42
6.128393843468891
  0
LINE
  5
A4D
330
A41
100
AcDbEntity
  8
0
100
AcDbLine
 10
-22.88089344101225
 20
-57.01806215511449
 30
0.0
 11
-19.40049474616516
 21
-26.95234078859373
 31
0.0
  0
LINE
  5
A4E
330
A41
100
AcDbEntity
  8
0
100
AcDbLine
 10
-25.50000000000003
 20
-85.0
 30
0.0
 11
25.49999999999996
 21
-85.0
 31
0.0
  0
SPLINE
  5
A4F
330
A41
100
AcDbEntity
  8
0
100
AcDbSpline
210
0.0
220
0.0
230
1.0
 70
     8
 71
     3
 72
    14
 73
    10
 74
     0
 42
0.000000001
 43
0.0000000001
 40
-0.4328660091423388
 40
-0.4328660091423388
 40
-0.4328660091423388
 40
-0.4328660091423388
 40
-0.2262668722288412
 40
-0.2262668722288412
 40
-0.2262668722288412
 40
-0.0545088760457658
 40
-0.0545088760457658
 40
-0.0545088760457658
 40
0.0
 40
0.0
 40
0.0
 40
0.0
 10
-28.84764604188749
 20
-5.258496106894467
 30
0.0
 10
-28.20314737039777
 20
-6.188089808332062
 30
0.0
 10
-27.57270648294954
 20
-7.097101139023038
 30
0.0
 10
-27.05454655899853
 20
-7.846564790700558
 30
0.0
 10
-26.623769782436
 20
-8.469637940701558
 30
0.0
 10
-26.26601864944883
 20
-8.989941880013947
 30
0.0
 10
-26.05086466152155
 20
-9.312718229935358
 30
0.0
 10
-25.98258369458375
 20
-9.415154078276399
 30
0.0
 10
-25.9303995756151
 20
-9.494468906985625
 30
0.0
 10
-25.89060973843285
 20
-9.558133491115048
 30
0.0
  0
LINE
  5
A50
330
A41
100
AcDbEntity
  8
0
100
AcDbLine
 10
-25.17482914753293
 20
-9.540395631335336
 30
0.0
 11
-25.89060973854643
 21
-9.558133491121607
 31
0.0
  0
LINE
  5
A51
330
A41
100
AcDbEntity
  8
0
100
AcDbLine
 10
-22.88089344101222
 20
-9.483549287033975
 30
0.0
 11
-25.17482914753293
 21
-9.540395631335336
 31
0.0
  0
SPLINE
  5
A52
330
A41
100
AcDbEntity
  8
0
100
AcDbSpline
210
0.0
220
0.0
230
1.0
 70
     8
 71
     3
 72
    20
 73
    16
 74
     0
 42
0.000000001
 43
0.0000000001
 40
-1.0
 40
-1.0
 40
-1.0
 40
-1.0
 40
-0.9088715958329444
 40
-0.9088715958329444
 40
-0.9088715958329444
 40
-0.5828186689869098
 40
-0.5828186689869098
 40
-0.5828186689869098
 40
-0.2914093344934549
 40
-0.2914093344934549
 40
-0.2914093344934549
 40
-0.0928699318600557
 40
-0.0928699318600557
 40
-0.0928699318600557
 40
0.0
 40
0.0
 40
0.0
 40
0.0
 10
-22.88089344101214
 20
-9.483549287033968
 30
0.0
 10
-22.95107176353277
 20
-9.381205847232651
 30
0.0
 10
-23.07522524431968
 20
-9.242871727533788
 30
0.0
 10
-23.26450560144822
 20
-9.075602150584501
 30
0.0
 10
-23.94174136564624
 20
-8.477119870168031
 30
0.0
 10
-25.33408821792699
 20
-7.532747205687577
 30
0.0
 10
-26.82594339256952
 20
-6.557137773804656
 30
0.0
 10
-28.15928680956784
 20
-5.685188247018809
 30
0.0
 10
-29.56933279791363
 20
-4.799672206599676
 30
0.0
 10
-30.65800991237687
 20
-4.126648050399494
 30
0.0
 10
-31.39973393553454
 20
-3.668111558553406
 30
0.0
 10
-31.98832103113332
 20
-3.310874912189953
 30
0.0
 10
-32.2844086179968
 20
-3.128360718183704
 30
0.0
 10
-32.42290824906195
 20
-3.042986829998136
 30
0.0
 10
-32.49448861012107
 20
-3.002604530250605
 30
0.0
 10
-32.50000000000145
 20
-2.999999999892112
 30
0.0
  0
LINE
  5
A53
330
A41
100
AcDbEntity
  8
0
100
AcDbLine
 10
-22.34380262810205
 20
-5.586466387525113
 30
0.0
 11
-22.88089344101218
 21
-9.483549287033998
 31
0.0
  0
ELLIPSE
  5
A54
330
A41
100
AcDbEntity
  8
0
100
AcDbEllipse
 10
-19.40135808271007
 20
-6.000000000000003
 30
0.0
 11
-0.0000000000000437
 21
3.0
 31
0.0
210
0.0
220
0.0
230
1.0
 40
0.9902680687415703
 41
0.0
 42
1.432511480600913
  0
SPLINE
  5
A55
330
A41
100
AcDbEntity
  8
0
100
AcDbSpline
210
0.0
220
0.0
230
1.0
 70
     8
 71
     3
 72
    20
 73
    16
 74
     0
 42
0.000000001
 43
0.0000000001
 40
-1.0
 40
-1.0
 40
-1.0
 40
-1.0
 40
-0.8565140843593937
 40
-0.8565140843593937
 40
-0.8565140843593937
 40
-0.5402558541842986
 40
-0.5402558541842986
 40
-0.5402558541842986
 40
-0.2701279270921493
 40
-0.2701279270921493
 40
-0.2701279270921493
 40
-0.0852549168078418
 40
-0.0852549168078418
 40
-0.0852549168078418
 40
0.0
 40
0.0
 40
0.0
 40
0.0
 10
22.88089344101216
 20
-9.483549287033984
 30
0.0
 10
22.98563906630071
 20
-9.320092462344192
 30
0.0
 10
23.2510894520219
 20
-9.072461725055783
 30
0.0
 10
23.64500443041021
 20
-8.763930907759117
 30
0.0
 10
24.5132349696123
 20
-8.083896147573184
 30
0.0
 10
25.94709485152871
 20
-7.123035516962803
 30
0.0
 10
27.41482735374078
 20
-6.173960274836099
 30
0.0
 10
28.66847232016209
 20
-5.363319781248861
 30
0.0
 10
29.9240279311662
 20
-4.579673909819033
 30
0.0
 10
30.88879741844861
 20
-3.984753324035479
 30
0.0
 10
31.54907657308598
 20
-3.577595275780848
 30
0.0
 10
32.05964361544615
 20
-3.265340377926695
 30
0.0
 10
32.31762450953586
 20
-3.108560584061612
 30
0.0
 10
32.43659341489316
 20
-3.036260964649546
 30
0.0
 10
32.49484871723281
 20
-2.999954352938712
 30
0.0
 10
32.50000000000147
 20
-2.99999999989208
 30
0.0
  0
ELLIPSE
  5
A56
330
A41
100
AcDbEntity
  8
0
100
AcDbEllipse
 10
19.40135808271008
 20
-6.000000000000021
 30
0.0
 11
-0.0000000000000006
 21
3.0
 31
0.0
210
0.0
220
0.0
230
1.0
 40
0.9902680687415699
 41
4.850673826578656
 42
6.28318530717957
  0
LINE
  5
A57
330
A41
100
AcDbEntity
  8
0
100
AcDbLine
 10
22.88089344101218
 20
-9.483549287034019
 30
0.0
 11
22.34380262810205
 21
-5.586466387525131
 31
0.0
  0
SPLINE
  5
A58
330
A41
100
AcDbEntity
  8
0
100
AcDbSpline
210
0.0
220
0.0
230
1.0
 70
     8
 71
     3
 72
    14
 73
    10
 74
     0
 42
0.000000001
 43
0.0000000001
 40
-0.4328660091423391
 40
-0.4328660091423391
 40
-0.4328660091423391
 40
-0.4328660091423391
 40
-0.2262668722288412
 40
-0.2262668722288412
 40
-0.2262668722288412
 40
-0.0545088760457658
 40
-0.0545088760457658
 40
-0.0545088760457658
 40
0.0
 40
0.0
 40
0.0
 40
0.0
 10
28.84764604188751
 20
-5.258496106894491
 30
0.0
 10
28.2031473703978
 20
-6.188089808332087
 30
0.0
 10
27.57270648294956
 20
-7.097101139023063
 30
0.0
 10
27.05454655899855
 20
-7.846564790700581
 30
0.0
 10
26.62376978243601
 20
-8.469637940701581
 30
0.0
 10
26.26601864944883
 20
-8.98994188001397
 30
0.0
 10
26.05086466152156
 20
-9.312718229935381
 30
0.0
 10
25.98258369458376
 20
-9.415154078276422
 30
0.0
 10
25.93039957561511
 20
-9.494468906985648
 30
0.0
 10
25.89060973843287
 20
-9.558133491115071
 30
0.0
  0
LINE
  5
A59
330
A41
100
AcDbEntity
  8
0
100
AcDbLine
 10
25.89060973854643
 20
-9.558133491121632
 30
0.0
 11
25.17482914753293
 21
-9.540395631335359
 31
0.0
  0
LINE
  5
A5A
330
A41
100
AcDbEntity
  8
0
100
AcDbLine
 10
24.95106001327095
 20
-9.534850376856729
 30
0.0
 11
22.88089344101223
 21
-9.483549287033998
 31
0.0
  0
LINE
  5
A5B
330
A41
100
AcDbEntity
  8
0
100
AcDbLine
 10
25.17482914753293
 20
-9.540395631335359
 30
0.0
 11
24.95106001327095
 21
-9.534850376856729
 31
0.0
  0
SPLINE
  5
A5C
330
A41
100
AcDbEntity
  8
0
100
AcDbSpline
210
0.0
220
0.0
230
1.0
 70
     8
 71
     3
 72
    20
 73
    16
 74
     0
 42
0.000000001
 43
0.0000000001
 40
-1.0
 40
-1.0
 40
-1.0
 40
-1.0
 40
-0.8557507846683195
 40
-0.8557507846683195
 40
-0.8557507846683195
 40
-0.4725410755540734
 40
-0.4725410755540734
 40
-0.4725410755540734
 40
-0.2262668722288412
 40
-0.2262668722288412
 40
-0.2262668722288412
 40
-0.0545088760457658
 40
-0.0545088760457658
 40
-0.0545088760457658
 40
0.0
 40
0.0
 40
0.0
 40
0.0
 10
32.5
 20
-71.49999999999988
 30
0.0
 10
32.49596368058212
 20
-70.51422263202129
 30
0.0
 10
32.37910965910395
 20
-69.60755482003517
 30
0.0
 10
32.16692343470165
 20
-68.79579103748612
 30
0.0
 10
31.60323356544108
 20
-66.63927488407189
 30
0.0
 10
30.41855420421605
 20
-65.09164757618963
 30
0.0
 10
29.21981211983746
 20
-63.52662748020552
 30
0.0
 10
28.44942649337425
 20
-62.52084900393116
 30
0.0
 10
27.67221333327708
 20
-61.51295505185368
 30
0.0
 10
27.05454655899851
 20
-60.3458991649542
 30
0.0
 10
26.62376978243598
 20
-59.53196421821194
 30
0.0
 10
26.26601864944881
 20
-58.62483513657552
 30
0.0
 10
26.05086466152153
 20
-57.6001514218001
 30
0.0
 10
25.98258369458373
 20
-57.27495923956673
 30
0.0
 10
25.93039957561508
 20
-56.9385006506997
 30
0.0
 10
25.89060973843283
 20
-56.59507411448341
 30
0.0
  0
SPLINE
  5
A5D
330
A41
100
AcDbEntity
  8
0
100
AcDbSpline
210
0.0
220
0.0
230
1.0
 70
     8
 71
     3
 72
    20
 73
    16
 74
     0
 42
0.000000001
 43
0.0000000001
 40
-1.0
 40
-1.0
 40
-1.0
 40
-1.0
 40
-0.8565140843593937
 40
-0.8565140843593937
 40
-0.8565140843593937
 40
-0.5402558541842986
 40
-0.5402558541842986
 40
-0.5402558541842986
 40
-0.2701279270921493
 40
-0.2701279270921493
 40
-0.2701279270921493
 40
-0.0852549168078418
 40
-0.0852549168078418
 40
-0.0852549168078418
 40
0.0
 40
0.0
 40
0.0
 40
0.0
 10
22.88089344101213
 20
-57.01806215511452
 30
0.0
 10
22.98563906630068
 20
-57.92230508726809
 30
0.0
 10
23.25108945202187
 20
-58.75125606593148
 30
0.0
 10
23.64500443041018
 20
-59.49063806021642
 30
0.0
 10
24.51323496961226
 20
-61.12031467266931
 30
0.0
 10
25.94709485152868
 20
-62.37298809433241
 30
0.0
 10
27.41482735374074
 20
-63.61722483984737
 30
0.0
 10
28.66847232016205
 20
-64.67997376085334
 30
0.0
 10
29.92402793116616
 20
-65.70892477045389
 30
0.0
 10
30.88879741844858
 20
-66.95682341167348
 30
0.0
 10
31.54907657308594
 20
-67.81087349385273
 30
0.0
 10
32.05964361544611
 20
-68.76547766488982
 30
0.0
 10
32.31762450953583
 20
-69.85892594190144
 30
0.0
 10
32.43659341489311
 20
-70.3631739213493
 30
0.0
 10
32.49484871723276
 20
-70.9028999994227
 30
0.0
 10
32.50000000000143
 20
-71.50000000006293
 30
0.0
  0
LINE
  5
A5E
330
A41
100
AcDbEntity
  8
0
100
AcDbLine
 10
22.34380262810206
 20
-57.09354534627189
 30
0.0
 11
22.88089344101219
 21
-57.01806215511452
 31
0.0
  0
LINE
  5
A5F
330
A41
100
AcDbEntity
  8
0
100
AcDbLine
 10
19.4013580827101
 20
-57.50707895874676
 30
0.0
 11
22.34380262810206
 21
-57.09354534627188
 31
0.0
  0
SPLINE
  5
A60
330
A41
100
AcDbEntity
  8
0
100
AcDbSpline
210
0.0
220
0.0
230
1.0
 70
     8
 71
     2
 72
     6
 73
     3
 74
     0
 42
0.000000001
 43
0.0000000001
 40
0.0
 40
0.0
 40
0.0
 40
1.0
 40
1.0
 40
1.0
 10
19.4013580827101
 20
-57.50707895874676
 30
0.0
 10
20.85646379032759
 20
-67.86069405359667
 30
0.0
 10
32.49999999999996
 20
-71.49999999999995
 30
0.0
  0
LINE
  5
A61
330
A41
100
AcDbEntity
  8
0
100
AcDbLine
 10
25.17482914754549
 20
-56.69567051616471
 30
0.0
 11
25.89060973854639
 21
-56.59507411444168
 31
0.0
  0
LINE
  5
A62
330
A41
100
AcDbEntity
  8
0
100
AcDbLine
 10
24.95106001325726
 20
-56.72711921707822
 30
0.0
 11
25.17482914754549
 21
-56.69567051616471
 31
0.0
  0
LINE
  5
A63
330
A41
100
AcDbEntity
  8
0
100
AcDbLine
 10
22.8808934410122
 20
-57.01806215511453
 30
0.0
 11
24.95106001325726
 21
-56.72711921707822
 31
0.0
  0
SPLINE
  5
A64
330
A41
100
AcDbEntity
  8
0
100
AcDbSpline
210
0.0
220
0.0
230
1.0
 70
     8
 71
     3
 72
    20
 73
    16
 74
     0
 42
0.000000001
 43
0.0000000001
 40
-1.0
 40
-1.0
 40
-1.0
 40
-1.0
 40
-0.8557507846683195
 40
-0.8557507846683195
 40
-0.8557507846683195
 40
-0.4725410755540734
 40
-0.4725410755540734
 40
-0.4725410755540734
 40
-0.2262668722288412
 40
-0.2262668722288412
 40
-0.2262668722288412
 40
-0.0545088760457658
 40
-0.0545088760457658
 40
-0.0545088760457658
 40
0.0
 40
0.0
 40
0.0
 40
0.0
 10
-32.50000000000007
 20
-71.49999999999986
 30
0.0
 10
-32.49596368058219
 20
-70.51422263202124
 30
0.0
 10
-32.379109659104
 20
-69.60755482003513
 30
0.0
 10
-32.1669234347017
 20
-68.7957910374861
 30
0.0
 10
-31.60323356544113
 20
-66.63927488407185
 30
0.0
 10
-30.41855420421609
 20
-65.0916475761896
 30
0.0
 10
-29.21981211983752
 20
-63.52662748020549
 30
0.0
 10
-28.4494264933743
 20
-62.52084900393113
 30
0.0
 10
-27.67221333327713
 20
-61.51295505185365
 30
0.0
 10
-27.05454655899857
 20
-60.34589916495416
 30
0.0
 10
-26.62376978243603
 20
-59.5319642182119
 30
0.0
 10
-26.26601864944885
 20
-58.62483513657548
 30
0.0
 10
-26.05086466152159
 20
-57.60015142180008
 30
0.0
 10
-25.98258369458378
 20
-57.27495923956668
 30
0.0
 10
-25.93039957561514
 20
-56.93850065069966
 30
0.0
 10
-25.89060973843289
 20
-56.59507411448338
 30
0.0
  0
SPLINE
  5
A65
330
A41
100
AcDbEntity
  8
0
100
AcDbSpline
210
0.0
220
0.0
230
1.0
 70
     8
 71
     3
 72
    20
 73
    16
 74
     0
 42
0.000000001
 43
0.0000000001
 40
-1.0
 40
-1.0
 40
-1.0
 40
-1.0
 40
-0.8565140843593937
 40
-0.8565140843593937
 40
-0.8565140843593937
 40
-0.5402558541842986
 40
-0.5402558541842986
 40
-0.5402558541842986
 40
-0.2701279270921493
 40
-0.2701279270921493
 40
-0.2701279270921493
 40
-0.0852549168078418
 40
-0.0852549168078418
 40
-0.0852549168078418
 40
0.0
 40
0.0
 40
0.0
 40
0.0
 10
-22.88089344101218
 20
-57.01806215511448
 30
0.0
 10
-22.98563906630073
 20
-57.92230508726804
 30
0.0
 10
-23.25108945202192
 20
-58.75125606593145
 30
0.0
 10
-23.64500443041023
 20
-59.49063806021638
 30
0.0
 10
-24.51323496961232
 20
-61.12031467266928
 30
0.0
 10
-25.94709485152873
 20
-62.37298809433237
 30
0.0
 10
-27.4148273537408
 20
-63.61722483984734
 30
0.0
 10
-28.6684723201621
 20
-64.6799737608533
 30
0.0
 10
-29.92402793116621
 20
-65.70892477045386
 30
0.0
 10
-30.88879741844863
 20
-66.95682341167344
 30
0.0
 10
-31.54907657308599
 20
-67.81087349385271
 30
0.0
 10
-32.05964361544617
 20
-68.7654776648898
 30
0.0
 10
-32.31762450953588
 20
-69.85892594190142
 30
0.0
 10
-32.43659341489318
 20
-70.36317392134927
 30
0.0
 10
-32.49484871723284
 20
-70.90289999942267
 30
0.0
 10
-32.5000000000015
 20
-71.50000000006288
 30
0.0
  0
SPLINE
  5
A66
330
A41
100
AcDbEntity
  8
0
100
AcDbSpline
210
0.0
220
0.0
230
1.0
 70
     8
 71
     2
 72
     6
 73
     3
 74
     0
 42
0.000000001
 43
0.0000000001
 40
0.0
 40
0.0
 40
0.0
 40
1.0
 40
1.0
 40
1.0
 10
-19.40135808271015
 20
-57.50707895874676
 30
0.0
 10
-20.85646379032764
 20
-67.86069405359665
 30
0.0
 10
-32.50000000000003
 20
-71.49999999999993
 30
0.0
  0
LINE
  5
A67
330
A41
100
AcDbEntity
  8
0
100
AcDbLine
 10
-22.34380262810211
 20
-57.09354534627188
 30
0.0
 11
-19.40135808271015
 21
-57.50707895874676
 31
0.0
  0
LINE
  5
A68
330
A41
100
AcDbEntity
  8
0
100
AcDbLine
 10
-22.88089344101225
 20
-57.01806215511448
 30
0.0
 11
-22.34380262810212
 21
-57.09354534627187
 31
0.0
  0
LINE
  5
A69
330
A41
100
AcDbEntity
  8
0
100
AcDbLine
 10
-25.89060973854645
 20
-56.59507411444164
 30
0.0
 11
-25.17482914754554
 21
-56.69567051616468
 31
0.0
  0
LINE
  5
A6A
330
A41
100
AcDbEntity
  8
0
100
AcDbLine
 10
-24.95106001325731
 20
-56.72711921707819
 30
0.0
 11
-22.88089344101225
 21
-57.01806215511449
 31
0.0
  0
LINE
  5
A6B
330
A41
100
AcDbEntity
  8
0
100
AcDbLine
 10
-25.17482914754554
 20
-56.69567051616468
 30
0.0
 11
-24.95106001325731
 21
-56.72711921707819
 31
0.0
  0
LINE
  5
A6C
330
A41
100
AcDbEntity
  8
0
100
AcDbLine
 10
-25.49999999999999
 20
0.0
 30
0.0
 11
-32.49999999999999
 21
0.0
 31
0.0
  0
LINE
  5
A6D
330
A41
100
AcDbEntity
  8
0
100
AcDbLine
 10
32.50000000000002
 20
0.0
 30
0.0
 11
25.50000000000001
 21
0.0
 31
0.0
  0
LINE
  5
A6E
330
A41
100
AcDbEntity
  8
0
100
AcDbLine
 10
25.50000000000001
 20
-3.000000000000028
 30
0.0
 11
32.50000000000002
 21
-3.000000000000031
 31
0.0
  0
LINE
  5
A6F
330
A41
100
AcDbEntity
  8
0
100
AcDbLine
 10
-32.49999999999999
 20
-3.000000000000002
 30
0.0
 11
-25.49999999999999
 21
-3.000000000000006
 31
0.0
  0
LINE
  5
A70
330
A41
100
AcDbEntity
  8
0
100
AcDbLine
 10
-25.50000000000003
 20
-85.0
 30
0.0
 11
-32.50000000000003
 21
-77.99999999999998
 31
0.0
  0
LINE
  5
A71
330
A41
100
AcDbEntity
  8
0
100
AcDbLine
 10
32.49999999999996
 20
-78.00000000000003
 30
0.0
 11
25.49999999999996
 21
-85.0
 31
0.0
  0
LINE
  5
A72
330
A41
100
AcDbEntity
  8
0
100
AcDbLine
 10
32.50000000000002
 20
-3.000000000000031
 30
0.0
 11
32.50000000000002
 21
0.0
 31
0.0
  0
LINE
  5
A73
330
A41
100
AcDbEntity
  8
0
100
AcDbLine
 10
-32.49999999999999
 20
0.0
 30
0.0
 11
-32.49999999999999
 21
-3.000000000000002
 31
0.0
  0
LINE
  5
A74
330
A41
100
AcDbEntity
  8
0
100
AcDbLine
 10
25.50000000000001
 20
0.0
 30
0.0
 11
-25.49999999999999
 21
0.0
 31
0.0
  0
LINE
  5
A75
330
A41
100
AcDbEntity
  8
0
100
AcDbLine
 10
25.50000000000001
 20
-3.000000000000028
 30
0.0
 11
-25.49999999999999
 21
-3.000000000000006
 31
0.0
  0
LINE
  5
A76
330
A41
100
AcDbEntity
  8
0
100
AcDbLine
 10
25.50000000000001
 20
0.0
 30
0.0
 11
25.50000000000001
 21
-3.000000000000028
 31
0.0
  0
LINE
  5
A77
330
A41
100
AcDbEntity
  8
0
100
AcDbLine
 10
-25.49999999999999
 20
-3.000000000000006
 30
0.0
 11
-25.49999999999999
 21
0.0
 31
0.0
  0
LINE
  5
A78
330
A41
100
AcDbEntity
  8
0
100
AcDbLine
 10
-25.89060973854645
 20
-56.59507411444166
 30
0.0
 11
-22.45917600970657
 21
-26.95234078859373
 31
0.0
  0
ELLIPSE
  5
A79
330
A41
100
AcDbEntity
  8
0
100
AcDbEllipse
 10
-24.90133146166029
 20
-29.55706345359767
 30
0.0
 11
2.149316260459696
 21
14.99707715516456
 31
0.0
210
0.0
220
0.0
230
1.0
 40
0.1377659927417794
 41
4.906663367072859
 42
6.128393843468892
  0
LINE
  5
A7A
330
A41
100
AcDbEntity
  8
0
100
AcDbLine
 10
-22.45917600970655
 20
-14.78494715841456
 30
0.0
 11
-25.89060973854638
 21
-9.558133491121608
 31
0.0
  0
LINE
  5
A7B
330
A41
100
AcDbEntity
  8
0
100
AcDbLine
 10
13.14629605568257
 20
-13.00000000000001
 30
0.0
 11
19.4013580827101
 21
-57.50707895874677
 31
0.0
  0
LINE
  5
A7C
330
A41
100
AcDbEntity
  8
0
100
AcDbLine
 10
-19.40135808271014
 20
-57.50707895874676
 30
0.0
 11
-13.14629605568258
 21
-13.0
 31
0.0
  0
ELLIPSE
  5
A7D
330
A41
100
AcDbEntity
  8
0
100
AcDbEllipse
 10
14.13008189859931
 20
-13.00000000000001
 30
0.0
 11
0.9932598611246556
 21
-9.999531768717286
 31
0.0
210
0.0
220
0.0
230
0.9999999999999998
 40
0.0974265314997312
 41
3.131915516220306
 42
4.702711843026092
  0
ELLIPSE
  5
A7E
330
A41
100
AcDbEntity
  8
0
100
AcDbEllipse
 10
-14.13008189859931
 20
-13.0
 30
0.0
 11
0.9932598611245637
 21
9.999531768717298
 31
0.0
210
0.0
220
0.0
230
1.0
 40
0.097426531499731
 41
4.722066117737836
 42
6.292862444532733
  0
LINE
  5
A7F
330
A41
100
AcDbEntity
  8
0
100
AcDbLine
 10
22.45917600970654
 20
-26.95234078859375
 30
0.0
 11
25.89060973854639
 21
-56.59507411444167
 31
0.0
  0
LINE
  5
A80
330
A41
100
AcDbEntity
  8
0
100
AcDbLine
 10
25.89060973854638
 20
-9.55813349112163
 30
0.0
 11
22.45917600970654
 21
-14.78494715841457
 31
0.0
  0
ELLIPSE
  5
A81
330
A41
100
AcDbEntity
  8
0
100
AcDbEllipse
 10
24.90133146166027
 20
-29.55706345359769
 30
0.0
 11
2.149316260459895
 21
-14.99707715516453
 31
0.0
210
0.0
220
0.0
230
1.0
 40
0.1377659927417796
 41
3.296384117292442
 42
4.518114593693587
  0
LINE
  5
A82
330
A41
100
AcDbEntity
  8
0
100
AcDbLine
 10
-11.49139923969414
 20
-7.956249513453876
 30
0.0
 11
11.7237600868325
 21
-7.956249513453883
 31
0.0
  0
LINE
  5
A83
330
A41
100
AcDbEntity
  8
0
100
AcDbLine
 10
-32.50000000000003
 20
-71.49999999999993
 30
0.0
 11
-32.50000000000003
 21
-77.99999999999998
 31
0.0
  0
LINE
  5
A84
330
A41
100
AcDbEntity
  8
0
100
AcDbLine
 10
32.49999999999996
 20
-78.00000000000003
 30
0.0
 11
32.49999999999996
 21
-71.49999999999995
 31
0.0
  0
ENDBLK
  5
A43
330
A41
100
AcDbEntity
  8
0
100
AcDbBlockEnd
  0
BLOCK
  5
A86
330
A85
100
AcDbEntity
  8
0
100
AcDbBlockBegin
  2
AKR135Z-Bottom
 70
     0
 10
0.0
 20
0.0
 30
0.0
  3
AKR135Z-Bottom
  1

  0
CIRCLE
  5
A88
330
A85
100
AcDbEntity
  8
0
100
AcDbCircle
 10
-0.0000000000000092
 20
25.00000000000001
 30
0.0
 40
6.749999999999996
  0
CIRCLE
  5
A89
330
A85
100
AcDbEntity
  8
0
100
AcDbCircle
 10
-0.0000000000000269
 20
65.00000000000001
 30
0.0
 40
5.5
  0
CIRCLE
  5
A8A
330
A85
100
AcDbEntity
  8
0
100
AcDbCircle
 10
-22.50000000000003
 20
74.99999999999999
 30
0.0
 40
2.6
  0
CIRCLE
  5
A8B
330
A85
100
AcDbEntity
  8
0
100
AcDbCircle
 10
22.49999999999996
 20
75.00000000000003
 30
0.0
 40
2.6
  0
LINE
  5
A8C
330
A85
100
AcDbEntity
  8
0
100
AcDbLine
 10
-25.50000000000003
 20
85.0
 30
0.0
 11
25.49999999999996
 21
85.0
 31
0.0
  0
ELLIPSE
  5
A8D
330
A85
100
AcDbEntity
  8
0
100
AcDbEllipse
 10
-19.40135808271007
 20
6.000000000000003
 30
0.0
 11
-0.0000000000000021
 21
-6.000000000000001
 31
0.0
210
0.0
220
0.0
230
1.0
 40
0.9902680687415699
 41
4.850673826578658
 42
6.283185307179579
  0
LINE
  5
A8E
330
A85
100
AcDbEntity
  8
0
100
AcDbLine
 10
-25.89060973854638
 20
9.558133491121632
 30
0.0
 11
-25.28624717349401
 21
5.172932775050226
 31
0.0
  0
SPLINE
  5
A8F
330
A85
100
AcDbEntity
  8
0
100
AcDbSpline
210
0.0
220
0.0
230
1.0
 70
     8
 71
     3
 72
    20
 73
    16
 74
     0
 42
0.000000001
 43
0.0000000001
 40
-1.0
 40
-1.0
 40
-1.0
 40
-1.0
 40
-0.8557507846683195
 40
-0.8557507846683195
 40
-0.8557507846683195
 40
-0.4725410755540734
 40
-0.4725410755540734
 40
-0.4725410755540734
 40
-0.2262668722288412
 40
-0.2262668722288412
 40
-0.2262668722288412
 40
-0.0545088760457658
 40
-0.0545088760457658
 40
-0.0545088760457658
 40
0.0
 40
0.0
 40
0.0
 40
0.0
 10
-32.50000000000002
 20
-0.0000000000000121
 30
0.0
 10
-32.49596368058214
 20
-0.0000078262250642
 30
0.0
 10
-32.37910965910396
 20
0.1669297411121831
 30
0.0
 10
-32.16692343470167
 20
0.4742787332309798
 30
0.0
 10
-31.6032335654411
 20
1.290776192822594
 30
0.0
 10
-30.41855420421606
 20
2.992237894652657
 30
0.0
 10
-29.21981211983748
 20
4.72164872416673
 30
0.0
 10
-28.44942649337427
 20
5.833074828805511
 30
0.0
 10
-27.6722133332771
 20
6.953174980386971
 30
0.0
 10
-27.05454655899853
 20
7.846564790700558
 30
0.0
 10
-26.623769782436
 20
8.469637940701558
 30
0.0
 10
-26.26601864944883
 20
8.989941880013947
 30
0.0
 10
-26.05086466152155
 20
9.312718229935358
 30
0.0
 10
-25.98258369458375
 20
9.415154078276399
 30
0.0
 10
-25.9303995756151
 20
9.494468906985625
 30
0.0
 10
-25.89060973843285
 20
9.558133491115048
 30
0.0
  0
LINE
  5
A90
330
A85
100
AcDbEntity
  8
0
100
AcDbLine
 10
-19.40135808271012
 20
0.0
 30
0.0
 11
-32.49999999999999
 21
0.0
 31
0.0
  0
SPLINE
  5
A91
330
A85
100
AcDbEntity
  8
0
100
AcDbSpline
210
0.0
220
0.0
230
1.0
 70
     8
 71
     3
 72
    14
 73
    10
 74
     0
 42
0.000000001
 43
0.0000000001
 40
-0.4360678468898938
 40
-0.4360678468898938
 40
-0.4360678468898938
 40
-0.4360678468898938
 40
-0.2914093344934549
 40
-0.2914093344934549
 40
-0.2914093344934549
 40
-0.0928699318600557
 40
-0.0928699318600557
 40
-0.0928699318600557
 40
0.0
 40
0.0
 40
0.0
 40
0.0
 10
-28.84783609267241
 20
5.258371448468332
 30
0.0
 10
-29.49795681362243
 20
4.847202781866714
 30
0.0
 10
-30.11757968857484
 20
4.460743982542579
 30
0.0
 10
-30.65800991237687
 20
4.126648050399494
 30
0.0
 10
-31.39973393553454
 20
3.668111558553406
 30
0.0
 10
-31.98832103113332
 20
3.310874912189953
 30
0.0
 10
-32.2844086179968
 20
3.128360718183704
 30
0.0
 10
-32.42290824906195
 20
3.042986829998136
 30
0.0
 10
-32.49448861012107
 20
3.002604530250605
 30
0.0
 10
-32.50000000000145
 20
2.999999999892112
 30
0.0
  0
LINE
  5
A92
330
A85
100
AcDbEntity
  8
0
100
AcDbLine
 10
-32.5
 20
2.999999999999997
 30
0.0
 11
-32.5
 21
0.0
 31
0.0
  0
SPLINE
  5
A93
330
A85
100
AcDbEntity
  8
0
100
AcDbSpline
210
0.0
220
0.0
230
1.0
 70
     8
 71
     3
 72
    22
 73
    18
 74
     0
 42
0.000000001
 43
0.0000000001
 40
0.071985586241558
 40
0.071985586241558
 40
0.071985586241558
 40
0.071985586241558
 40
0.0755985317088739
 40
0.0755985317088739
 40
0.083454376458123
 40
0.083454376458123
 40
0.0902648714146804
 40
0.0902648714146804
 40
0.0947325333439338
 40
0.0947325333439338
 40
0.0976439330277461
 40
0.0976439330277461
 40
0.1021282801719455
 40
0.1021282801719455
 40
0.1058165195679863
 40
0.1058165195679863
 40
0.1079151913481548
 40
0.1079151913481548
 40
0.1079151913481548
 40
0.1079151913481548
 10
-19.84585058919457
 20
0.0168132243548915
 30
0.0
 10
-19.85754265420414
 20
0.0176308330070017
 30
0.0
 10
-19.86932619381096
 20
0.0184870276330833
 30
0.0
 10
-19.90688096842956
 20
0.0213238689333933
 30
0.0
 10
-19.93308558399624
 20
0.0234661435614382
 30
0.0
 10
-19.98177991191466
 20
0.0277710727824518
 30
0.0
 10
-20.00459732797586
 20
0.0299218918820116
 30
0.0
 10
-20.04078858418871
 20
0.0335330570832772
 30
0.0
 10
-20.05487976824794
 20
0.0349932077303242
 30
0.0
 10
-20.07633383947812
 20
0.0372831165805459
 30
0.0
 10
-20.08440741620083
 20
0.03816311521506
 30
0.0
 10
-20.10296926500005
 20
0.0402168448892091
 30
0.0
 10
-20.11261850801203
 20
0.0413157524025941
 30
0.0
 10
-20.12493558405449
 20
0.0427312476289908
 30
0.0
 10
-20.1287112680979
 20
0.0431709716683912
 30
0.0
 10
-20.13172533038451
 20
0.0435216750996704
 30
0.0
 10
-20.1322491933708
 20
0.0435827000689408
 30
0.0
 10
-20.1322491930383
 20
0.0435827000302543
 30
0.0
  0
SPLINE
  5
A94
330
A85
100
AcDbEntity
  8
0
100
AcDbSpline
210
0.0
220
0.0
230
1.0
 70
     8
 71
     3
 72
    14
 73
    10
 74
     0
 42
0.000000001
 43
0.0000000001
 40
-0.4363253482540368
 40
-0.4363253482540368
 40
-0.4363253482540368
 40
-0.4363253482540368
 40
-0.2701279270921493
 40
-0.2701279270921493
 40
-0.2701279270921493
 40
-0.0852549168078418
 40
-0.0852549168078418
 40
-0.0852549168078418
 40
0.0
 40
0.0
 40
0.0
 40
0.0
 10
28.84600853179914
 20
5.259488516559116
 30
0.0
 10
29.59156626789514
 20
4.788248161936628
 30
0.0
 10
30.2952186554971
 20
4.350780888151858
 30
0.0
 10
30.88879741844861
 20
3.984753324035479
 30
0.0
 10
31.54907657308598
 20
3.577595275780848
 30
0.0
 10
32.05964361544615
 20
3.265340377926695
 30
0.0
 10
32.31762450953586
 20
3.108560584061612
 30
0.0
 10
32.43659341489316
 20
3.036260964649546
 30
0.0
 10
32.49484871723281
 20
2.999954352938712
 30
0.0
 10
32.50000000000147
 20
2.99999999989208
 30
0.0
  0
ELLIPSE
  5
A95
330
A85
100
AcDbEntity
  8
0
100
AcDbEllipse
 10
19.40135808271008
 20
6.000000000000021
 30
0.0
 11
0.0000000000000524
 21
-6.0
 31
0.0
210
0.0
220
0.0
230
1.0
 40
0.9902680687415703
 41
0.0
 42
1.43251148060092
  0
LINE
  5
A96
330
A85
100
AcDbEntity
  8
0
100
AcDbLine
 10
19.40135808271013
 20
0.0
 30
0.0
 11
32.50000000000001
 21
0.0
 31
0.0
  0
SPLINE
  5
A97
330
A85
100
AcDbEntity
  8
0
100
AcDbSpline
210
0.0
220
0.0
230
1.0
 70
     8
 71
     3
 72
    20
 73
    16
 74
     0
 42
0.000000001
 43
0.0000000001
 40
-1.0
 40
-1.0
 40
-1.0
 40
-1.0
 40
-0.8557507846683195
 40
-0.8557507846683195
 40
-0.8557507846683195
 40
-0.4725410755540734
 40
-0.4725410755540734
 40
-0.4725410755540734
 40
-0.2262668722288412
 40
-0.2262668722288412
 40
-0.2262668722288412
 40
-0.0545088760457658
 40
-0.0545088760457658
 40
-0.0545088760457658
 40
0.0
 40
0.0
 40
0.0
 40
0.0
 10
32.50000000000004
 20
0.0000000000000168
 30
0.0
 10
32.49596368058217
 20
-0.0000078262250354
 30
0.0
 10
32.37910965910398
 20
0.1669297411122118
 30
0.0
 10
32.16692343470169
 20
0.4742787332310084
 30
0.0
 10
31.60323356544112
 20
1.290776192822622
 30
0.0
 10
30.41855420421608
 20
2.992237894652683
 30
0.0
 10
29.21981211983749
 20
4.721648724166756
 30
0.0
 10
28.44942649337428
 20
5.833074828805537
 30
0.0
 10
27.67221333327711
 20
6.953174980386997
 30
0.0
 10
27.05454655899855
 20
7.846564790700581
 30
0.0
 10
26.62376978243601
 20
8.469637940701581
 30
0.0
 10
26.26601864944883
 20
8.98994188001397
 30
0.0
 10
26.05086466152156
 20
9.312718229935381
 30
0.0
 10
25.98258369458376
 20
9.415154078276422
 30
0.0
 10
25.93039957561511
 20
9.494468906985648
 30
0.0
 10
25.89060973843287
 20
9.558133491115071
 30
0.0
  0
LINE
  5
A98
330
A85
100
AcDbEntity
  8
0
100
AcDbLine
 10
25.28624717349401
 20
5.172932775050247
 30
0.0
 11
25.89060973854638
 21
9.558133491121655
 31
0.0
  0
LINE
  5
A99
330
A85
100
AcDbEntity
  8
0
100
AcDbLine
 10
32.50000000000002
 20
3.000000000000026
 30
0.0
 11
32.50000000000002
 21
0.0
 31
0.0
  0
SPLINE
  5
A9A
330
A85
100
AcDbEntity
  8
0
100
AcDbSpline
210
0.0
220
0.0
230
1.0
 70
     8
 71
     3
 72
    22
 73
    18
 74
     0
 42
0.000000001
 43
0.0000000001
 40
0.02279138413734
 40
0.02279138413734
 40
0.02279138413734
 40
0.02279138413734
 40
0.0248973488270394
 40
0.0248973488270394
 40
0.0292579134972928
 40
0.0292579134972928
 40
0.0329626711872557
 40
0.0329626711872557
 40
0.0366802755297777
 40
0.0366802755297777
 40
0.0411870421950847
 40
0.0411870421950847
 40
0.047360137613403
 40
0.047360137613403
 40
0.0565905741228067
 40
0.0565905741228067
 40
0.0587221971368281
 40
0.0587221971368281
 40
0.0587221971368281
 40
0.0587221971368281
 10
20.13224919303831
 20
0.0435827000302732
 30
0.0
 10
20.13224920413419
 20
0.0435827013212637
 30
0.0
 10
20.13172466702676
 20
0.0435215972868834
 30
0.0
 10
20.12834929218714
 20
0.0431288550003818
 30
0.0
 10
20.1234300690842
 20
0.0425554909337233
 30
0.0
 10
20.10984671193604
 20
0.0410009976212753
 30
0.0
 10
20.10173317346915
 20
0.0400813010871127
 30
0.0
 10
20.08323898312044
 20
0.0380327122013076
 30
0.0
 10
20.07269487464258
 20
0.0368864617565024
 30
0.0
 10
20.04821943712558
 20
0.0342994699064502
 30
0.0
 10
20.03383234021582
 20
0.0328255826886977
 30
0.0
 10
19.99928070213552
 20
0.0294201191320548
 30
0.0
 10
19.97864567984465
 20
0.0274905637545398
 30
0.0
 10
19.92750144365398
 20
0.0229777972340777
 30
0.0
 10
19.89668990749379
 20
0.0205010086199486
 30
0.0
 10
19.85968691817699
 20
0.017791991696627
 30
0.0
 10
19.85275659015204
 20
0.0172961506925302
 30
0.0
 10
19.84585058919465
 20
0.0168132243549134
 30
0.0
  0
LINE
  5
A9B
330
A85
100
AcDbEntity
  8
0
100
AcDbLine
 10
19.4013580827101
 20
57.50707895874676
 30
0.0
 11
25.28624717349403
 21
56.680011733797
 31
0.0
  0
LINE
  5
A9C
330
A85
100
AcDbEntity
  8
0
100
AcDbLine
 10
25.89060973854639
 20
56.59507411444167
 30
0.0
 11
25.28624717349402
 21
56.68001173379701
 31
0.0
  0
SPLINE
  5
A9D
330
A85
100
AcDbEntity
  8
0
100
AcDbSpline
210
0.0
220
0.0
230
1.0
 70
     8
 71
     3
 72
    20
 73
    16
 74
     0
 42
0.000000001
 43
0.0000000001
 40
-1.0
 40
-1.0
 40
-1.0
 40
-1.0
 40
-0.8557507846683195
 40
-0.8557507846683195
 40
-0.8557507846683195
 40
-0.4725410755540734
 40
-0.4725410755540734
 40
-0.4725410755540734
 40
-0.2262668722288412
 40
-0.2262668722288412
 40
-0.2262668722288412
 40
-0.0545088760457658
 40
-0.0545088760457658
 40
-0.0545088760457658
 40
0.0
 40
0.0
 40
0.0
 40
0.0
 10
32.5
 20
71.49999999999988
 30
0.0
 10
32.49596368058212
 20
70.51422263202129
 30
0.0
 10
32.37910965910395
 20
69.60755482003517
 30
0.0
 10
32.16692343470165
 20
68.79579103748612
 30
0.0
 10
31.60323356544108
 20
66.63927488407189
 30
0.0
 10
30.41855420421605
 20
65.09164757618963
 30
0.0
 10
29.21981211983746
 20
63.52662748020552
 30
0.0
 10
28.44942649337425
 20
62.52084900393116
 30
0.0
 10
27.67221333327708
 20
61.51295505185368
 30
0.0
 10
27.05454655899851
 20
60.3458991649542
 30
0.0
 10
26.62376978243598
 20
59.53196421821194
 30
0.0
 10
26.26601864944881
 20
58.62483513657552
 30
0.0
 10
26.05086466152153
 20
57.6001514218001
 30
0.0
 10
25.98258369458373
 20
57.27495923956673
 30
0.0
 10
25.93039957561508
 20
56.9385006506997
 30
0.0
 10
25.89060973843283
 20
56.59507411448341
 30
0.0
  0
SPLINE
  5
A9E
330
A85
100
AcDbEntity
  8
0
100
AcDbSpline
210
0.0
220
0.0
230
1.0
 70
     8
 71
     2
 72
     6
 73
     3
 74
     0
 42
0.000000001
 43
0.0000000001
 40
0.0
 40
0.0
 40
0.0
 40
1.0
 40
1.0
 40
1.0
 10
19.4013580827101
 20
57.50707895874676
 30
0.0
 10
20.85646379032759
 20
67.86069405359667
 30
0.0
 10
32.49999999999996
 20
71.49999999999995
 30
0.0
  0
LINE
  5
A9F
330
A85
100
AcDbEntity
  8
0
100
AcDbLine
 10
-25.28624717349408
 20
56.680011733797
 30
0.0
 11
-19.40135808271015
 21
57.50707895874676
 31
0.0
  0
SPLINE
  5
AA0
330
A85
100
AcDbEntity
  8
0
100
AcDbSpline
210
0.0
220
0.0
230
1.0
 70
     8
 71
     2
 72
     6
 73
     3
 74
     0
 42
0.000000001
 43
0.0000000001
 40
0.0
 40
0.0
 40
0.0
 40
1.0
 40
1.0
 40
1.0
 10
-19.40135808271015
 20
57.50707895874676
 30
0.0
 10
-20.85646379032764
 20
67.86069405359665
 30
0.0
 10
-32.50000000000003
 20
71.49999999999993
 30
0.0
  0
SPLINE
  5
AA1
330
A85
100
AcDbEntity
  8
0
100
AcDbSpline
210
0.0
220
0.0
230
1.0
 70
     8
 71
     3
 72
    20
 73
    16
 74
     0
 42
0.000000001
 43
0.0000000001
 40
-1.0
 40
-1.0
 40
-1.0
 40
-1.0
 40
-0.8557507846683195
 40
-0.8557507846683195
 40
-0.8557507846683195
 40
-0.4725410755540734
 40
-0.4725410755540734
 40
-0.4725410755540734
 40
-0.2262668722288412
 40
-0.2262668722288412
 40
-0.2262668722288412
 40
-0.0545088760457658
 40
-0.0545088760457658
 40
-0.0545088760457658
 40
0.0
 40
0.0
 40
0.0
 40
0.0
 10
-32.50000000000007
 20
71.49999999999986
 30
0.0
 10
-32.49596368058219
 20
70.51422263202124
 30
0.0
 10
-32.379109659104
 20
69.60755482003513
 30
0.0
 10
-32.1669234347017
 20
68.7957910374861
 30
0.0
 10
-31.60323356544113
 20
66.63927488407185
 30
0.0
 10
-30.41855420421609
 20
65.0916475761896
 30
0.0
 10
-29.21981211983752
 20
63.52662748020549
 30
0.0
 10
-28.4494264933743
 20
62.52084900393113
 30
0.0
 10
-27.67221333327713
 20
61.51295505185365
 30
0.0
 10
-27.05454655899857
 20
60.34589916495416
 30
0.0
 10
-26.62376978243603
 20
59.5319642182119
 30
0.0
 10
-26.26601864944885
 20
58.62483513657548
 30
0.0
 10
-26.05086466152159
 20
57.60015142180008
 30
0.0
 10
-25.98258369458378
 20
57.27495923956668
 30
0.0
 10
-25.93039957561514
 20
56.93850065069966
 30
0.0
 10
-25.89060973843289
 20
56.59507411448338
 30
0.0
  0
LINE
  5
AA2
330
A85
100
AcDbEntity
  8
0
100
AcDbLine
 10
-25.28624717349408
 20
56.68001173379697
 30
0.0
 11
-25.89060973854645
 21
56.59507411444163
 31
0.0
  0
LINE
  5
AA3
330
A85
100
AcDbEntity
  8
0
100
AcDbLine
 10
12.7246735515754
 20
0.0
 30
0.0
 11
19.40135808271009
 21
0.0
 31
0.0
  0
ELLIPSE
  5
AA4
330
A85
100
AcDbEntity
  8
0
100
AcDbEllipse
 10
13.28683689038496
 20
10.00000000000001
 30
0.0
 11
-0.5639370964297688
 21
-9.999950064643336
 31
0.0
210
0.0
220
0.0
230
0.9999999999999998
 40
0.0560386765135294
 41
4.715549214497016
 42
6.286345541291909
  0
LINE
  5
AA5
330
A85
100
AcDbEntity
  8
0
100
AcDbLine
 10
19.40135808271009
 20
57.50707895874676
 30
0.0
 11
12.72467355157539
 21
10.00000000000001
 31
0.0
  0
LINE
  5
AA6
330
A85
100
AcDbEntity
  8
0
100
AcDbLine
 10
-19.40135808271007
 20
0.0
 30
0.0
 11
-12.72467355157539
 21
0.0
 31
0.0
  0
ELLIPSE
  5
AA7
330
A85
100
AcDbEntity
  8
0
100
AcDbEllipse
 10
-13.28683689038496
 20
10.0
 30
0.0
 11
-0.5639370964298353
 21
9.99995006464333
 31
0.0
210
0.0
220
0.0
230
0.9999999999999998
 40
0.0560386765135291
 41
3.138432419428191
 42
4.709228746255934
  0
LINE
  5
AA8
330
A85
100
AcDbEntity
  8
0
100
AcDbLine
 10
-12.7246735515754
 20
10.0
 30
0.0
 11
-19.40135808271014
 21
57.50707895874676
 31
0.0
  0
LINE
  5
AA9
330
A85
100
AcDbEntity
  8
0
100
AcDbLine
 10
-12.72467355157539
 20
0.0
 30
0.0
 11
12.7246735515754
 21
0.0
 31
0.0
  0
LINE
  5
AAA
330
A85
100
AcDbEntity
  8
0
100
AcDbLine
 10
32.49999999999996
 20
78.00000000000003
 30
0.0
 11
32.49999999999996
 21
71.49999999999995
 31
0.0
  0
LINE
  5
AAB
330
A85
100
AcDbEntity
  8
0
100
AcDbLine
 10
-32.50000000000003
 20
71.49999999999993
 30
0.0
 11
-32.50000000000003
 21
77.99999999999998
 31
0.0
  0
LINE
  5
AAC
330
A85
100
AcDbEntity
  8
0
100
AcDbLine
 10
25.49999999999996
 20
85.0
 30
0.0
 11
32.49999999999996
 21
78.00000000000003
 31
0.0
  0
LINE
  5
AAD
330
A85
100
AcDbEntity
  8
0
100
AcDbLine
 10
-32.50000000000003
 20
77.99999999999998
 30
0.0
 11
-25.50000000000003
 21
85.0
 31
0.0
  0
LINE
  5
AAE
330
A85
100
AcDbEntity
  8
0
100
AcDbLine
 10
-25.89060973854645
 20
56.59507411444166
 30
0.0
 11
-22.45917600970657
 21
26.95234078859373
 31
0.0
  0
ELLIPSE
  5
AAF
330
A85
100
AcDbEntity
  8
0
100
AcDbEllipse
 10
-24.90133146166029
 20
29.55706345359767
 30
0.0
 11
2.149316260459696
 21
-14.99707715516456
 31
0.0
210
0.0
220
0.0
230
1.0
 40
0.1377659927417794
 41
0.1547914637106942
 42
1.376521940106726
  0
LINE
  5
AB0
330
A85
100
AcDbEntity
  8
0
100
AcDbLine
 10
-22.45917600970655
 20
14.78494715841456
 30
0.0
 11
-25.89060973854638
 21
9.558133491121608
 31
0.0
  0
LINE
  5
AB1
330
A85
100
AcDbEntity
  8
0
100
AcDbLine
 10
22.45917600970654
 20
26.95234078859375
 30
0.0
 11
25.89060973854639
 21
56.59507411444167
 31
0.0
  0
LINE
  5
AB2
330
A85
100
AcDbEntity
  8
0
100
AcDbLine
 10
25.89060973854638
 20
9.55813349112163
 30
0.0
 11
22.45917600970654
 21
14.78494715841457
 31
0.0
  0
ELLIPSE
  5
AB3
330
A85
100
AcDbEntity
  8
0
100
AcDbEllipse
 10
24.90133146166027
 20
29.55706345359769
 30
0.0
 11
2.149316260459895
 21
14.99707715516453
 31
0.0
210
0.0
220
0.0
230
1.0
 40
0.1377659927417796
 41
1.765070713485998
 42
2.986801189887144
  0
ENDBLK
  5
A87
330
A85
100
AcDbEntity
  8
0
100
AcDbBlockEnd
  0
BLOCK
  5
AB5
330
AB4
100
AcDbEntity
  8
0
100
AcDbBlockBegin
  2
AKR135Z-ISO
 70
     0
 10
0.0
 20
0.0
 30
0.0
  3
AKR135Z-ISO
  1

  0
ELLIPSE
  5
AB7
330
AB4
100
AcDbEntity
  8
0
100
AcDbEllipse
 10
14.0383796512637
 20
75.1775889839848
 30
0.0
 11
1.300000000000133
 21
-2.251666049839465
 31
0.0
210
0.0
220
0.0
230
1.0
 40
0.5773502691896253
 41
4.095863641558286
 42
5.328914319210788
  0
ELLIPSE
  5
AB8
330
AB4
100
AcDbEntity
  8
0
100
AcDbEllipse
 10
11.91705930770404
 20
73.9528441125932
 30
0.0
 11
1.299999999999864
 21
-2.25166604983962
 31
0.0
210
0.0
220
0.0
230
1.0
 40
0.5773502691896253
 41
0.0
 42
6.283185307179586
  0
ELLIPSE
  5
AB9
330
AB4
100
AcDbEntity
  8
0
100
AcDbEllipse
 10
20.04878729134934
 20
55.37754689648743
 30
0.0
 11
1.300000000000133
 21
-2.251666049839464
 31
0.0
210
0.0
220
0.0
230
1.0
 40
0.5773502691896252
 41
4.095863641558286
 42
5.328914319210789
  0
ELLIPSE
  5
ABA
330
AB4
100
AcDbEntity
  8
0
100
AcDbEllipse
 10
17.92746694778968
 20
54.15280202509584
 30
0.0
 11
1.299999999999864
 21
-2.25166604983962
 31
0.0
210
0.0
220
0.0
230
1.0
 40
0.5773502691896253
 41
0.0
 42
6.283185307179586
  0
ELLIPSE
  5
ABB
330
AB4
100
AcDbEntity
  8
0
100
AcDbEllipse
 10
29.948282227961
 20
57.82703663927065
 30
0.0
 11
1.300000000000134
 21
-2.251666049839465
 31
0.0
210
0.0
220
0.0
230
1.0
 40
0.5773502691896254
 41
4.095863641558286
 42
5.32891431921079
  0
ELLIPSE
  5
ABC
330
AB4
100
AcDbEntity
  8
0
100
AcDbEllipse
 10
27.82696188440134
 20
56.60229176787904
 30
0.0
 11
1.299999999999865
 21
-2.25166604983962
 31
0.0
210
0.0
220
0.0
230
1.0
 40
0.5773502691896254
 41
0.0
 42
6.283185307179586
  0
ELLIPSE
  5
ABD
330
AB4
100
AcDbEntity
  8
0
100
AcDbEllipse
 10
39.84777716457266
 20
43.94659476349925
 30
0.0
 11
1.300000000000135
 21
-2.251666049839465
 31
0.0
210
0.0
220
0.0
230
0.9999999999999998
 40
0.5773502691896254
 41
4.095863641558286
 42
5.32891431921079
  0
ELLIPSE
  5
ABE
330
AB4
100
AcDbEntity
  8
0
100
AcDbEllipse
 10
37.72645682101301
 20
42.72184989210765
 30
0.0
 11
1.299999999999865
 21
-2.251666049839621
 31
0.0
210
0.0
220
0.0
230
1.0
 40
0.5773502691896255
 41
0.0
 42
6.283185307179586
  0
ELLIPSE
  5
ABF
330
AB4
100
AcDbEntity
  8
0
100
AcDbEllipse
 10
45.85818480465832
 20
56.80641591311093
 30
0.0
 11
1.300000000000135
 21
-2.251666049839465
 31
0.0
210
0.0
220
0.0
230
0.9999999999999998
 40
0.5773502691896254
 41
4.095863641558286
 42
5.328914319210787
  0
ELLIPSE
  5
AC0
330
AB4
100
AcDbEntity
  8
0
100
AcDbEllipse
 10
43.73686446109866
 20
55.58167104171935
 30
0.0
 11
1.299999999999865
 21
-2.251666049839621
 31
0.0
210
0.0
220
0.0
230
1.0
 40
0.5773502691896255
 41
0.0
 42
6.283185307179586
  0
ELLIPSE
  5
AC1
330
AB4
100
AcDbEntity
  8
0
100
AcDbEllipse
 10
29.948282227961
 20
41.49710502071608
 30
0.0
 11
-3.374999999999996
 21
5.845671475544965
 31
0.0
210
0.0
220
0.0
230
0.9999999999999998
 40
0.5773502691896255
 41
0.3196872591302821
 42
2.821905394459511
  0
ELLIPSE
  5
AC2
330
AB4
100
AcDbEntity
  8
0
100
AcDbEllipse
 10
27.82696188440134
 20
40.27236014932449
 30
0.0
 11
3.374999999999648
 21
-5.845671475545169
 31
0.0
210
0.0
220
0.0
230
0.9999999999999998
 40
0.5773502691896254
 41
0.0
 42
6.283185307179586
  0
ELLIPSE
  5
AC3
330
AB4
100
AcDbEntity
  8
0
100
AcDbEllipse
 10
12.27061269829728
 20
-45.45978084808672
 30
0.0
 11
-6.749999999999996
 21
0.0000000000000028
 31
0.0
210
0.0
220
0.0
230
1.0
 40
0.5773502691896259
 41
0.0
 42
6.283185307179586
  0
ELLIPSE
  5
AC4
330
AB4
100
AcDbEntity
  8
0
100
AcDbEllipse
 10
12.27061269829728
 20
-47.90927059086991
 30
0.0
 11
6.749999999999993
 21
-0.0000000000000025
 31
0.0
210
0.0
220
0.0
230
1.0
 40
0.5773502691896261
 41
0.3196872591302824
 42
2.821905394459511
  0
ELLIPSE
  5
AC5
330
AB4
100
AcDbEntity
  8
0
100
AcDbEllipse
 10
11.91705930770403
 20
41.29298087548416
 30
0.0
 11
-1.300000000000002
 21
2.251666049839546
 31
0.0
210
0.0
220
0.0
230
1.0
 40
0.5773502691896254
 41
0.0
 42
6.283185307179586
  0
ELLIPSE
  5
AC6
330
AB4
100
AcDbEntity
  8
0
100
AcDbEllipse
 10
43.73686446109864
 20
22.92180780461031
 30
0.0
 11
-1.3
 21
2.251666049839542
 31
0.0
210
0.0
220
0.0
230
1.0
 40
0.5773502691896253
 41
0.0
 42
6.283185307179586
  0
ELLIPSE
  5
AC7
330
AB4
100
AcDbEntity
  8
0
100
AcDbEllipse
 10
27.82696188440133
 20
-6.267944963555889
 30
0.0
 11
-1.299999999999999
 21
2.251666049839541
 31
0.0
210
0.0
220
0.0
230
1.0
 40
0.5773502691896253
 41
0.0
 42
6.283185307179586
  0
ELLIPSE
  5
AC8
330
AB4
100
AcDbEntity
  8
0
100
AcDbEllipse
 10
37.726456821013
 20
-3.818455220772714
 30
0.0
 11
1.299999999999999
 21
-2.251666049839542
 31
0.0
210
0.0
220
0.0
230
0.9999999999999998
 40
0.5773502691896253
 41
1.102424509025425
 42
6.261604347111319
  0
ELLIPSE
  5
AC9
330
AB4
100
AcDbEntity
  8
0
100
AcDbEllipse
 10
37.726456821013
 20
-3.818455220772714
 30
0.0
 11
1.299999999999999
 21
-2.25166604983954
 31
0.0
210
0.0
220
0.0
230
1.0
 40
0.5773502691896253
 41
0.982312804684998
 42
0.9823847703589159
  0
ELLIPSE
  5
ACA
330
AB4
100
AcDbEntity
  8
0
100
AcDbEllipse
 10
17.92746694778967
 20
7.61249691221546
 30
0.0
 11
-1.299999999999999
 21
2.251666049839541
 31
0.0
210
0.0
220
0.0
230
1.0
 40
0.5773502691896253
 41
0.0
 42
6.283185307179586
  0
ELLIPSE
  5
ACB
330
AB4
100
AcDbEntity
  8
0
100
AcDbEllipse
 10
27.82696188440134
 20
10.06198665499862
 30
0.0
 11
-1.299999999999999
 21
2.251666049839541
 31
0.0
210
0.0
220
0.0
230
1.0
 40
0.5773502691896253
 41
0.0
 42
6.283185307179586
  0
ELLIPSE
  5
ACC
330
AB4
100
AcDbEntity
  8
0
100
AcDbEllipse
 10
41.96909750813228
 20
9.245490074070898
 30
0.0
 11
-1.299999999999999
 21
2.251666049839541
 31
0.0
210
0.0
220
0.0
230
1.0
 40
0.5773502691896253
 41
0.0
 42
6.283185307179586
  0
ELLIPSE
  5
ACD
330
AB4
100
AcDbEntity
  8
0
100
AcDbEllipse
 10
13.68482626067039
 20
25.57542169262544
 30
0.0
 11
-1.299999999999999
 21
2.251666049839541
 31
0.0
210
0.0
220
0.0
230
1.0
 40
0.5773502691896253
 41
0.0
 42
6.283185307179586
  0
ELLIPSE
  5
ACE
330
AB4
100
AcDbEntity
  8
0
100
AcDbEllipse
 10
27.82696188440134
 20
24.75892511169771
 30
0.0
 11
-1.299999999999999
 21
2.251666049839541
 31
0.0
210
0.0
220
0.0
230
1.0
 40
0.5773502691896253
 41
0.0
 42
6.283185307179586
  0
ELLIPSE
  5
ACF
330
AB4
100
AcDbEntity
  8
0
100
AcDbEllipse
 10
-16.01365854916462
 20
-61.78971246664123
 30
0.0
 11
5.5
 21
-0.0000000000000022
 31
0.0
210
0.0
220
0.0
230
1.0
 40
0.5773502691896259
 41
0.0
 42
6.283185307179586
  0
ELLIPSE
  5
AD0
330
AB4
100
AcDbEntity
  8
0
100
AcDbEllipse
 10
-38.99462893772741
 20
-56.68660883584293
 30
0.0
 11
2.6
 21
-0.0000000000000011
 31
0.0
210
0.0
220
0.0
230
1.0
 40
0.5773502691896258
 41
0.0
 42
6.283185307179586
  0
ELLIPSE
  5
AD1
330
AB4
100
AcDbEntity
  8
0
100
AcDbEllipse
 10
-7.174823784332802
 20
-75.05778190671678
 30
0.0
 11
2.6
 21
-0.0000000000000011
 31
0.0
210
0.0
220
0.0
230
1.0
 40
0.5773502691896258
 41
0.0
 42
6.283185307179586
  0
LINE
  5
AD2
330
AB4
100
AcDbEntity
  8
0
100
AcDbLine
 10
50.80793227296412
 20
6.183627895591854
 30
0.0
 11
50.80793227296412
 21
52.31568471800844
 31
0.0
  0
LINE
  5
AD3
330
AB4
100
AcDbEntity
  8
0
100
AcDbLine
 10
4.845991495838561
 20
32.71976677574297
 30
0.0
 11
4.84599149583857
 21
78.85182359815956
 31
0.0
  0
LINE
  5
AD4
330
AB4
100
AcDbEntity
  8
0
100
AcDbLine
 10
24.60832068088292
 20
-44.55467039044865
 30
0.0
 11
5.809658739709977
 21
-62.57838979331733
 31
0.0
  0
ELLIPSE
  5
AD5
330
AB4
100
AcDbEntity
  8
0
100
AcDbEllipse
 10
24.49336830213653
 20
-34.55366730579234
 30
0.0
 11
-7.499999999999989
 21
-12.99038105676658
 31
0.0
210
0.0
220
0.0
230
1.0
 40
0.415067691694505
 41
0.9599310885968783
 42
2.181661564992911
  0
LINE
  5
AD6
330
AB4
100
AcDbEntity
  8
0
100
AcDbLine
 10
39.42163512912891
 20
-4.360738944038233
 30
0.0
 11
33.21196722614863
 21
-29.65271744368403
 31
0.0
  0
LINE
  5
AD7
330
AB4
100
AcDbEntity
  8
0
100
AcDbLine
 10
5.77552443937392
 20
-13.81227981513386
 30
0.0
 11
7.063165305635905
 21
14.32143231911986
 31
0.0
  0
ELLIPSE
  5
AD8
330
AB4
100
AcDbEntity
  8
0
100
AcDbEllipse
 10
-6.396803846214553
 20
-16.71921810062793
 30
0.0
 11
7.499999999999972
 21
12.99038105676659
 31
0.0
210
0.0
220
0.0
230
1.0
 40
0.7396328466847472
 41
4.101523742186671
 42
5.323254218582702
  0
LINE
  5
AD9
330
AB4
100
AcDbEntity
  8
0
100
AcDbLine
 10
-26.54881108378309
 20
-43.8962185301592
 30
0.0
 11
-2.828122105891792
 21
-28.71423276189848
 31
0.0
  0
LINE
  5
ADA
330
AB4
100
AcDbEntity
  8
0
100
AcDbLine
 10
-48.18701709315253
 20
-59.54434686908999
 30
0.0
 11
-12.12457125263864
 21
-80.36500968274701
 31
0.0
  0
ELLIPSE
  5
ADB
330
AB4
100
AcDbEntity
  8
0
100
AcDbEllipse
 10
14.03837965126369
 20
42.51772574687577
 30
0.0
 11
1.300000000000136
 21
-2.25166604983947
 31
0.0
210
0.0
220
0.0
230
0.9999999999999998
 40
0.5773502691896255
 41
4.095863641558279
 42
5.328914319210794
  0
ELLIPSE
  5
ADC
330
AB4
100
AcDbEntity
  8
0
100
AcDbEllipse
 10
45.85818480465831
 20
24.14655267600191
 30
0.0
 11
1.300000000000133
 21
-2.251666049839465
 31
0.0
210
0.0
220
0.0
230
1.0
 40
0.5773502691896252
 41
4.095863641558286
 42
5.328914319210787
  0
ELLIPSE
  5
ADD
330
AB4
100
AcDbEntity
  8
0
100
AcDbEllipse
 10
29.94828222796099
 20
-5.043200092164292
 30
0.0
 11
1.300000000000133
 21
-2.251666049839463
 31
0.0
210
0.0
220
0.0
230
0.9999999999999998
 40
0.5773502691896253
 41
4.095863641558288
 42
5.32891431921079
  0
ELLIPSE
  5
ADE
330
AB4
100
AcDbEntity
  8
0
100
AcDbEllipse
 10
39.84777716457266
 20
-2.593710349381117
 30
0.0
 11
1.300000000000133
 21
-2.251666049839463
 31
0.0
210
0.0
220
0.0
230
0.9999999999999998
 40
0.5773502691896253
 41
4.095863641558286
 42
5.257964389049488
  0
ELLIPSE
  5
ADF
330
AB4
100
AcDbEntity
  8
0
100
AcDbEllipse
 10
20.04878729134933
 20
8.837241783607057
 30
0.0
 11
1.300000000000133
 21
-2.251666049839463
 31
0.0
210
0.0
220
0.0
230
0.9999999999999998
 40
0.5773502691896253
 41
4.095863641558286
 42
5.328914319210789
  0
ELLIPSE
  5
AE0
330
AB4
100
AcDbEntity
  8
0
100
AcDbEllipse
 10
29.948282227961
 20
11.28673152639022
 30
0.0
 11
1.300000000000132
 21
-2.251666049839464
 31
0.0
210
0.0
220
0.0
230
0.9999999999999998
 40
0.5773502691896255
 41
4.095863641558288
 42
5.328914319210793
  0
ELLIPSE
  5
AE1
330
AB4
100
AcDbEntity
  8
0
100
AcDbEllipse
 10
44.09041785169193
 20
10.47023494546249
 30
0.0
 11
1.300000000000133
 21
-2.251666049839463
 31
0.0
210
0.0
220
0.0
230
1.0
 40
0.5773502691896257
 41
4.095863641558288
 42
5.328914319210788
  0
ELLIPSE
  5
AE2
330
AB4
100
AcDbEntity
  8
0
100
AcDbEllipse
 10
15.80614660423005
 20
26.80016656401704
 30
0.0
 11
1.300000000000133
 21
-2.251666049839463
 31
0.0
210
0.0
220
0.0
230
1.0
 40
0.5773502691896257
 41
4.095863641558286
 42
5.32891431921079
  0
ELLIPSE
  5
AE3
330
AB4
100
AcDbEntity
  8
0
100
AcDbEllipse
 10
29.948282227961
 20
25.9836699830893
 30
0.0
 11
1.300000000000132
 21
-2.251666049839464
 31
0.0
210
0.0
220
0.0
230
0.9999999999999998
 40
0.5773502691896255
 41
4.095863641558286
 42
5.32891431921079
  0
ELLIPSE
  5
AE4
330
AB4
100
AcDbEntity
  8
0
100
AcDbEllipse
 10
-16.01365854916462
 20
-64.23920220942441
 30
0.0
 11
-5.5
 21
-0.0000000000003254
 31
0.0
210
0.0
220
0.0
230
1.0
 40
0.577350269189626
 41
3.537553217051975
 42
5.887224743716539
  0
ELLIPSE
  5
AE5
330
AB4
100
AcDbEntity
  8
0
100
AcDbEllipse
 10
-38.99462893772741
 20
-59.13609857862612
 30
0.0
 11
-2.6
 21
-0.0000000000001542
 31
0.0
210
0.0
220
0.0
230
1.0
 40
0.5773502691896259
 41
4.095863641558285
 42
5.328914319210799
  0
ELLIPSE
  5
AE6
330
AB4
100
AcDbEntity
  8
0
100
AcDbEllipse
 10
-7.174823784332802
 20
-77.50727164949998
 30
0.0
 11
-2.6
 21
-0.0000000000001542
 31
0.0
210
0.0
220
0.0
230
1.0
 40
0.5773502691896259
 41
4.095863641558285
 42
5.328914319210797
  0
LINE
  5
AE7
330
AB4
100
AcDbEntity
  8
0
100
AcDbLine
 10
52.92925261652377
 20
7.40837276698345
 30
0.0
 11
52.92925261652378
 21
53.54042958940005
 31
0.0
  0
LINE
  5
AE8
330
AB4
100
AcDbEntity
  8
0
100
AcDbLine
 10
-48.18701709315253
 20
-61.99383661187318
 30
0.0
 11
-12.12457125263864
 21
-82.81449942553019
 31
0.0
  0
SPLINE
  5
AE9
330
AB4
100
AcDbEntity
  8
0
100
AcDbSpline
210
0.0
220
0.0
230
1.0
 70
     8
 71
     3
 72
    17
 73
    13
 74
     0
 42
0.000000001
 43
0.0000000001
 40
-0.4749287860229771
 40
-0.4749287860229771
 40
-0.4749287860229771
 40
-0.4749287860229771
 40
-0.4725410755540734
 40
-0.4725410755540734
 40
-0.4725410755540734
 40
-0.2262668722288412
 40
-0.2262668722288412
 40
-0.2262668722288412
 40
-0.0545088760457658
 40
-0.0545088760457658
 40
-0.0545088760457658
 40
0.0
 40
0.0
 40
0.0
 40
0.0
 10
5.955058063392146
 20
24.21377152486485
 30
0.0
 10
5.952720819253056
 20
24.19836362501503
 30
0.0
 10
5.950383151125868
 20
24.18295448709207
 30
0.0
 10
5.948045101787942
 20
24.16754413197075
 30
0.0
 10
5.706893067010891
 20
22.57808302272481
 30
0.0
 10
5.464435350151695
 20
20.98056614094869
 30
0.0
 10
5.26946972164199
 20
19.41078273208978
 30
0.0
 10
5.133495651986068
 20
18.3159752000521
 30
0.0
 10
5.018553460332606
 20
17.21684292423643
 30
0.0
 10
4.94245295835924
 20
16.16058303377461
 30
0.0
 10
4.918301810108385
 20
15.82536988084561
 30
0.0
 10
4.899117501272414
 20
15.49696837282462
 30
0.0
 10
4.882235505806953
 20
15.17432668956276
 30
0.0
  0
LINE
  5
AEA
330
AB4
100
AcDbEntity
  8
0
100
AcDbLine
 10
5.400911376407977
 20
14.97148855594007
 30
0.0
 11
4.882235505722012
 21
15.17432668957237
 31
0.0
  0
LINE
  5
AEB
330
AB4
100
AcDbEntity
  8
0
100
AcDbLine
 10
7.063165305635878
 20
14.32143231911989
 30
0.0
 11
5.400911376407977
 21
14.97148855594007
 31
0.0
  0
SPLINE
  5
AEC
330
AB4
100
AcDbEntity
  8
0
100
AcDbSpline
210
0.0
220
0.0
230
1.0
 70
     8
 71
     3
 72
    20
 73
    16
 74
     0
 42
0.000000001
 43
0.0000000001
 40
-1.0
 40
-1.0
 40
-1.0
 40
-1.0
 40
-0.9088715958329444
 40
-0.9088715958329444
 40
-0.9088715958329444
 40
-0.5828186689869098
 40
-0.5828186689869098
 40
-0.5828186689869098
 40
-0.2914093344934549
 40
-0.2914093344934549
 40
-0.2914093344934549
 40
-0.0928699318600557
 40
-0.0928699318600557
 40
-0.0928699318600557
 40
0.0
 40
0.0
 40
0.0
 40
0.0
 10
7.063165305635941
 20
14.32143231911984
 30
0.0
 10
7.085909478182776
 20
14.85018257436971
 30
0.0
 10
7.095936704118979
 20
15.41806006088778
 30
0.0
 10
7.080372732195026
 20
15.97692079048232
 30
0.0
 10
7.024685609771017
 20
17.97649686392667
 30
0.0
 10
6.707920023780893
 20
20.04155107692975
 30
0.0
 10
6.342879158316891
 20
22.10362026869141
 30
0.0
 10
6.016624409749615
 20
23.94659164350283
 30
0.0
 10
5.645725726635246
 20
25.77407168413947
 30
0.0
 10
5.351814701227186
 20
27.56407653730066
 30
0.0
 10
5.151570877489288
 20
28.78362049897664
 30
0.0
 10
4.987981406004435
 20
29.98277107960371
 30
0.0
 10
4.907672889752721
 20
31.13097195278824
 30
0.0
 10
4.870107316707001
 20
31.66806099123569
 30
0.0
 10
4.848046955993705
 20
32.19605032914813
 30
0.0
 10
4.845991495913817
 20
32.71976677583906
 30
0.0
  0
LINE
  5
AED
330
AB4
100
AcDbEntity
  8
0
100
AcDbLine
 10
10.19859960664651
 20
15.75477511194341
 30
0.0
 11
7.063165305635887
 21
14.32143231911985
 31
0.0
  0
ELLIPSE
  5
AEE
330
AB4
100
AcDbEntity
  8
0
100
AcDbEllipse
 10
11.98680967632897
 20
14.72235154684465
 30
0.0
 11
-2.980787541290216
 21
-0.3389773350668576
 31
0.0
210
0.0
220
0.0
230
0.9999999999999998
 40
0.4913799087545871
 41
3.866279069693543
 42
5.298790550294561
  0
SPLINE
  5
AEF
330
AB4
100
AcDbEntity
  8
0
100
AcDbSpline
210
0.0
220
0.0
230
1.0
 70
     8
 71
     2
 72
     6
 73
     3
 74
     0
 42
0.000000001
 43
0.0000000001
 40
0.0
 40
0.0
 40
0.0
 40
1.0
 40
1.0
 40
1.0
 10
14.10813001988859
 20
15.94709641823625
 30
0.0
 10
13.07921490668901
 20
24.99483216100193
 30
0.0
 10
4.845991495838575
 20
32.719766775743
 30
0.0
  0
SPLINE
  5
AF0
330
AB4
100
AcDbEntity
  8
0
100
AcDbSpline
210
0.0
220
0.0
230
1.0
 70
     8
 71
     3
 72
    20
 73
    16
 74
     0
 42
0.000000001
 43
0.0000000001
 40
-1.0
 40
-1.0
 40
-1.0
 40
-1.0
 40
-0.8565140843593937
 40
-0.8565140843593937
 40
-0.8565140843593937
 40
-0.5402558541842986
 40
-0.5402558541842986
 40
-0.5402558541842986
 40
-0.2701279270921493
 40
-0.2701279270921493
 40
-0.2701279270921493
 40
-0.0852549168078418
 40
-0.0852549168078418
 40
-0.0852549168078418
 40
0.0
 40
0.0
 40
0.0
 40
0.0
 10
39.4216351291289
 20
-4.36073894403822
 30
0.0
 10
39.61128290023943
 20
-3.598458934820136
 30
0.0
 10
39.97408604161833
 20
-2.928898135994129
 30
0.0
 10
40.47079022716316
 20
-2.360053203459306
 30
0.0
 10
41.56557911943624
 20
-1.106258426429498
 30
0.0
 10
43.25890223289046
 20
-0.2765559963589226
 30
0.0
 10
44.96784337773657
 20
0.5276181124521618
 30
0.0
 10
46.42751362481341
 20
1.214493154135811
 30
0.0
 10
47.8694468212481
 20
1.861971790982348
 30
0.0
 10
48.97231424846239
 20
2.72988658311565
 30
0.0
 10
49.72710633311812
 20
3.323879296194984
 30
0.0
 10
50.30892930675275
 20
4.022349744013302
 30
0.0
 10
50.60220940177519
 20
4.873831347454835
 30
0.0
 10
50.73745667266713
 20
5.266495442409411
 30
0.0
 10
50.80432204333421
 20
5.698219424366754
 30
0.0
 10
50.80793227304148
 20
6.183627895686747
 30
0.0
  0
SPLINE
  5
AF1
330
AB4
100
AcDbEntity
  8
0
100
AcDbSpline
210
0.0
220
0.0
230
1.0
 70
     8
 71
     2
 72
     6
 73
     3
 74
     0
 42
0.000000001
 43
0.0000000001
 40
0.0
 40
0.0
 40
0.0
 40
1.0
 40
1.0
 40
1.0
 10
41.54579374891411
 20
0.1059538783489167
 30
0.0
 10
42.57470886211368
 20
7.965600785956494
 30
0.0
 10
50.80793227296412
 20
6.183627895591872
 30
0.0
  0
ELLIPSE
  5
AF2
330
AB4
100
AcDbEntity
  8
0
100
AcDbEllipse
 10
39.42447340535442
 20
-1.118790993042648
 30
0.0
 11
-2.97461918629604
 21
0.3894107041665442
 31
0.0
210
0.0
220
0.0
230
1.0
 40
0.652083163361085
 41
3.544678169961347
 42
4.007259574309326
  0
ELLIPSE
  5
AF3
330
AB4
100
AcDbEntity
  8
0
100
AcDbEllipse
 10
39.42447340535442
 20
-1.118790993042653
 30
0.0
 11
5.949238372592029
 21
-0.7788214083334788
 31
0.0
210
0.0
220
0.0
230
1.0
 40
0.6520831633610858
 41
5.71634074729844
 42
6.217785924927834
  0
SPLINE
  5
AF4
330
AB4
100
AcDbEntity
  8
0
100
AcDbSpline
210
0.0
220
0.0
230
1.0
 70
     8
 71
     3
 72
    20
 73
    16
 74
     0
 42
0.000000001
 43
0.0000000001
 40
-1.0
 40
-1.0
 40
-1.0
 40
-1.0
 40
-0.8557507846683195
 40
-0.8557507846683195
 40
-0.8557507846683195
 40
-0.4725410755540734
 40
-0.4725410755540734
 40
-0.4725410755540734
 40
-0.2262668722288412
 40
-0.2262668722288412
 40
-0.2262668722288412
 40
-0.0545088760457658
 40
-0.0545088760457658
 40
-0.0545088760457658
 40
0.0
 40
0.0
 40
0.0
 40
0.0
 10
52.9292526165238
 20
7.408372766983397
 30
0.0
 10
52.92640404166919
 20
6.605139932018033
 30
0.0
 10
52.72573308477409
 20
5.844402241516819
 30
0.0
 10
52.3583662101068
 20
5.142749851308501
 30
0.0
 10
51.38242639056767
 20
3.27875351876143
 30
0.0
 10
49.34161647342047
 20
1.804145606231273
 30
0.0
 10
47.27109969165582
 20
0.3096674407728894
 30
0.0
 10
45.94045785567721
 20
-0.6507764384699711
 30
0.0
 10
44.59885474695375
 20
-1.613701432374732
 30
0.0
 10
43.53037638923204
 20
-2.679162031882529
 30
0.0
 10
42.78519195980602
 20
-3.422241798713834
 30
0.0
 10
42.16431326392775
 20
-4.229271497622448
 30
0.0
 10
41.78393907422898
 20
-5.109858892568679
 30
0.0
 10
41.66322405648274
 20
-5.389320869450533
 30
0.0
 10
41.57024025886082
 20
-5.675114222754893
 30
0.0
 10
41.49708693600761
 20
-5.965267640001776
 30
0.0
  0
LINE
  5
AF5
330
AB4
100
AcDbEntity
  8
0
100
AcDbLine
 10
44.17054323123759
 20
-3.858935684609074
 30
0.0
 11
41.49708693608324
 21
-5.965267640084896
 31
0.0
  0
LINE
  5
AF6
330
AB4
100
AcDbEntity
  8
0
100
AcDbLine
 10
41.49708693608327
 20
-5.965267640084892
 30
0.0
 11
41.00349618727451
 21
-5.583673368460253
 31
0.0
  0
LINE
  5
AF7
330
AB4
100
AcDbEntity
  8
0
100
AcDbLine
 10
50.80793227296412
 20
6.183627895591854
 30
0.0
 11
52.92925261652378
 21
7.408372766983442
 31
0.0
  0
LINE
  5
AF8
330
AB4
100
AcDbEntity
  8
0
100
AcDbLine
 10
40.84918860206287
 20
-5.464378404510652
 30
0.0
 11
39.42163512912895
 21
-4.360738944038251
 31
0.0
  0
LINE
  5
AF9
330
AB4
100
AcDbEntity
  8
0
100
AcDbLine
 10
41.00349618727451
 20
-5.583673368460253
 30
0.0
 11
40.84918860206287
 21
-5.464378404510652
 31
0.0
  0
SPLINE
  5
AFA
330
AB4
100
AcDbEntity
  8
0
100
AcDbSpline
210
0.0
220
0.0
230
1.0
 70
     8
 71
     3
 72
    16
 73
    12
 74
     0
 42
0.000000001
 43
0.0000000001
 40
0.0012960646793254
 40
0.0012960646793254
 40
0.0012960646793254
 40
0.0012960646793254
 40
0.1521827335058142
 40
0.1521827335058142
 40
0.2383224519966042
 40
0.2383224519966042
 40
0.2860912970314286
 40
0.2860912970314286
 40
0.3648469310571323
 40
0.3648469310571323
 40
0.3700888066419574
 40
0.3700888066419574
 40
0.3700888066419574
 40
0.3700888066419574
 10
41.28416478428571
 20
-1.582993188645658
 30
0.0
 10
41.63035525024059
 20
-1.300710643033049
 30
0.0
 10
41.9614693125085
 20
-1.016141034066642
 30
0.0
 10
42.3701845327969
 20
-0.6049626240095308
 30
0.0
 10
42.49684296379505
 20
-0.4615799572353608
 30
0.0
 10
42.64009520430909
 20
-0.2786846344278171
 30
0.0
 10
42.68122779739424
 20
-0.2209167047788707
 30
0.0
 10
42.76217652694959
 20
-0.0987578339768636
 30
0.0
 10
42.78410921089935
 20
-0.0543690750268588
 30
0.0
 10
42.78668162577016
 20
-0.0490533063599052
 30
0.0
 10
42.78676027678845
 20
-0.0488871874505215
 30
0.0
 10
42.786760276791
 20
-0.0488871874451258
 30
0.0
  0
SPLINE
  5
AFB
330
AB4
100
AcDbEntity
  8
0
100
AcDbSpline
210
0.0
220
0.0
230
1.0
 70
     8
 71
     3
 72
    10
 73
     6
 74
     0
 42
0.000000001
 43
0.0000000001
 40
0.6267341345111431
 40
0.6267341345111431
 40
0.6267341345111431
 40
0.6267341345111431
 40
0.7263093450297964
 40
0.7263093450297964
 40
0.8486342965730351
 40
0.8486342965730351
 40
0.8486342965730351
 40
0.8486342965730351
 10
45.6591731450684
 20
-0.8718332400220241
 30
0.0
 10
45.61218381107997
 20
-1.023737036777654
 30
0.0
 10
45.56207947072725
 20
-1.202862920853284
 30
0.0
 10
45.45064433774853
 20
-1.631625628078756
 30
0.0
 10
45.3895498121086
 20
-1.886081311741483
 30
0.0
 10
45.32777292432782
 20
-2.149469966788104
 30
0.0
  0
ELLIPSE
  5
AFC
330
AB4
100
AcDbEntity
  8
0
100
AcDbEllipse
 10
3.003468594513662
 20
-64.20182178812938
 30
0.0
 11
3.649098310923981
 21
-4.762780859667154
 31
0.0
210
0.0
220
0.0
230
1.0
 40
0.6520831633610851
 41
0.0653993822517478
 42
0.5668445598811447
  0
LINE
  5
AFD
330
AB4
100
AcDbEntity
  8
0
100
AcDbLine
 10
8.236947255064661
 20
-63.57351943444677
 30
0.0
 11
7.749538420396833
 21
-66.9419664796958
 31
0.0
  0
SPLINE
  5
AFE
330
AB4
100
AcDbEntity
  8
0
100
AcDbSpline
210
0.0
220
0.0
230
1.0
 70
     8
 71
     3
 72
    20
 73
    16
 74
     0
 42
0.000000001
 43
0.0000000001
 40
-1.0
 40
-1.0
 40
-1.0
 40
-1.0
 40
-0.8557507846683195
 40
-0.8557507846683195
 40
-0.8557507846683195
 40
-0.4725410755540734
 40
-0.4725410755540734
 40
-0.4725410755540734
 40
-0.2262668722288412
 40
-0.2262668722288412
 40
-0.2262668722288412
 40
-0.0545088760457658
 40
-0.0545088760457658
 40
-0.0545088760457658
 40
0.0
 40
0.0
 40
0.0
 40
0.0
 10
2.371117761685708
 20
-80.16088553751504
 30
0.0
 10
3.065313514492187
 20
-79.75680218184368
 30
0.0
 10
3.623796201635003
 20
-79.20264719012021
 30
0.0
 10
4.047761558847837
 20
-78.53367194904527
 30
0.0
 10
5.174059825625061
 20
-76.75648510648606
 30
0.0
 10
5.430702779924119
 20
-74.25178791767628
 30
0.0
 10
5.689700445729917
 20
-71.7114287029769
 30
0.0
 10
5.856148326074204
 20
-70.07883713005964
 30
0.0
 10
6.019264278372968
 20
-68.43551225915655
 30
0.0
 10
6.407741045417272
 20
-66.97745255822178
 30
0.0
 10
6.678674785818388
 20
-65.96056402841859
 30
0.0
 10
7.067143658742622
 20
-65.01935245566516
 30
0.0
 10
7.63956761816904
 20
-64.24964504696898
 30
0.0
 10
7.821231280667424
 20
-64.00537178654151
 30
0.0
 10
8.022243686050778
 20
-63.7819487790084
 30
0.0
 10
8.236947254954838
 20
-63.57351943442283
 30
0.0
  0
SPLINE
  5
AFF
330
AB4
100
AcDbEntity
  8
0
100
AcDbSpline
210
0.0
220
0.0
230
1.0
 70
     8
 71
     3
 72
    20
 73
    16
 74
     0
 42
0.000000001
 43
0.0000000001
 40
-1.0
 40
-1.0
 40
-1.0
 40
-1.0
 40
-0.8565140843593937
 40
-0.8565140843593937
 40
-0.8565140843593937
 40
-0.5402558541842986
 40
-0.5402558541842986
 40
-0.5402558541842986
 40
-0.2701279270921493
 40
-0.2701279270921493
 40
-0.2701279270921493
 40
-0.0852549168078418
 40
-0.0852549168078418
 40
-0.0852549168078418
 40
0.0
 40
0.0
 40
0.0
 40
0.0
 10
5.809658739709933
 20
-62.57838979331733
 30
0.0
 10
5.244328772485298
 20
-63.12376958547918
 30
0.0
 10
4.845873682013213
 20
-63.77274672189912
 30
0.0
 10
4.601591612396438
 20
-64.48732763101441
 30
0.0
 10
4.063167930492914
 20
-66.06234001201882
 30
0.0
 10
4.191286105197233
 20
-67.94365206012082
 30
0.0
 10
4.349321470324167
 20
-69.82572555953557
 30
0.0
 10
4.484305358539053
 20
-71.43327459549424
 30
0.0
 10
4.644539008839578
 20
-73.00576469259006
 30
0.0
 10
4.444336464138993
 20
-74.39483329763067
 30
0.0
 10
4.307319727277314
 20
-75.3454987740576
 30
0.0
 10
3.993338062491256
 20
-76.19860747363976
 30
0.0
 10
3.402573410567
 20
-76.87833628807426
 30
0.0
 10
3.130139964628289
 20
-77.1917959079365
 30
0.0
 10
2.789688714163798
 20
-77.46556500854632
 30
0.0
 10
2.371117761642143
 20
-77.71139579484631
 30
0.0
  0
ELLIPSE
  5
B00
330
AB4
100
AcDbEntity
  8
0
100
AcDbEllipse
 10
3.003468594513662
 20
-64.20182178812938
 30
0.0
 11
1.824549155461988
 21
-2.381390429833579
 31
0.0
210
0.0
220
0.0
230
1.0
 40
0.6520831633610851
 41
5.417518386459804
 42
5.880099790805367
  0
SPLINE
  5
B01
330
AB4
100
AcDbEntity
  8
0
100
AcDbSpline
210
0.0
220
0.0
230
1.0
 70
     8
 71
     2
 72
     6
 73
     3
 74
     0
 42
0.000000001
 43
0.0000000001
 40
0.0
 40
0.0
 40
0.0
 40
1.0
 40
1.0
 40
1.0
 10
3.003468594513667
 20
-66.65131153091255
 30
0.0
 10
-3.288727735650525
 20
-71.47220161108494
 30
0.0
 10
2.371117761685632
 20
-77.71139579473189
 30
0.0
  0
LINE
  5
B02
330
AB4
100
AcDbEntity
  8
0
100
AcDbLine
 10
7.659681547504879
 20
-63.33685444272191
 30
0.0
 11
8.236947255064656
 21
-63.57351943444678
 31
0.0
  0
LINE
  5
B03
330
AB4
100
AcDbEntity
  8
0
100
AcDbLine
 10
7.479215285553979
 20
-63.26286763589812
 30
0.0
 11
7.659681547504879
 21
-63.33685444272191
 31
0.0
  0
LINE
  5
B04
330
AB4
100
AcDbEntity
  8
0
100
AcDbLine
 10
5.809658739709977
 20
-62.57838979331733
 30
0.0
 11
7.479215285553979
 21
-63.26286763589812
 31
0.0
  0
SPLINE
  5
B05
330
AB4
100
AcDbEntity
  8
0
100
AcDbSpline
210
0.0
220
0.0
230
1.0
 70
     8
 71
     3
 72
    10
 73
     6
 74
     0
 42
0.000000001
 43
0.0000000001
 40
0.0
 40
0.0
 40
0.0
 40
0.0
 40
0.2205267658720706
 40
0.2205267658720706
 40
0.2217027808538573
 40
0.2217027808538573
 40
0.2217027808538573
 40
0.2217027808538573
 10
6.847712528410339
 20
-68.79888965083606
 30
0.0
 10
6.492178310947602
 20
-69.13275762869817
 30
0.0
 10
6.150857543356966
 20
-69.46178367468999
 30
0.0
 10
5.909499037662868
 20
-69.72195489980383
 30
0.0
 10
5.908221517326763
 20
-69.72333297255758
 30
0.0
 10
5.906946776593238
 20
-69.72470902420019
 30
0.0
  0
SPLINE
  5
B06
330
AB4
100
AcDbEntity
  8
0
100
AcDbSpline
210
0.0
220
0.0
230
1.0
 70
     8
 71
     3
 72
    16
 73
    12
 74
     0
 42
0.000000001
 43
0.0000000001
 40
0.3455872360729949
 40
0.3455872360729949
 40
0.3455872360729949
 40
0.3455872360729949
 40
0.4291228021753463
 40
0.4291228021753463
 40
0.503838292133481
 40
0.503838292133481
 40
0.5839347605833958
 40
0.5839347605833958
 40
0.6898113597670465
 40
0.6898113597670465
 40
0.7145407836463292
 40
0.7145407836463292
 40
0.7145407836463292
 40
0.7145407836463292
 10
3.758048154979323
 20
-67.64859953640236
 30
0.0
 10
3.758048139883891
 20
-67.64859955823354
 30
0.0
 10
3.786016147413722
 20
-67.60811419430533
 30
0.0
 10
3.867462778282169
 20
-67.44480884657689
 30
0.0
 10
3.917689043563941
 20
-67.33011922162766
 30
0.0
 10
4.021595500877888
 20
-67.0383210540058
 30
0.0
 10
4.076039363600161
 20
-66.85546305096512
 30
0.0
 10
4.190467063562448
 20
-66.39358562684979
 30
0.0
 10
4.247807288026903
 20
-66.09949091142979
 30
0.0
 10
4.31176905848134
 20
-65.72424364839877
 30
0.0
 10
4.323631883207488
 20
-65.65250748717533
 30
0.0
 10
4.335325404943222
 20
-65.58025924805157
 30
0.0
  0
LINE
  5
B07
330
AB4
100
AcDbEntity
  8
0
100
AcDbLine
 10
2.371117761685632
 20
-77.71139579473189
 30
0.0
 11
2.371117761685632
 21
-80.16088553751504
 31
0.0
  0
LINE
  5
B08
330
AB4
100
AcDbEntity
  8
0
100
AcDbLine
 10
-2.22507631602697
 20
-82.81449942553019
 30
0.0
 11
2.371117761685641
 21
-80.16088553751504
 31
0.0
  0
LINE
  5
B09
330
AB4
100
AcDbEntity
  8
0
100
AcDbLine
 10
-43.59082301543991
 20
-51.17525691458077
 30
0.0
 11
-48.18701709315252
 21
-53.82887080259589
 31
0.0
  0
LINE
  5
B0A
330
AB4
100
AcDbEntity
  8
0
100
AcDbLine
 10
-2.22507631602697
 20
-80.36500968274701
 30
0.0
 11
2.371117761685641
 21
-77.71139579473189
 31
0.0
  0
LINE
  5
B0B
330
AB4
100
AcDbEntity
  8
0
100
AcDbLine
 10
-2.22507631602697
 20
-82.81449942553019
 30
0.0
 11
-2.22507631602697
 21
-80.36500968274701
 31
0.0
  0
SPLINE
  5
B0C
330
AB4
100
AcDbEntity
  8
0
100
AcDbSpline
210
0.0
220
0.0
230
1.0
 70
     8
 71
     3
 72
    17
 73
    13
 74
     0
 42
0.000000001
 43
0.0000000001
 40
-0.4749287860229759
 40
-0.4749287860229759
 40
-0.4749287860229759
 40
-0.4749287860229759
 40
-0.4725410755540734
 40
-0.4725410755540734
 40
-0.4725410755540734
 40
-0.2262668722288412
 40
-0.2262668722288412
 40
-0.2262668722288412
 40
-0.0545088760457658
 40
-0.0545088760457658
 40
-0.0545088760457658
 40
0.0
 40
0.0
 40
0.0
 40
0.0
 10
-35.66988175993286
 20
-47.88273911113108
 30
0.0
 10
-35.65770674931349
 20
-47.87301104840687
 30
0.0
 10
-35.64553087848539
 20
-47.86328199946164
 30
0.0
 10
-35.63335414413796
 20
-47.85355201177903
 30
0.0
 10
-34.37741646259212
 20
-46.84997766886484
 30
0.0
 10
-33.11515511842908
 20
-45.84124468583314
 30
0.0
 10
-31.85316562217278
 20
-44.88750779424948
 30
0.0
 10
-30.97302152200157
 20
-44.22234702965265
 30
0.0
 10
-30.07861614485252
 20
-43.57323803380626
 30
0.0
 10
-29.2019184977007
 20
-42.97920312062567
 30
0.0
 10
-28.92369096570693
 20
-42.79068103624537
 30
0.0
 10
-28.64887907153763
 20
-42.60986618342887
 30
0.0
 10
-28.3779041752458
 20
-42.43392510485828
 30
0.0
  0
SPLINE
  5
B0D
330
AB4
100
AcDbEntity
  8
0
100
AcDbSpline
210
0.0
220
0.0
230
1.0
 70
     8
 71
     3
 72
    20
 73
    16
 74
     0
 42
0.000000001
 43
0.0000000001
 40
-1.0
 40
-1.0
 40
-1.0
 40
-1.0
 40
-0.8565140843593937
 40
-0.8565140843593937
 40
-0.8565140843593937
 40
-0.5402558541842986
 40
-0.5402558541842986
 40
-0.5402558541842986
 40
-0.2701279270921493
 40
-0.2701279270921493
 40
-0.2701279270921493
 40
-0.0852549168078418
 40
-0.0852549168078418
 40
-0.0852549168078418
 40
0.0
 40
0.0
 40
0.0
 40
0.0
 10
-26.54881108378302
 20
-43.89621853015925
 30
0.0
 10
-27.26227373488998
 20
-44.35607387740588
 30
0.0
 10
-28.03613236098613
 20
-44.7883116814785
 30
0.0
 10
-28.83749433546157
 20
-45.18126235756351
 30
0.0
 10
-30.60378142117118
 20
-46.04736747185239
 30
0.0
 10
-32.50344733801575
 20
-46.75793782884021
 30
0.0
 10
-34.42109918345292
 20
-47.4416127584823
 30
0.0
 10
-36.05903700915181
 20
-48.02556496566072
 30
0.0
 10
-37.67442713224693
 20
-48.57289819920706
 30
0.0
 10
-39.23901977042604
 20
-49.17423581649818
 30
0.0
 10
-40.30981224272813
 20
-49.58578562070586
 30
0.0
 10
-41.34584474332064
 20
-50.02201807586655
 30
0.0
 10
-42.30144947449971
 20
-50.49110637233213
 30
0.0
 10
-42.74213035989538
 20
-50.70742828773344
 30
0.0
 10
-43.16496704900875
 20
-50.93363213316202
 30
0.0
 10
-43.59082301548547
 20
-51.17525691469399
 30
0.0
  0
SPLINE
  5
B0E
330
AB4
100
AcDbEntity
  8
0
100
AcDbSpline
210
0.0
220
0.0
230
1.0
 70
     8
 71
     2
 72
     6
 73
     3
 74
     0
 42
0.000000001
 43
0.0000000001
 40
0.0
 40
0.0
 40
0.0
 40
1.0
 40
1.0
 40
1.0
 10
-24.43419513451186
 20
-50.81016899102523
 30
0.0
 10
-32.78422169107518
 20
-54.44297023603948
 30
0.0
 10
-43.59082301543991
 20
-51.17525691458077
 30
0.0
  0
ELLIPSE
  5
B0F
330
AB4
100
AcDbEntity
  8
0
100
AcDbEllipse
 10
-24.43419513451184
 20
-48.36067924824206
 30
0.0
 11
1.196830787170335
 21
-2.750926401574792
 31
0.0
210
0.0
220
0.0
230
1.0
 40
0.4913799087545871
 41
4.125987410474323
 42
5.558498891075151
  0
LINE
  5
B10
330
AB4
100
AcDbEntity
  8
0
100
AcDbLine
 10
-26.54881108378308
 20
-43.89621853015919
 30
0.0
 11
-26.22240520419432
 21
-47.32825568314328
 31
0.0
  0
LINE
  5
B11
330
AB4
100
AcDbEntity
  8
0
100
AcDbLine
 10
-28.37790417529661
 20
-42.43392510478951
 30
0.0
 11
-27.94290326337947
 21
-42.78169251831132
 31
0.0
  0
LINE
  5
B12
330
AB4
100
AcDbEntity
  8
0
100
AcDbLine
 10
-27.80691218077946
 20
-42.89041244455101
 30
0.0
 11
-26.54881108378309
 21
-43.8962185301592
 31
0.0
  0
LINE
  5
B13
330
AB4
100
AcDbEntity
  8
0
100
AcDbLine
 10
-27.94290326337947
 20
-42.78169251831132
 30
0.0
 11
-27.80691218077946
 21
-42.89041244455101
 31
0.0
  0
LINE
  5
B14
330
AB4
100
AcDbEntity
  8
0
100
AcDbLine
 10
44.1705432312376
 20
-3.85893568460907
 30
0.0
 11
39.44941432342894
 21
-39.92255817848705
 31
0.0
  0
ELLIPSE
  5
B15
330
AB4
100
AcDbEntity
  8
0
100
AcDbEllipse
 10
34.70334449754576
 20
-37.18241348692064
 30
0.0
 11
5.949238372592027
 21
-0.7788214083334772
 31
0.0
210
0.0
220
0.0
230
1.0
 40
0.6520831633610852
 41
5.716340747298442
 42
6.283185307179587
  0
ELLIPSE
  5
B16
330
AB4
100
AcDbEntity
  8
0
100
AcDbEllipse
 10
31.87491737279958
 20
-42.08139297248699
 30
0.0
 11
3.649098310923976
 21
-4.762780859667152
 31
0.0
210
0.0
220
0.0
230
1.0
 40
0.6520831633610852
 41
0.0
 42
0.5668445598811447
  0
ELLIPSE
  5
B17
330
AB4
100
AcDbEntity
  8
0
100
AcDbEllipse
 10
37.01849670768947
 20
-41.78505356237296
 30
0.0
 11
-1.999999999999999
 21
-3.464101615137753
 31
0.0
210
0.0
220
0.0
230
1.0
 40
0.4150676916945049
 41
0.7853981633974492
 42
2.356194490192343
  0
LINE
  5
B18
330
AB4
100
AcDbEntity
  8
0
100
AcDbLine
 10
36.62098719868275
 20
-44.82153766405341
 30
0.0
 11
7.749538420396842
 21
-66.9419664796958
 31
0.0
  0
LINE
  5
B19
330
AB4
100
AcDbEntity
  8
0
100
AcDbLine
 10
45.35698475288123
 20
-2.025386315026267
 30
0.0
 11
40.65258287013779
 21
-37.96123489525412
 31
0.0
  0
SPLINE
  5
B1A
330
AB4
100
AcDbEntity
  8
0
100
AcDbSpline
210
0.0
220
0.0
230
1.0
 70
     8
 71
     3
 72
    16
 73
    12
 74
     0
 42
0.000000001
 43
0.0000000001
 40
-0.7853981633974485
 40
-0.7853981633974485
 40
-0.7853981633974485
 40
-0.7853981633974485
 40
-0.4712388980384692
 40
-0.4712388980384692
 40
-0.1570796326794899
 40
-0.1570796326794899
 40
0.1570796326794894
 40
0.1570796326794894
 40
0.4712388980384688
 40
0.4712388980384688
 40
0.785398163397448
 40
0.785398163397448
 40
0.785398163397448
 40
0.785398163397448
 10
40.65258287013779
 20
-37.96123489525412
 30
0.0
 10
40.55320156426356
 20
-38.72038593052213
 30
0.0
 10
40.38169610436821
 20
-39.41019867567503
 30
0.0
 10
39.95024200283639
 20
-40.73347010573151
 30
0.0
 10
39.68817782497892
 20
-41.36494533447538
 30
0.0
 10
39.08619553656494
 20
-42.58624791982388
 30
0.0
 10
38.74620078904845
 20
-43.17513609682901
 30
0.0
 10
37.98951286863602
 20
-44.30711934389806
 30
0.0
 10
37.57367136761197
 20
-44.84981119371645
 30
0.0
 10
36.64341174384682
 20
-45.88509712123823
 30
0.0
 10
36.1317691126378
 20
-46.37853157897178
 30
0.0
 10
35.52401568372355
 20
-46.84417383215414
 30
0.0
  0
LINE
  5
B1B
330
AB4
100
AcDbEntity
  8
0
100
AcDbLine
 10
35.52401568372355
 20
-46.84417383215415
 30
0.0
 11
6.754858848066724
 21
-68.88622966233548
 31
0.0
  0
LINE
  5
B1C
330
AB4
100
AcDbEntity
  8
0
100
AcDbLine
 10
47.97950514821794
 20
62.11364368914114
 30
0.0
 11
11.91705930770404
 21
82.93430650279818
 31
0.0
  0
LINE
  5
B1D
330
AB4
100
AcDbEntity
  8
0
100
AcDbLine
 10
45.85818480465829
 20
60.88889881774957
 30
0.0
 11
9.795738964144398
 21
81.70956163140658
 31
0.0
  0
LINE
  5
B1E
330
AB4
100
AcDbEntity
  8
0
100
AcDbLine
 10
47.97950514821794
 20
62.11364368914114
 30
0.0
 11
45.85818480465829
 21
60.88889881774957
 31
0.0
  0
LINE
  5
B1F
330
AB4
100
AcDbEntity
  8
0
100
AcDbLine
 10
9.795738964144398
 20
81.70956163140658
 30
0.0
 11
11.91705930770404
 21
82.93430650279818
 31
0.0
  0
LINE
  5
B20
330
AB4
100
AcDbEntity
  8
0
100
AcDbLine
 10
52.92925261652378
 20
53.54042958940005
 30
0.0
 11
47.97950514821794
 21
62.11364368914114
 31
0.0
  0
LINE
  5
B21
330
AB4
100
AcDbEntity
  8
0
100
AcDbLine
 10
-12.12457125263864
 20
-82.81449942553019
 30
0.0
 11
-2.22507631602697
 21
-82.81449942553019
 31
0.0
  0
LINE
  5
B22
330
AB4
100
AcDbEntity
  8
0
100
AcDbLine
 10
45.85818480465829
 20
60.88889881774957
 30
0.0
 11
50.80793227296412
 21
52.31568471800844
 31
0.0
  0
LINE
  5
B23
330
AB4
100
AcDbEntity
  8
0
100
AcDbLine
 10
4.84599149583857
 20
78.85182359815956
 30
0.0
 11
9.795738964144398
 21
81.70956163140658
 31
0.0
  0
LINE
  5
B24
330
AB4
100
AcDbEntity
  8
0
100
AcDbLine
 10
-48.18701709315253
 20
-59.54434686908999
 30
0.0
 11
-48.18701709315252
 21
-53.82887080259589
 31
0.0
  0
LINE
  5
B25
330
AB4
100
AcDbEntity
  8
0
100
AcDbLine
 10
-2.22507631602697
 20
-80.36500968274701
 30
0.0
 11
-12.12457125263864
 21
-80.36500968274701
 31
0.0
  0
LINE
  5
B26
330
AB4
100
AcDbEntity
  8
0
100
AcDbLine
 10
-12.12457125263864
 20
-80.36500968274701
 30
0.0
 11
-12.12457125263864
 21
-82.81449942553019
 31
0.0
  0
LINE
  5
B27
330
AB4
100
AcDbEntity
  8
0
100
AcDbLine
 10
-48.18701709315253
 20
-61.99383661187318
 30
0.0
 11
-48.18701709315253
 21
-59.54434686908999
 31
0.0
  0
LINE
  5
B28
330
AB4
100
AcDbEntity
  8
0
100
AcDbLine
 10
50.80793227296412
 20
52.31568471800844
 30
0.0
 11
52.92925261652378
 21
53.54042958940005
 31
0.0
  0
LINE
  5
B29
330
AB4
100
AcDbEntity
  8
0
100
AcDbLine
 10
-28.37790417529661
 20
-42.43392510478952
 30
0.0
 11
-4.990936368830154
 21
-27.46553136498385
 31
0.0
  0
ELLIPSE
  5
B2A
330
AB4
100
AcDbEntity
  8
0
100
AcDbEllipse
 10
-8.559618109152914
 20
-15.4705167037133
 30
0.0
 11
7.499999999999972
 21
12.99038105676659
 31
0.0
210
0.0
220
0.0
230
1.0
 40
0.7396328466847472
 41
4.101523742186671
 42
5.323254218582702
  0
LINE
  5
B2B
330
AB4
100
AcDbEntity
  8
0
100
AcDbLine
 10
3.612710176435558
 20
-12.56357841821923
 30
0.0
 11
4.882235505722043
 21
15.17432668957235
 31
0.0
  0
LINE
  5
B2C
330
AB4
100
AcDbEntity
  8
0
100
AcDbLine
 10
24.60832068088292
 20
-44.55467039044865
 30
0.0
 11
26.77113494382128
 21
-45.80337178736328
 31
0.0
  0
LINE
  5
B2D
330
AB4
100
AcDbEntity
  8
0
100
AcDbLine
 10
3.612710176435558
 20
-12.56357841821923
 30
0.0
 11
5.77552443937392
 21
-13.81227981513386
 31
0.0
  0
LINE
  5
B2E
330
AB4
100
AcDbEntity
  8
0
100
AcDbLine
 10
-4.990936368830154
 20
-27.46553136498385
 30
0.0
 11
-2.828122105891792
 21
-28.71423276189848
 31
0.0
  0
LINE
  5
B2F
330
AB4
100
AcDbEntity
  8
0
100
AcDbLine
 10
33.21196722614863
 20
-29.65271744368403
 30
0.0
 11
35.37478148908698
 21
-30.90141884059866
 31
0.0
  0
LINE
  5
B30
330
AB4
100
AcDbEntity
  8
0
100
AcDbLine
 10
18.53112679594224
 20
-22.94639975794025
 30
0.0
 11
14.10813001988862
 21
15.94709641823623
 31
0.0
  0
LINE
  5
B31
330
AB4
100
AcDbEntity
  8
0
100
AcDbLine
 10
41.54579374891406
 20
0.10595387834893
 30
0.0
 11
41.32954528228871
 21
-1.545918632981453
 31
0.0
  0
LINE
  5
B32
330
AB4
100
AcDbEntity
  8
0
100
AcDbLine
 10
40.81959445276812
 20
-5.441316230757888
 30
0.0
 11
40.8195727000438
 21
-5.441482394837153
 31
0.0
  0
LINE
  5
B33
330
AB4
100
AcDbEntity
  8
0
100
AcDbLine
 10
7.444578808532966
 20
-63.24866751723488
 30
0.0
 11
7.444445782581254
 21
-63.24876943768639
 31
0.0
  0
LINE
  5
B34
330
AB4
100
AcDbEntity
  8
0
100
AcDbLine
 10
4.325907855167878
 20
-65.6380986591597
 30
0.0
 11
3.003468594513654
 21
-66.65131153091256
 31
0.0
  0
LINE
  5
B35
330
AB4
100
AcDbEntity
  8
0
100
AcDbLine
 10
10.19859960664651
 20
15.75477511194341
 30
0.0
 11
14.62159638270013
 21
-23.13872106423306
 31
0.0
  0
ELLIPSE
  5
B36
330
AB4
100
AcDbEntity
  8
0
100
AcDbEllipse
 10
16.40980645238259
 20
-24.17114462933184
 30
0.0
 11
-2.980787541290217
 21
-0.338977335066859
 31
0.0
210
0.0
220
0.0
230
0.9999999999999998
 40
0.4913799087545886
 41
3.866279069693529
 42
5.298790550294562
  0
LINE
  5
B37
330
AB4
100
AcDbEntity
  8
0
100
AcDbLine
 10
9.671848914394288
 20
-31.71193516397418
 30
0.0
 11
-26.22240520419432
 21
-47.32825568314328
 31
0.0
  0
ELLIPSE
  5
B38
330
AB4
100
AcDbEntity
  8
0
100
AcDbEllipse
 10
8.976207273632548
 20
-25.5948302089268
 30
0.0
 11
-3.500000000000001
 21
-6.062177826491065
 31
0.0
210
0.0
220
0.0
230
0.9999999999999998
 40
0.7396328466847471
 41
0.7853981633974474
 42
2.356194490192343
  0
LINE
  5
B39
330
AB4
100
AcDbEntity
  8
0
100
AcDbLine
 10
-24.43419513451184
 20
-50.81016899102523
 30
0.0
 11
11.46005898407676
 21
-35.19384847185613
 31
0.0
  0
ELLIPSE
  5
B3A
330
AB4
100
AcDbEntity
  8
0
100
AcDbEllipse
 10
10.764417343315
 20
-26.62725377402557
 30
0.0
 11
5.000000000000005
 21
8.660254037844385
 31
0.0
210
0.0
220
0.0
230
1.0
 40
0.6909480734362106
 41
3.92699081698724
 42
5.497787143782136
  0
ELLIPSE
  5
B3B
330
AB4
100
AcDbEntity
  8
0
100
AcDbEllipse
 10
11.46005898407675
 20
-32.74435872907296
 30
0.0
 11
-1.196830787170055
 21
2.750926401574912
 31
0.0
210
0.0
220
0.0
230
1.0
 40
0.4913799087545867
 41
0.9843947568850248
 42
2.416906237486056
  0
LINE
  5
B3C
330
AB4
100
AcDbEntity
  8
0
100
AcDbLine
 10
32.78409999737091
 20
-31.17535767253763
 30
0.0
 11
18.53112679594224
 21
-22.94639975794025
 31
0.0
  0
LINE
  5
B3D
330
AB4
100
AcDbEntity
  8
0
100
AcDbLine
 10
11.46005898407675
 20
-35.19384847185613
 30
0.0
 11
25.71303218550543
 21
-43.42280638645351
 31
0.0
  0
LINE
  5
B3E
330
AB4
100
AcDbEntity
  8
0
100
AcDbLine
 10
26.77113494382128
 20
-45.80337178736328
 30
0.0
 11
8.236947255064666
 21
-63.57351943444678
 31
0.0
  0
LINE
  5
B3F
330
AB4
100
AcDbEntity
  8
0
100
AcDbLine
 10
41.49708693608324
 20
-5.965267640084865
 30
0.0
 11
35.37478148908698
 21
-30.90141884059866
 31
0.0
  0
ELLIPSE
  5
B40
330
AB4
100
AcDbEntity
  8
0
100
AcDbEllipse
 10
26.65618256507489
 20
-35.80236870270697
 30
0.0
 11
-7.499999999999989
 21
-12.99038105676658
 31
0.0
210
0.0
220
0.0
230
1.0
 40
0.415067691694505
 41
0.9599310885968783
 42
2.181661564992911
  0
ENDBLK
  5
AB6
330
AB4
100
AcDbEntity
  8
0
100
AcDbBlockEnd
  0
ENDSEC
  0
SECTION
  2
ENTITIES
  0
INSERT
  5
B41
330
1F
100
AcDbEntity
  8
0
100
AcDbBlockReference
  2
AKR135Z-Front
 10
0.0
 20
0.0
 30
0.0
  0
INSERT
  5
B42
330
1F
100
AcDbEntity
  8
0
100
AcDbBlockReference
  2
AKR135Z-Left
 10
73.00000939147157
 20
0.0
 30
0.0
  0
INSERT
  5
B43
330
1F
100
AcDbEntity
  8
0
100
AcDbBlockReference
  2
AKR135Z-Right
 10
-73.00000939147157
 20
0.0
 30
0.0
  0
INSERT
  5
B44
330
1F
100
AcDbEntity
  8
0
100
AcDbBlockReference
  2
AKR135Z-Top
 10
0.0
 20
-40.50000156524502
 30
0.0
  0
INSERT
  5
B45
330
1F
100
AcDbEntity
  8
0
100
AcDbBlockReference
  2
AKR135Z-Bottom
 10
0.0
 20
175.50000939147
 30
0.0
  0
INSERT
  5
B46
330
1F
100
AcDbEntity
  8
0
100
AcDbBlockReference
  2
AKR135Z-ISO
 10
121.187018658399
 20
-123.4343080680432
 30
0.0
  0
MTEXT
  5
B47
330
1F
100
AcDbEntity
  8
0
100
AcDbMText
 10
0.0
 20
-166.00000313049
 30
0.0
 40
13.50000052174834
 41
0.0
 71
     5
 72
     5
  1
AKR135Z
 73
     1
 44
1.0
1001
ACAD
1000
MTEXTBEGIN
1070
    73
1070
     1
1070
    44
1040
1.0
1070
    74
1070
     0
1000
MTEXTEND
  0
ENDSEC
  0
SECTION
  2
OBJECTS
  0
DICTIONARY
  5
C
330
0
100
AcDbDictionary
281
     1
  3
ACAD_CIP_PREVIOUS_PRODUCT_INFO
350
216
  3
ACAD_COLOR
350
6B
  3
ACAD_DETAILVIEWSTYLE
350
21B
  3
ACAD_GROUP
350
D
  3
ACAD_LAYOUT
350
1A
  3
ACAD_MATERIAL
350
6A
  3
ACAD_MLEADERSTYLE
350
12D
  3
ACAD_MLINESTYLE
350
17
  3
ACAD_PLOTSETTINGS
350
19
  3
ACAD_PLOTSTYLENAME
350
E
  3
ACAD_SCALELIST
350
10C
  3
ACAD_SECTIONVIEWSTYLE
350
219
  3
ACAD_TABLESTYLE
350
7E
  3
ACAD_VISUALSTYLE
350
EF
  3
ACDB_RECOMPOSE_DATA
350
C48
  3
AcDbVariableDictionary
350
5E
  3
DWGPROPS
350
C49
  0
DICTIONARY
  5
B98
330
8
100
AcDbDictionary
280
     1
281
     1
  0
DICTIONARY
  5
1FF
330
2
100
AcDbDictionary
280
     1
281
     1
  3
ACAD_LAYERSTATES
360
200
  0
DICTIONARY
  5
13C
330
10
100
AcDbDictionary
280
     1
281
     1
  0
DICTIONARY
  5
1CE
330
1F
100
AcDbDictionary
280
     1
281
     1
  3
ACAD_LAYOUTSELFREF
360
BA0
  0
DICTIONARY
  5
B4B
330
D2
100
AcDbDictionary
280
     1
281
     1
  3
ACAD_LAYOUTSELFREF
360
BA9
  0
DICTIONARY
  5
B4D
330
D6
100
AcDbDictionary
280
     1
281
     1
  3
ACAD_LAYOUTSELFREF
360
BAC
  0
XRECORD
  5
216
102
{ACAD_REACTORS
330
C
102
}
330
C
100
AcDbXrecord
280
     1
300
ACD
300
2021
300
87393ACD_2021_0F
  0
DICTIONARY
  5
6B
102
{ACAD_REACTORS
330
C
102
}
330
C
100
AcDbDictionary
281
     1
  0
DICTIONARY
  5
21B
102
{ACAD_REACTORS
330
C
102
}
330
C
100
AcDbDictionary
281
     1
  3
Metric50
350
21C
  0
DICTIONARY
  5
D
102
{ACAD_REACTORS
330
C
102
}
330
C
100
AcDbDictionary
281
     1
  0
DICTIONARY
  5
1A
102
{ACAD_REACTORS
330
C
102
}
330
C
100
AcDbDictionary
281
     1
  3
Layout1
350
D3
  3
Layout2
350
D7
  3
Model
350
22
  0
DICTIONARY
  5
6A
102
{ACAD_REACTORS
330
C
102
}
330
C
100
AcDbDictionary
281
     1
  3
ByBlock
350
ED
  3
ByLayer
350
EC
  3
Global
350
EE
  0
DICTIONARY
  5
12D
102
{ACAD_REACTORS
330
C
102
}
330
C
100
AcDbDictionary
281
     1
  3
Standard
350
12E
  0
DICTIONARY
  5
17
102
{ACAD_REACTORS
330
C
102
}
330
C
100
AcDbDictionary
281
     1
  3
Standard
350
18
  0
DICTIONARY
  5
19
102
{ACAD_REACTORS
330
C
102
}
330
C
100
AcDbDictionary
281
     1
  0
ACDBDICTIONARYWDFLT
  5
E
102
{ACAD_REACTORS
330
C
102
}
330
C
100
AcDbDictionary
281
     1
  3
Normal
350
F
100
AcDbDictionaryWithDefault
340
F
  0
DICTIONARY
  5
10C
102
{ACAD_REACTORS
330
C
102
}
330
C
100
AcDbDictionary
281
     1
  3
A0
350
10D
  3
A1
350
1BE
  3
A2
350
1BF
  3
A3
350
1C0
  3
A4
350
1C1
  3
A5
350
1C2
  3
A6
350
1C3
  3
A7
350
1C4
  3
A8
350
1C5
  3
A9
350
1C6
  3
B0
350
1C7
  3
B1
350
1C8
  3
B2
350
1C9
  3
B3
350
1CA
  3
B4
350
1CB
  3
B5
350
1CC
  3
B6
350
1CD
  0
DICTIONARY
  5
219
102
{ACAD_REACTORS
330
C
102
}
330
C
100
AcDbDictionary
281
     1
  3
Metric50
350
21A
  0
DICTIONARY
  5
7E
102
{ACAD_REACTORS
330
C
102
}
330
C
100
AcDbDictionary
281
     1
  3
Standard
350
7F
  0
DICTIONARY
  5
EF
102
{ACAD_REACTORS
330
C
102
}
330
C
100
AcDbDictionary
281
     1
  3
2dWireframe
350
F5
  3
Basic
350
F4
  3
Brighten
350
FB
  3
ColorChange
350
FF
  3
Conceptual
350
F8
  3
Dim
350
FA
  3
EdgeColorOff
350
1E6
  3
Facepattern
350
FE
  3
Flat
350
F0
  3
FlatWithEdges
350
F1
  3
Gouraud
350
F2
  3
GouraudWithEdges
350
F3
  3
Hidden
350
F7
  3
JitterOff
350
1E4
  3
Linepattern
350
FD
  3
OverhangOff
350
1E5
  3
Realistic
350
F9
  3
Shaded
350
1F3
  3
Shaded with edges
350
1F2
  3
Shades of Gray
350
1EF
  3
Sketchy
350
1F0
  3
Thicken
350
FC
  3
Wireframe
350
F6
  3
X-Ray
350
1F1
  0
XRECORD
  5
C48
102
{ACAD_REACTORS
330
C
102
}
330
C
100
AcDbXrecord
280
     1
 90
        1
330
7F
  0
DICTIONARY
  5
5E
102
{ACAD_REACTORS
330
C
102
}
330
C
100
AcDbDictionary
281
     1
  3
CANNOSCALE
350
146
  3
CENTEREXE
350
259
  3
CENTERLTYPEFILE
350
25A
  3
CMLEADERSTYLE
350
145
  3
CTABLESTYLE
350
84
  3
CVIEWDETAILSTYLE
350
227
  3
CVIEWSECTIONSTYLE
350
228
  3
DIMASSOC
350
5F
  3
HIDETEXT
350
63
  3
INDEXCTL
350
BF5
  3
LAYEREVAL
350
1AE
  3
LAYERNOTIFY
350
1AF
  3
LIGHTINGUNITS
350
BF3
  3
MSLTSCALE
350
BF2
  3
PSOLHEIGHT
350
C45
  3
PSOLWIDTH
350
C44
  3
SORTENTS
350
BF4
  3
XCLIPFRAME
350
C46
  0
XRECORD
  5
C49
102
{ACAD_REACTORS
330
C
102
}
330
C
100
AcDbXrecord
280
     1
  1
DWGPROPS COOKIE
  2

  3

  4

  6

  7

  8
tronnguyen
  9

300
=
301
=
302
=
303
=
304
=
305
=
306
=
307
=
308
=
309
=
 40
0.6771527777777778
 41
2460572.688854167
 42
2460573.368425926
  1

 90
        0
  0
DICTIONARY
  5
200
102
{ACAD_REACTORS
330
1FF
102
}
330
1FF
100
AcDbDictionary
281
     1
  0
XRECORD
  5
BA0
102
{ACAD_REACTORS
330
1CE
102
}
330
1CE
100
AcDbXrecord
280
     1
340
1F
  0
XRECORD
  5
BA9
102
{ACAD_REACTORS
330
B4B
102
}
330
B4B
100
AcDbXrecord
280
     1
340
D2
  0
XRECORD
  5
BAC
102
{ACAD_REACTORS
330
B4D
102
}
330
B4D
100
AcDbXrecord
280
     1
340
D6
  0
ACDBDETAILVIEWSTYLE
  5
21C
102
{ACAD_XDICTIONARY
360
C88
102
}
102
{ACAD_REACTORS
330
21B
102
}
330
21B
100
AcDbModelDocViewStyle
 70
     0
  3
Metric50
290
     0
100
AcDbDetailViewStyle
 70
     0
 71
     0
 90
        3
 71
     1
340
11
 40
5.0
340
0
 40
5.0
300

 40
0.0
280
     1
 71
     2
340
16
 90
       25
 71
     3
340
11
 40
5.0
 90
        0
 40
15.0
 90
        1
300
%<\AcVar ViewDetailId>% (%<\AcVar ViewScale \f "%sn">%)
 71
     4
340
16
 90
       25
340
16
 90
       25
280
     0
  0
LAYOUT
  5
D3
102
{ACAD_XDICTIONARY
360
C4D
102
}
102
{ACAD_REACTORS
330
1A
102
}
330
1A
100
AcDbPlotSettings
  1

  2
C:\Documents and Settings\basas\Application Data\Autodesk\AutoCAD 2005\R16.1\enu\plotters\Default Windows System Printer.pc3
  4

  6

 40
0.0
 41
0.0
 42
0.0
 43
0.0
 44
0.0
 45
0.0
 46
0.0
 47
0.0
 48
0.0
 49
0.0
140
0.0
141
0.0
142
1.0
143
1.0
 70
   688
 72
     0
 73
     0
 74
     5
  7

 75
    16
147
1.0
148
0.0
149
0.0
100
AcDbLayout
  1
Layout1
 70
     1
 71
     1
 10
0.0
 20
0.0
 11
12.0
 21
9.0
 12
0.0
 22
0.0
 32
0.0
 14
0.0
 24
0.0
 34
0.0
 15
0.0
 25
0.0
 35
0.0
146
0.0
 13
0.0
 23
0.0
 33
0.0
 16
1.0
 26
0.0
 36
0.0
 17
0.0
 27
1.0
 37
0.0
 76
     0
330
D2
  0
LAYOUT
  5
D7
102
{ACAD_XDICTIONARY
360
C4F
102
}
102
{ACAD_REACTORS
330
1A
102
}
330
1A
100
AcDbPlotSettings
  1

  2
C:\Documents and Settings\basas\Application Data\Autodesk\AutoCAD 2005\R16.1\enu\plotters\Default Windows System Printer.pc3
  4

  6

 40
0.0
 41
0.0
 42
0.0
 43
0.0
 44
0.0
 45
0.0
 46
0.0
 47
0.0
 48
0.0
 49
0.0
140
0.0
141
0.0
142
1.0
143
1.0
 70
   688
 72
     0
 73
     0
 74
     5
  7

 75
    16
147
1.0
148
0.0
149
0.0
100
AcDbLayout
  1
Layout2
 70
     1
 71
     2
 10
0.0
 20
0.0
 11
12.0
 21
9.0
 12
0.0
 22
0.0
 32
0.0
 14
0.0
 24
0.0
 34
0.0
 15
0.0
 25
0.0
 35
0.0
146
0.0
 13
0.0
 23
0.0
 33
0.0
 16
1.0
 26
0.0
 36
0.0
 17
0.0
 27
1.0
 37
0.0
 76
     0
330
D6
  0
LAYOUT
  5
22
102
{ACAD_XDICTIONARY
360
C4A
102
}
102
{ACAD_REACTORS
330
1A
102
}
330
1A
100
AcDbPlotSettings
  1

  2
none_device
  4
ISO_A4_(210.00_x_297.00_MM)
  6

 40
7.5
 41
20.0
 42
7.5
 43
20.0
 44
210.0
 45
297.0
 46
11.54999923706054
 47
-13.65000009536743
 48
0.0
 49
0.0
140
0.0
141
0.0
142
1.0
143
8.704084754739808
 70
 11952
 72
     1
 73
     0
 74
     0
  7

 75
     0
147
0.1148885871608098
148
0.0
149
0.0
100
AcDbLayout
  1
Model
 70
     1
 71
     0
 10
0.0
 20
0.0
 11
12.0
 21
9.0
 12
0.0
 22
0.0
 32
0.0
 14
0.0
 24
0.0
 34
0.0
 15
0.0
 25
0.0
 35
0.0
146
0.0
 13
0.0
 23
0.0
 33
0.0
 16
1.0
 26
0.0
 36
0.0
 17
0.0
 27
1.0
 37
0.0
 76
     0
330
1F
331
EA
1001
ACAD_PSEXT
1000
None
1000
None
1000
Not applicable
1000
The layout will not be plotted unless a new plotter configuration name is selected.
1070
     0
  0
MATERIAL
  5
ED
102
{ACAD_XDICTIONARY
360
1F9
102
}
102
{ACAD_REACTORS
330
6A
102
}
330
6A
100
AcDbMaterial
  1
ByBlock
  0
MATERIAL
  5
EC
102
{ACAD_XDICTIONARY
360
1F7
102
}
102
{ACAD_REACTORS
330
6A
102
}
330
6A
100
AcDbMaterial
  1
ByLayer
  0
MATERIAL
  5
EE
102
{ACAD_XDICTIONARY
360
173
102
}
102
{ACAD_REACTORS
330
6A
102
}
330
6A
100
AcDbMaterial
  1
Global
 43
0.0007999999797903
 43
0.0
 43
0.0
 43
0.0
 43
0.0
 43
0.0007999999797903
 43
0.0
 43
0.0
 43
0.0
 43
0.0
 43
1.0
 43
0.0
 43
0.0
 43
0.0
 43
0.0
 43
1.0
 49
0.0007999999797903
 49
0.0
 49
0.0
 49
0.0
 49
0.0
 49
0.0007999999797903
 49
0.0
 49
0.0
 49
0.0
 49
0.0
 49
1.0
 49
0.0
 49
0.0
 49
0.0
 49
0.0
 49
1.0
142
0.0007999999797903
142
0.0
142
0.0
142
0.0
142
0.0
142
0.0007999999797903
142
0.0
142
0.0
142
0.0
142
0.0
142
1.0
142
0.0
142
0.0
142
0.0
142
0.0
142
1.0
144
0.0007999999797903
144
0.0
144
0.0
144
0.0
144
0.0
144
0.0007999999797903
144
0.0
144
0.0
144
0.0
144
0.0
144
1.0
144
0.0
144
0.0
144
0.0
144
0.0
144
1.0
1001
ACAD
1070
    -1
1070
     3
1070
     0
1000

1071
        0
1070
     0
  0
MLEADERSTYLE
  5
12E
102
{ACAD_XDICTIONARY
360
C74
102
}
102
{ACAD_REACTORS
330
12D
102
}
330
12D
100
AcDbMLeaderStyle
170
     2
171
     1
172
     0
 90
        2
 40
0.0
 41
0.0
173
     1
 91
-1056964608
340
14
 92
       -2
290
     1
 42
2.0
291
     1
 43
8.0
  3
Standard
 44
4.0
300

342
11
174
     1
178
     1
175
     1
176
     0
 93
-1056964608
 45
4.0
292
     0
297
     0
 46
4.0
 94
-1056964608
 47
1.0
 49
1.0
140
1.0
293
     1
141
0.0
294
     1
177
     0
142
1.0
295
     0
296
     0
143
3.75
1001
ACAD_MLEADERVER
1070
     2
  0
MLINESTYLE
  5
18
102
{ACAD_REACTORS
330
17
102
}
330
17
100
AcDbMlineStyle
  2
STANDARD
 70
     0
  3

 62
   256
 51
90.0
 52
90.0
 71
     2
 49
0.5
 62
   256
  6
BYLAYER
 49
-0.5
 62
   256
  6
BYLAYER
  0
ACDBPLACEHOLDER
  5
F
102
{ACAD_REACTORS
330
E
102
}
330
E
  0
SCALE
  5
10D
102
{ACAD_REACTORS
330
10C
102
}
330
10C
100
AcDbScale
 70
     0
300
1:1
140
1.0
141
1.0
290
     1
  0
SCALE
  5
1BE
102
{ACAD_REACTORS
330
10C
102
}
330
10C
100
AcDbScale
 70
     0
300
1:2
140
1.0
141
2.0
290
     0
  0
SCALE
  5
1BF
102
{ACAD_REACTORS
330
10C
102
}
330
10C
100
AcDbScale
 70
     0
300
1:4
140
1.0
141
4.0
290
     0
  0
SCALE
  5
1C0
102
{ACAD_REACTORS
330
10C
102
}
330
10C
100
AcDbScale
 70
     0
300
1:5
140
1.0
141
5.0
290
     0
  0
SCALE
  5
1C1
102
{ACAD_REACTORS
330
10C
102
}
330
10C
100
AcDbScale
 70
     0
300
1:8
140
1.0
141
8.0
290
     0
  0
SCALE
  5
1C2
102
{ACAD_REACTORS
330
10C
102
}
330
10C
100
AcDbScale
 70
     0
300
1:10
140
1.0
141
10.0
290
     0
  0
SCALE
  5
1C3
102
{ACAD_REACTORS
330
10C
102
}
330
10C
100
AcDbScale
 70
     0
300
1:16
140
1.0
141
16.0
290
     0
  0
SCALE
  5
1C4
102
{ACAD_REACTORS
330
10C
102
}
330
10C
100
AcDbScale
 70
     0
300
1:20
140
1.0
141
20.0
290
     0
  0
SCALE
  5
1C5
102
{ACAD_REACTORS
330
10C
102
}
330
10C
100
AcDbScale
 70
     0
300
1:30
140
1.0
141
30.0
290
     0
  0
SCALE
  5
1C6
102
{ACAD_REACTORS
330
10C
102
}
330
10C
100
AcDbScale
 70
     0
300
1:40
140
1.0
141
40.0
290
     0
  0
SCALE
  5
1C7
102
{ACAD_REACTORS
330
10C
102
}
330
10C
100
AcDbScale
 70
     0
300
1:50
140
1.0
141
50.0
290
     0
  0
SCALE
  5
1C8
102
{ACAD_REACTORS
330
10C
102
}
330
10C
100
AcDbScale
 70
     0
300
1:100
140
1.0
141
100.0
290
     0
  0
SCALE
  5
1C9
102
{ACAD_REACTORS
330
10C
102
}
330
10C
100
AcDbScale
 70
     0
300
2:1
140
2.0
141
1.0
290
     0
  0
SCALE
  5
1CA
102
{ACAD_REACTORS
330
10C
102
}
330
10C
100
AcDbScale
 70
     0
300
4:1
140
4.0
141
1.0
290
     0
  0
SCALE
  5
1CB
102
{ACAD_REACTORS
330
10C
102
}
330
10C
100
AcDbScale
 70
     0
300
8:1
140
8.0
141
1.0
290
     0
  0
SCALE
  5
1CC
102
{ACAD_REACTORS
330
10C
102
}
330
10C
100
AcDbScale
 70
     0
300
10:1
140
10.0
141
1.0
290
     0
  0
SCALE
  5
1CD
102
{ACAD_REACTORS
330
10C
102
}
330
10C
100
AcDbScale
 70
     0
300
100:1
140
100.0
141
1.0
290
     0
  0
ACDBSECTIONVIEWSTYLE
  5
21A
102
{ACAD_XDICTIONARY
360
C86
102
}
102
{ACAD_REACTORS
330
219
102
}
330
219
100
AcDbModelDocViewStyle
 70
     0
  3
Metric50
290
     0
100
AcDbSectionViewStyle
 70
     0
 71
     0
 90
      102
 71
     1
340
11
 40
5.0
340
0
340
0
 40
5.0
300
I, O, Q, S, X, Z
 40
10.0
 90
        0
 40
2.5
 90
        0
 71
     2
340
16
 90
       25
340
16
 90
       50
 40
5.0
 40
2.5
 40
5.0
 71
     3
340
11
 40
5.0
 90
        0
 40
15.0
 90
        1
300
%<\AcVar ViewSectionStartId>%-%<\AcVar ViewSectionEndId>% (%<\AcVar ViewScale \f "%sn">%)
 71
     4
300
ANSI31
 40
1.0
 90
        0
290
     0
290
     0
 90
        6
 40
0.0
 40
1.570796326794896
 40
0.2617993877991494
 40
1.308996938995747
 40
-0.2617993877991494
 40
1.832595714594046
  0
TABLESTYLE
  5
7F
102
{ACAD_XDICTIONARY
360
162
102
}
102
{ACAD_REACTORS
330
7E
102
}
330
7E
100
AcDbTableStyle
  3
Standard
 70
     0
 71
     0
 40
1.5
 41
1.5
280
     0
281
     0
  7
Standard
140
4.5
170
     2
 62
     0
 63
     7
283
     0
274
    -2
284
     1
 64
     0
275
    -2
285
     1
 65
     0
276
    -2
286
     1
 66
     0
277
    -2
287
     1
 67
     0
278
    -2
288
     1
 68
     0
279
    -2
289
     1
 69
     0
  7
Standard
140
6.0
170
     5
 62
     0
 63
     7
283
     0
274
    -2
284
     1
 64
     0
275
    -2
285
     1
 65
     0
276
    -2
286
     1
 66
     0
277
    -2
287
     1
 67
     0
278
    -2
288
     1
 68
     0
279
    -2
289
     1
 69
     0
  7
Standard
140
4.5
170
     5
 62
     0
 63
     7
283
     0
274
    -2
284
     1
 64
     0
275
    -2
285
     1
 65
     0
276
    -2
286
     1
 66
     0
277
    -2
287
     1
 67
     0
278
    -2
288
     1
 68
     0
279
    -2
289
     1
 69
     0
  0
VISUALSTYLE
  5
F5
102
{ACAD_XDICTIONARY
360
C5E
102
}
102
{ACAD_REACTORS
330
EF
102
}
330
EF
100
AcDbVisualStyle
  2
2dWireframe
 70
     4
 71
     0
 72
     2
 73
     1
 90
        0
 40
-0.6
 41
-30.0
 62
     5
 63
     7
 74
     1
 91
        4
 64
     7
 65
   257
 75
     1
175
     1
 42
1.0
 92
        0
 66
   257
 43
1.0
 76
     1
 77
     6
 78
     2
 67
     7
 79
     5
170
     0
171
     0
290
     0
174
     0
 93
        1
 44
0.0
173
     0
291
     0
 45
0.0
1001
ACAD
1000
AcDbSavedByObjectVersion
1070
     0
  0
VISUALSTYLE
  5
F4
102
{ACAD_XDICTIONARY
360
C5C
102
}
102
{ACAD_REACTORS
330
EF
102
}
330
EF
100
AcDbVisualStyle
  2
Basic
 70
     7
 71
     1
 72
     0
 73
     1
 90
        0
 40
-0.6
 41
-30.0
 62
     5
 63
     7
 74
     0
 91
        4
 64
     7
 65
   257
 75
     1
175
     1
 42
1.0
 92
        8
 66
     7
 43
1.0
 76
     1
 77
     6
 78
     2
 67
     7
 79
     5
170
     0
171
     0
290
     0
174
     0
 93
        1
 44
0.0
173
     0
291
     1
 45
0.0
1001
ACAD
1000
AcDbSavedByObjectVersion
1070
     0
  0
VISUALSTYLE
  5
FB
102
{ACAD_XDICTIONARY
360
C6A
102
}
102
{ACAD_REACTORS
330
EF
102
}
330
EF
100
AcDbVisualStyle
  2
Brighten
 70
    12
 71
     2
 72
     2
 73
     1
 90
        0
 40
-0.6
 41
-30.0
 62
     5
 63
     7
 74
     1
 91
        4
 64
     7
 65
   257
 75
     1
175
     1
 42
1.0
 92
        8
 66
     7
 43
1.0
 76
     1
 77
     6
 78
     2
 67
     7
 79
     5
170
     0
171
     0
290
     0
174
     0
 93
        1
 44
50.0
173
     0
291
     1
 45
0.0
1001
ACAD
1000
AcDbSavedByObjectVersion
1070
     0
  0
VISUALSTYLE
  5
FF
102
{ACAD_XDICTIONARY
360
C72
102
}
102
{ACAD_REACTORS
330
EF
102
}
330
EF
100
AcDbVisualStyle
  2
ColorChange
 70
    16
 71
     2
 72
     2
 73
     3
 90
        0
 40
-0.6
 41
-30.0
 62
     5
 63
     8
 74
     1
 91
        4
 64
     7
 65
   257
 75
     1
175
     1
 42
1.0
 92
        8
 66
     8
 43
1.0
 76
     1
 77
     6
 78
     2
 67
     7
 79
     5
170
     0
171
     0
290
     0
174
     0
 93
        1
 44
0.0
173
     0
291
     1
 45
0.0
1001
ACAD
1000
AcDbSavedByObjectVersion
1070
     0
  0
VISUALSTYLE
  5
F8
102
{ACAD_XDICTIONARY
360
C64
102
}
102
{ACAD_REACTORS
330
EF
102
}
330
EF
100
AcDbVisualStyle
  2
Conceptual
 70
     9
 71
     3
 72
     2
 73
     1
 90
        0
 40
-0.6
 41
-30.0
 62
     5
 63
     7
 74
     2
 91
        2
 64
     7
 65
   257
 75
     1
175
     1
 42
40.0
 92
        8
 66
     7
 43
1.0
 76
     1
 77
     6
 78
     2
 67
     7
 79
     3
170
     0
171
     0
290
     0
174
     0
 93
        1
 44
0.0
173
     0
291
     0
 45
0.0
1001
ACAD
1000
AcDbSavedByObjectVersion
1070
     0
  0
VISUALSTYLE
  5
FA
102
{ACAD_XDICTIONARY
360
C68
102
}
102
{ACAD_REACTORS
330
EF
102
}
330
EF
100
AcDbVisualStyle
  2
Dim
 70
    11
 71
     2
 72
     2
 73
     1
 90
        0
 40
-0.6
 41
-30.0
 62
     5
 63
     7
 74
     1
 91
        4
 64
     7
 65
   257
 75
     1
175
     1
 42
1.0
 92
        8
 66
     7
 43
1.0
 76
     1
 77
     6
 78
     2
 67
     7
 79
     5
170
     0
171
     0
290
     0
174
     0
 93
        1
 44
-50.0
173
     0
291
     1
 45
0.0
1001
ACAD
1000
AcDbSavedByObjectVersion
1070
     0
  0
VISUALSTYLE
  5
1E6
102
{ACAD_XDICTIONARY
360
C7A
102
}
102
{ACAD_REACTORS
330
EF
102
}
330
EF
100
AcDbVisualStyle
  2
EdgeColorOff
 70
    22
 71
     2
 72
     2
 73
     0
 90
        0
 40
-0.6
 41
-30.0
 62
     5
 63
     7
 74
     1
 91
        4
 64
     7
 65
   257
 75
     1
175
     1
 42
1.0
 92
        8
 66
     7
 43
1.0
 76
     1
 77
     6
 78
     2
 67
     7
 79
     5
170
     0
171
     0
290
     0
174
     0
 93
        1
 44
0.0
173
     0
291
     1
 45
0.0
1001
ACAD
1000
AcDbSavedByObjectVersion
1070
     0
  0
VISUALSTYLE
  5
FE
102
{ACAD_XDICTIONARY
360
C70
102
}
102
{ACAD_REACTORS
330
EF
102
}
330
EF
100
AcDbVisualStyle
  2
Facepattern
 70
    15
 71
     2
 72
     2
 73
     1
 90
        0
 40
-0.6
 41
-30.0
 62
     5
 63
     7
 74
     1
 91
        4
 64
     7
 65
   257
 75
     1
175
     1
 42
1.0
 92
        8
 66
     7
 43
1.0
 76
     1
 77
     6
 78
     2
 67
     7
 79
     5
170
     0
171
     0
290
     0
174
     0
 93
        1
 44
0.0
173
     0
291
     1
 45
0.0
1001
ACAD
1000
AcDbSavedByObjectVersion
1070
     0
  0
VISUALSTYLE
  5
F0
102
{ACAD_XDICTIONARY
360
C54
102
}
102
{ACAD_REACTORS
330
EF
102
}
330
EF
100
AcDbVisualStyle
  2
Flat
 70
     0
 71
     2
 72
     1
 73
     1
 90
        2
 40
-0.6
 41
30.0
 62
     5
 63
     7
 74
     0
 91
        0
 64
     7
 65
   257
 75
     1
175
     1
 42
1.0
 92
        8
 66
     7
 43
1.0
 76
     1
 77
     6
 78
     2
 67
     7
 79
     5
170
     0
171
     0
290
     0
174
     0
 93
       13
 44
0.0
173
     0
291
     1
 45
0.0
1001
ACAD
1000
AcDbSavedByObjectVersion
1070
     0
  0
VISUALSTYLE
  5
F1
102
{ACAD_XDICTIONARY
360
C56
102
}
102
{ACAD_REACTORS
330
EF
102
}
330
EF
100
AcDbVisualStyle
  2
FlatWithEdges
 70
     1
 71
     2
 72
     1
 73
     1
 90
        2
 40
-0.6
 41
30.0
 62
     5
 63
     7
 74
     1
 91
        0
 64
     7
 65
   257
 75
     1
175
     1
 42
1.0
 92
        0
 66
   257
 43
1.0
 76
     1
 77
     6
 78
     2
 67
     7
 79
     5
170
     0
171
     0
290
     0
174
     0
 93
       13
 44
0.0
173
     0
291
     1
 45
0.0
1001
ACAD
1000
AcDbSavedByObjectVersion
1070
     0
  0
VISUALSTYLE
  5
F2
102
{ACAD_XDICTIONARY
360
C58
102
}
102
{ACAD_REACTORS
330
EF
102
}
330
EF
100
AcDbVisualStyle
  2
Gouraud
 70
     2
 71
     2
 72
     2
 73
     1
 90
        2
 40
-0.6
 41
30.0
 62
     5
 63
     7
 74
     0
 91
        0
 64
     7
 65
   257
 75
     1
175
     1
 42
1.0
 92
        0
 66
     7
 43
1.0
 76
     1
 77
     6
 78
     2
 67
     7
 79
     5
170
     0
171
     0
290
     0
174
     0
 93
       13
 44
0.0
173
     0
291
     1
 45
0.0
1001
ACAD
1000
AcDbSavedByObjectVersion
1070
     0
  0
VISUALSTYLE
  5
F3
102
{ACAD_XDICTIONARY
360
C5A
102
}
102
{ACAD_REACTORS
330
EF
102
}
330
EF
100
AcDbVisualStyle
  2
GouraudWithEdges
 70
     3
 71
     2
 72
     2
 73
     1
 90
        2
 40
-0.6
 41
30.0
 62
     5
 63
     7
 74
     1
 91
        0
 64
     7
 65
   257
 75
     1
175
     1
 42
1.0
 92
        0
 66
   257
 43
1.0
 76
     1
 77
     6
 78
     2
 67
     7
 79
     5
170
     0
171
     0
290
     0
174
     0
 93
       13
 44
0.0
173
     0
291
     1
 45
0.0
1001
ACAD
1000
AcDbSavedByObjectVersion
1070
     0
  0
VISUALSTYLE
  5
F7
102
{ACAD_XDICTIONARY
360
C62
102
}
102
{ACAD_REACTORS
330
EF
102
}
330
EF
100
AcDbVisualStyle
  2
Hidden
 70
     6
 71
     1
 72
     2
 73
     2
 90
        0
 40
-0.6
 41
-30.0
 62
     5
 63
     7
 74
     2
 91
        2
 64
     7
 65
   257
 75
     2
175
     1
 42
40.0
 92
        0
 66
   257
 43
1.0
 76
     1
 77
     6
 78
     2
 67
     7
 79
     3
170
     0
171
     0
290
     0
174
     0
 93
        1
 44
0.0
173
     0
291
     0
 45
0.0
1001
ACAD
1000
AcDbSavedByObjectVersion
1070
     0
  0
VISUALSTYLE
  5
1E4
102
{ACAD_XDICTIONARY
360
C76
102
}
102
{ACAD_REACTORS
330
EF
102
}
330
EF
100
AcDbVisualStyle
  2
JitterOff
 70
    20
 71
     2
 72
     2
 73
     0
 90
        0
 40
-0.6
 41
-30.0
 62
     5
 63
     7
 74
     1
 91
        4
 64
     7
 65
   257
 75
     1
175
     1
 42
1.0
 92
       10
 66
     7
 43
1.0
 76
     1
 77
     6
 78
     2
 67
     7
 79
     5
170
     0
171
     0
290
     0
174
     0
 93
        1
 44
0.0
173
     0
291
     1
 45
0.0
1001
ACAD
1000
AcDbSavedByObjectVersion
1070
     0
  0
VISUALSTYLE
  5
FD
102
{ACAD_XDICTIONARY
360
C6E
102
}
102
{ACAD_REACTORS
330
EF
102
}
330
EF
100
AcDbVisualStyle
  2
Linepattern
 70
    14
 71
     2
 72
     2
 73
     1
 90
        0
 40
-0.6
 41
-30.0
 62
     5
 63
     7
 74
     1
 91
        4
 64
     7
 65
   257
 75
     7
175
     7
 42
1.0
 92
        8
 66
     7
 43
1.0
 76
     1
 77
     6
 78
     2
 67
     7
 79
     5
170
     0
171
     0
290
     0
174
     0
 93
        1
 44
0.0
173
     0
291
     1
 45
0.0
1001
ACAD
1000
AcDbSavedByObjectVersion
1070
     0
  0
VISUALSTYLE
  5
1E5
102
{ACAD_XDICTIONARY
360
C78
102
}
102
{ACAD_REACTORS
330
EF
102
}
330
EF
100
AcDbVisualStyle
  2
OverhangOff
 70
    21
 71
     2
 72
     2
 73
     0
 90
        0
 40
-0.6
 41
-30.0
 62
     5
 63
     7
 74
     1
 91
        4
 64
     7
 65
   257
 75
     1
175
     1
 42
1.0
 92
        9
 66
     7
 43
1.0
 76
     1
 77
     6
 78
     2
 67
     7
 79
     5
170
     0
171
     0
290
     0
174
     0
 93
        1
 44
0.0
173
     0
291
     1
 45
0.0
1001
ACAD
1000
AcDbSavedByObjectVersion
1070
     0
  0
VISUALSTYLE
  5
F9
102
{ACAD_XDICTIONARY
360
C66
102
}
102
{ACAD_REACTORS
330
EF
102
}
330
EF
100
AcDbVisualStyle
  2
Realistic
 70
     8
 71
     2
 72
     2
 73
     0
 90
        2
 40
-0.6
 41
30.0
 62
     5
 63
     7
 74
     0
 91
        0
 64
     7
 65
   257
 75
     1
175
     1
 42
1.0
 92
        8
 66
   257
 43
1.0
 76
     1
 77
     6
 78
     2
 67
     7
 79
     3
170
     0
171
     0
290
     0
174
     0
 93
       13
 44
0.0
173
     0
291
     0
 45
0.0
1001
ACAD
1000
AcDbSavedByObjectVersion
1070
     0
  0
VISUALSTYLE
  5
1F3
102
{ACAD_XDICTIONARY
360
C84
102
}
102
{ACAD_REACTORS
330
EF
102
}
330
EF
100
AcDbVisualStyle
  2
Shaded
 70
    27
 71
     2
 72
     2
 73
     1
 90
        2
 40
-0.6
 41
30.0
 62
     5
 63
     7
 74
     0
 91
        4
 64
     7
 65
   257
 75
     1
175
     1
 42
1.0
 92
        8
 66
   257
 43
1.0
 76
     1
 77
     6
 78
     2
 67
     8
 79
     3
170
     0
171
     0
290
     0
174
     0
 93
        5
 44
0.0
173
     0
291
     0
 45
0.0
1001
ACAD
1000
AcDbSavedByObjectVersion
1070
     0
  0
VISUALSTYLE
  5
1F2
102
{ACAD_XDICTIONARY
360
C82
102
}
102
{ACAD_REACTORS
330
EF
102
}
330
EF
100
AcDbVisualStyle
  2
Shaded with edges
 70
    26
 71
     2
 72
     2
 73
     1
 90
        2
 40
-0.6
 41
30.0
 62
     5
 63
     7
 74
     1
 91
        2
 64
     7
 65
   257
 75
     2
175
     1
 42
1.0
 92
        8
 66
   257
 43
1.0
 76
     1
 77
     6
 78
     2
 67
     7
 79
     3
170
     0
171
     0
290
     0
174
     0
 93
        5
 44
0.0
173
     0
291
     0
 45
0.0
1001
ACAD
1000
AcDbSavedByObjectVersion
1070
     0
  0
VISUALSTYLE
  5
1EF
102
{ACAD_XDICTIONARY
360
C7C
102
}
102
{ACAD_REACTORS
330
EF
102
}
330
EF
100
AcDbVisualStyle
  2
Shades of Gray
 70
    23
 71
     2
 72
     2
 73
     3
 90
        0
 40
-0.6
 41
-30.0
 62
     5
 63
     7
 74
     2
 91
        2
 64
     7
 65
     7
 75
     1
175
     1
 42
40.0
 92
        8
 66
     7
 43
1.0
 76
     1
 77
     6
 78
     2
 67
     7
 79
     3
170
     0
171
     0
290
     0
174
     0
 93
        1
 44
0.0
173
     0
291
     0
 45
0.0
1001
ACAD
1000
AcDbSavedByObjectVersion
1070
     0
  0
VISUALSTYLE
  5
1F0
102
{ACAD_XDICTIONARY
360
C7E
102
}
102
{ACAD_REACTORS
330
EF
102
}
330
EF
100
AcDbVisualStyle
  2
Sketchy
 70
    24
 71
     1
 72
     2
 73
     2
 90
        0
 40
-0.6
 41
-30.0
 62
     5
 63
     7
 74
     2
 91
        2
 64
     7
 65
     7
 75
     1
175
     1
 42
40.0
 92
       11
 66
     7
 43
1.0
 76
     1
 77
     6
 78
     2
 67
     7
 79
     6
170
     0
171
     0
290
     0
174
     0
 93
        1
 44
0.0
173
     0
291
     0
 45
0.0
1001
ACAD
1000
AcDbSavedByObjectVersion
1070
     0
  0
VISUALSTYLE
  5
FC
102
{ACAD_XDICTIONARY
360
C6C
102
}
102
{ACAD_REACTORS
330
EF
102
}
330
EF
100
AcDbVisualStyle
  2
Thicken
 70
    13
 71
     2
 72
     2
 73
     1
 90
        0
 40
-0.6
 41
-30.0
 62
     5
 63
     7
 74
     1
 91
        4
 64
     7
 65
   257
 75
     1
175
     1
 42
1.0
 92
       12
 66
     7
 43
1.0
 76
     1
 77
     6
 78
     2
 67
     7
 79
     5
170
     0
171
     0
290
     0
174
     0
 93
        1
 44
0.0
173
     0
291
     1
 45
0.0
1001
ACAD
1000
AcDbSavedByObjectVersion
1070
     0
  0
VISUALSTYLE
  5
F6
102
{ACAD_XDICTIONARY
360
C60
102
}
102
{ACAD_REACTORS
330
EF
102
}
330
EF
100
AcDbVisualStyle
  2
Wireframe
 70
     5
 71
     0
 72
     2
 73
     0
 90
        0
 40
-0.6
 41
-30.0
 62
     5
 63
     7
 74
     1
 91
        4
 64
     7
 65
   257
 75
     1
175
     1
 42
1.0
 92
        0
 66
   257
 43
1.0
 76
     1
 77
     6
 78
     2
 67
     7
 79
     3
170
     0
171
     0
290
     0
174
     0
 93
        1
 44
0.0
173
     0
291
     0
 45
0.0
1001
ACAD
1000
AcDbSavedByObjectVersion
1070
     0
  0
VISUALSTYLE
  5
1F1
102
{ACAD_XDICTIONARY
360
C80
102
}
102
{ACAD_REACTORS
330
EF
102
}
330
EF
100
AcDbVisualStyle
  2
X-Ray
 70
    25
 71
     2
 72
     2
 73
     1
 90
        1
 40
0.5
 41
-30.0
 62
     5
 63
     7
 74
     1
 91
        0
 64
     7
 65
   257
 75
     1
175
     1
 42
1.0
 92
        8
 66
     7
 43
1.0
 76
     1
 77
     6
 78
     2
 67
     7
 79
     3
170
     0
171
     0
290
     0
174
     0
 93
       13
 44
0.0
173
     0
291
     0
 45
0.0
1001
ACAD
1000
AcDbSavedByObjectVersion
1070
     0
  0
DICTIONARYVAR
  5
146
102
{ACAD_REACTORS
330
5E
102
}
330
5E
100
DictionaryVariables
280
     0
  1
1:1
  0
DICTIONARYVAR
  5
259
102
{ACAD_REACTORS
330
5E
102
}
330
5E
100
DictionaryVariables
280
     0
  1
3.500000
  0
DICTIONARYVAR
  5
25A
102
{ACAD_REACTORS
330
5E
102
}
330
5E
100
DictionaryVariables
280
     0
  1
acadiso.lin
  0
DICTIONARYVAR
  5
145
102
{ACAD_REACTORS
330
5E
102
}
330
5E
100
DictionaryVariables
280
     0
  1
STANDARD
  0
DICTIONARYVAR
  5
84
102
{ACAD_REACTORS
330
5E
102
}
330
5E
100
DictionaryVariables
280
     0
  1
STANDARD
  0
DICTIONARYVAR
  5
227
102
{ACAD_REACTORS
330
5E
102
}
330
5E
100
DictionaryVariables
280
     0
  1
Metric50
  0
DICTIONARYVAR
  5
228
102
{ACAD_REACTORS
330
5E
102
}
330
5E
100
DictionaryVariables
280
     0
  1
Metric50
  0
DICTIONARYVAR
  5
5F
102
{ACAD_REACTORS
330
5E
102
}
330
5E
100
DictionaryVariables
280
     0
  1
2
  0
DICTIONARYVAR
  5
63
102
{ACAD_REACTORS
330
5E
102
}
330
5E
100
DictionaryVariables
280
     0
  1
1
  0
DICTIONARYVAR
  5
BF5
102
{ACAD_REACTORS
330
5E
102
}
330
5E
100
DictionaryVariables
280
     0
  1
0
  0
DICTIONARYVAR
  5
1AE
102
{ACAD_REACTORS
330
5E
102
}
330
5E
100
DictionaryVariables
280
     0
  1
0
  0
DICTIONARYVAR
  5
1AF
102
{ACAD_REACTORS
330
5E
102
}
330
5E
100
DictionaryVariables
280
     0
  1
0
  0
DICTIONARYVAR
  5
BF3
102
{ACAD_REACTORS
330
5E
102
}
330
5E
100
DictionaryVariables
280
     0
  1
2
  0
DICTIONARYVAR
  5
BF2
102
{ACAD_REACTORS
330
5E
102
}
330
5E
100
DictionaryVariables
280
     0
  1
1
  0
DICTIONARYVAR
  5
C45
102
{ACAD_REACTORS
330
5E
102
}
330
5E
100
DictionaryVariables
280
     0
  1
80.000000
  0
DICTIONARYVAR
  5
C44
102
{ACAD_REACTORS
330
5E
102
}
330
5E
100
DictionaryVariables
280
     0
  1
5.000000
  0
DICTIONARYVAR
  5
BF4
102
{ACAD_REACTORS
330
5E
102
}
330
5E
100
DictionaryVariables
280
     0
  1
127
  0
DICTIONARYVAR
  5
C46
102
{ACAD_REACTORS
330
5E
102
}
330
5E
100
DictionaryVariables
280
     0
  1
2
  0
DICTIONARY
  5
C88
330
21C
100
AcDbDictionary
280
     1
281
     1
  3
ACAD_XREC_ROUNDTRIP
360
C89
  0
DICTIONARY
  5
C4D
330
D3
100
AcDbDictionary
280
     1
281
     1
  3
ACAD_XREC_ROUNDTRIP
360
C4E
  0
DICTIONARY
  5
C4F
330
D7
100
AcDbDictionary
280
     1
281
     1
  3
ACAD_XREC_ROUNDTRIP
360
C50
  0
DICTIONARY
  5
C4A
330
22
100
AcDbDictionary
280
     1
281
     1
  3
ACAD_XREC_ROUNDTRIP
360
C4B
  0
DICTIONARY
  5
1F9
330
ED
100
AcDbDictionary
280
     1
281
     1
  3
ACAD_XREC_ROUNDTRIP
360
C52
  3
FBXASSET
360
1FA
  0
DICTIONARY
  5
1F7
330
EC
100
AcDbDictionary
280
     1
281
     1
  3
ACAD_XREC_ROUNDTRIP
360
C51
  3
FBXASSET
360
1F8
  0
DICTIONARY
  5
173
330
EE
100
AcDbDictionary
280
     1
281
     1
  3
ACAD_XREC_ROUNDTRIP
360
C53
  3
BUMPTILE
360
175
  3
DIFFUSETILE
360
174
  3
FBXASSET
360
1FB
  3
OPACITYTILE
360
176
  3
REFLECTIONTILE
360
177
  0
DICTIONARY
  5
C74
330
12E
100
AcDbDictionary
280
     1
281
     1
  3
ACAD_XREC_ROUNDTRIP
360
C75
  0
DICTIONARY
  5
C86
330
21A
100
AcDbDictionary
280
     1
281
     1
  3
ACAD_XREC_ROUNDTRIP
360
C87
  0
DICTIONARY
  5
162
330
7F
100
AcDbDictionary
280
     1
281
     1
  3
ACAD_ROUNDTRIP_2008_TABLESTYLE_CELLSTYLEMAP
360
C47
  3
ACAD_XREC_ROUNDTRIP
360
C4C
  0
DICTIONARY
  5
C5E
330
F5
100
AcDbDictionary
280
     1
281
     1
  3
ACAD_XREC_ROUNDTRIP
360
C5F
  0
DICTIONARY
  5
C5C
330
F4
100
AcDbDictionary
280
     1
281
     1
  3
ACAD_XREC_ROUNDTRIP
360
C5D
  0
DICTIONARY
  5
C6A
330
FB
100
AcDbDictionary
280
     1
281
     1
  3
ACAD_XREC_ROUNDTRIP
360
C6B
  0
DICTIONARY
  5
C72
330
FF
100
AcDbDictionary
280
     1
281
     1
  3
ACAD_XREC_ROUNDTRIP
360
C73
  0
DICTIONARY
  5
C64
330
F8
100
AcDbDictionary
280
     1
281
     1
  3
ACAD_XREC_ROUNDTRIP
360
C65
  0
DICTIONARY
  5
C68
330
FA
100
AcDbDictionary
280
     1
281
     1
  3
ACAD_XREC_ROUNDTRIP
360
C69
  0
DICTIONARY
  5
C7A
330
1E6
100
AcDbDictionary
280
     1
281
     1
  3
ACAD_XREC_ROUNDTRIP
360
C7B
  0
DICTIONARY
  5
C70
330
FE
100
AcDbDictionary
280
     1
281
     1
  3
ACAD_XREC_ROUNDTRIP
360
C71
  0
DICTIONARY
  5
C54
330
F0
100
AcDbDictionary
280
     1
281
     1
  3
ACAD_XREC_ROUNDTRIP
360
C55
  0
DICTIONARY
  5
C56
330
F1
100
AcDbDictionary
280
     1
281
     1
  3
ACAD_XREC_ROUNDTRIP
360
C57
  0
DICTIONARY
  5
C58
330
F2
100
AcDbDictionary
280
     1
281
     1
  3
ACAD_XREC_ROUNDTRIP
360
C59
  0
DICTIONARY
  5
C5A
330
F3
100
AcDbDictionary
280
     1
281
     1
  3
ACAD_XREC_ROUNDTRIP
360
C5B
  0
DICTIONARY
  5
C62
330
F7
100
AcDbDictionary
280
     1
281
     1
  3
ACAD_XREC_ROUNDTRIP
360
C63
  0
DICTIONARY
  5
C76
330
1E4
100
AcDbDictionary
280
     1
281
     1
  3
ACAD_XREC_ROUNDTRIP
360
C77
  0
DICTIONARY
  5
C6E
330
FD
100
AcDbDictionary
280
     1
281
     1
  3
ACAD_XREC_ROUNDTRIP
360
C6F
  0
DICTIONARY
  5
C78
330
1E5
100
AcDbDictionary
280
     1
281
     1
  3
ACAD_XREC_ROUNDTRIP
360
C79
  0
DICTIONARY
  5
C66
330
F9
100
AcDbDictionary
280
     1
281
     1
  3
ACAD_XREC_ROUNDTRIP
360
C67
  0
DICTIONARY
  5
C84
330
1F3
100
AcDbDictionary
280
     1
281
     1
  3
ACAD_XREC_ROUNDTRIP
360
C85
  0
DICTIONARY
  5
C82
330
1F2
100
AcDbDictionary
280
     1
281
     1
  3
ACAD_XREC_ROUNDTRIP
360
C83
  0
DICTIONARY
  5
C7C
330
1EF
100
AcDbDictionary
280
     1
281
     1
  3
ACAD_XREC_ROUNDTRIP
360
C7D
  0
DICTIONARY
  5
C7E
330
1F0
100
AcDbDictionary
280
     1
281
     1
  3
ACAD_XREC_ROUNDTRIP
360
C7F
  0
DICTIONARY
  5
C6C
330
FC
100
AcDbDictionary
280
     1
281
     1
  3
ACAD_XREC_ROUNDTRIP
360
C6D
  0
DICTIONARY
  5
C60
330
F6
100
AcDbDictionary
280
     1
281
     1
  3
ACAD_XREC_ROUNDTRIP
360
C61
  0
DICTIONARY
  5
C80
330
1F1
100
AcDbDictionary
280
     1
281
     1
  3
ACAD_XREC_ROUNDTRIP
360
C81
  0
XRECORD
  5
C89
102
{ACAD_REACTORS
330
C88
102
}
330
C88
100
AcDbXrecord
280
     1
102
DISPLAYNAME
  1
Metric50
102
FLAGS
 90
        0
  0
XRECORD
  5
C4E
102
{ACAD_REACTORS
330
C4D
102
}
330
C4D
100
AcDbXrecord
280
     1
102
SHADEPLOT
 70
     0
102
SHADEPLOTRESLEVEL
 70
     2
102
SHADEPLOTCUSTOMDPI
 70
   300
  0
XRECORD
  5
C50
102
{ACAD_REACTORS
330
C4F
102
}
330
C4F
100
AcDbXrecord
280
     1
102
SHADEPLOT
 70
     0
102
SHADEPLOTRESLEVEL
 70
     2
102
SHADEPLOTCUSTOMDPI
 70
   300
  0
XRECORD
  5
C4B
102
{ACAD_REACTORS
330
C4A
102
}
330
C4A
100
AcDbXrecord
280
     1
102
SHADEPLOT
 70
     0
102
SHADEPLOTRESLEVEL
 70
     2
102
SHADEPLOTCUSTOMDPI
 70
   300
  0
XRECORD
  5
C52
102
{ACAD_REACTORS
330
1F9
102
}
330
1F9
100
AcDbXrecord
280
     1
102
MATERIAL
148
0.0
149
0.0
149
0.0
 93
        0
 94
       63
282
     0
 72
     1
 77
     1
171
     1
175
     1
179
     1
273
     0
  0
XRECORD
  5
1FA
102
{ACAD_REACTORS
330
1F9
102
}
330
1F9
100
AcDbXrecord
280
     1
 70
     1
 90
429727718
  1
D62C5603-E3A1-4AEA-B7FB-FE5D8D0755AF
310
504B03040A0000080000CC70623B3DEE336E79000000790000001B0000006175746F6465736B2D64657369676E2D7061636B6167652E786D6C3C3F786D6C2076657273696F6E3D22312E302220656E636F64696E673D227574662D3822203F3E3C666F726D6174733E3C666F726D61743E687474703A2F2F736368656D612E
310
6175746F6465736B2E636F6D2F64657369676E2D7061636B6167652F323030393C2F666F726D61743E3C2F666F726D6174733E504B0304140006080800CC70623BD486FD9CA0000000F4000000130000005B436F6E74656E745F54797065735D2E786D6C7D8EC10E82300C865F65E91D8A1E8C310C0EEA1BF002731658846E
310
D98AC1B77784ABF1D8FE5FBFBF75BBCE937A534CCEB38643598122B6FEE978D0B0485F9C41B54DDD7D022595594E1A469170414C76A4D9A4D207E29CF43ECE46F218070CC6BECC4078ACAA135ACF422C856C0E68EA1BF5669944DDD7BCDE7B1F8E415D77AECB980613C2E4AC91FC167A2B244592486606FC29C8FD7F045B9A
310
EF7053A7E60B504B0304140006080800CC70623B853B8169EB0000007C01000008000000636F72652E786D6C8D90416EC3201045AF62CDB6C206821CC7C244919D9CA01740401C94182C03558F5F9C3852BBEB6A467FFE9B197D7EFC9E1EC5975982F5AE035262288C535E5B377690E21535501C055FBC8FBF6C503839990E
310
5619041F179FE64D52DE45E362569DD7661365082642A11EB9E920A89B99642953CC8E702F67A9EE7234257977194EC9EAE275C4EABCCF5EAD5940D4AC6F0E35A568B8F43562CD7046CD199FD07E60174276A7BE677B5EADB0E0D14EEFFB6A31321A0D82627C4084204C3F096B71DD52F6819B16635EADF63F509AF53FA164
310
5DDCD1EDDD17164090FCC8732078B56691CB33A85CD7DCC40F504B0304140006080800CC70623B55019EA25F0000007C00000007000000636E782E786D6C4DCB3B0E80201045D1AD90E915ED2CF8AC45050C11660C8261F98AB1B07AC9C97D42D718D865D3E909258CFD00CCE24AC6E326A164D74DC0B4128928FF32603847
310
2BA13128B1252AC747C6BAB984FC68F0B87FE8960A5C09FE86CFB69FBA01504B0304140006080800CC70623BDBABAAF470010000D40300000C0000006662782F636F72652E786D6CC553D16E823014FD95A6AF4B694182CC941A83FA05FB810A9511A125A5257EFE2E82712ECEB8A7F100CD39F7F69E734AF9FADC366850B6
310
AF8DCE7018308C942E4C59EB2AC3DE1D498AD15A706B8CFB56869196ADCAF00863C12B6B7C374385D14E6907A836A59A41D9F7CA615434B0C8705F7CAA5606D23BA8E84F41278B93AC54100640439DE0BDB320004D43C63716C7C399D30917DCFBBA9CD9BA8469F5B156168B24CED3F7248AC8769F27244EB73B92EED8862C
310
B7F13E0C179B3C8F979C8ECD82BBBABDAA2BAC924E9558448CBD9330242CFA08E3154B5651FCC6D215639C8EE5774DBE2B5F6CF2B5768B68963BB5F5588420E442FC700B1139D4CB01F450C1E918227C2E09DF070D8140C84E1E9AAB8F1340832A9CB13130A5F1376A908D57309505ECF2A0DF179C4E9D30F5B239B87E3823
310
7A79C6F31DE1A8A5AEC08474B03C7837EAE4938639B44E5932B833D2C6B6B279CDC613877FA26EE21F4A2A4C63EC7F29A2F301D1F9F7A0E37D145F504B0304140006080800CC70623B9C113CC27E0000009D0000000B0000006662782F636E782E786D6C4DCCDF0A83201C86E15B91DFB94BFB330DD428C8FB886521330DA7
310
6397BF1A1DECE883878F57749FCDA1B7892F1BBC047A23808C7F84D9FA55424E0BE6803A256208E9EF06C84F9B91703228B1C690F78B66B34CD9A5439DF5CF0BFBF65E35BCA1B8D6A5C6F540381E886698B5741C695F9503EBA150A2F8958E3DC3EA0B504B0304140006080800CC70623B7DF2F77C2A010000120200003100
310
00006662782F41393633353835312D344632462D344230382D423046372D3739314545314133324237412F636F72652E786D6C8D51DB8EC22014FC15C2939B0D2DB4B45643319AE817EC0F6041255A68B86CFCFC856D4D76DF7CE190393373060EDB3DC707F856CE6B6B7A480A0C81328395DA5C7B18C3057510EC3873D686
310
3F34088C18550F330C39BB3A1BA7051AAC09CA84841A2BD5020AEF55806078A44B0FFD7053A328440C89E1EFC52486BBB8AA8214A99D789CF9E05200300FC927E4FB4D5B375D43103D5527440FB843077C5AA3F5861C8F645F5787F59E95B390B318B55CE45AA638FAA2957BD7248B390B7A7CC51F9C124149C82B8C378810
310
84AB2F42B7B8DD56F413775B8C5999E9FF4471926F8AA236A1AE96B8B3CC434E5839373893369E1FAF30EA395917409EB7F26AF8801C171837A4A6AC9C89E9F9C9B1A58BA30FD6A5EF5DDDCF894B9AD9B6A59C957943A9FCAE2FD5BC4DFE03504B0304140006080800CC70623BAD7543B64E01000033030000300000006662
310
782F41393633353835312D344632462D344230382D423046372D3739314545314133324237412F636E782E786D6CD593CD6EC32010845F0571AD6CE3D48AD20813A9873E410FBD12D82434182C7EAAE6EDBB2424CD25871E7B41D6EC30B3FA84F9E67BB2E40B4234DE8DB46F1925E094D7C6ED479AD3AE5951B2113C789FEE
310
6C943839C1488B4C05DF079FE72A69D8C96C13AAD6B8631503449F83828872B949AC57D26200B826A308D316B4064D6E46FCDA41C05550DC9E483A00797BFD207EFB092A45DE9514C1BBD22178396BD39D891265658C238DEA00936C654E5E433CB65A26D9F6EDB5EBC14EBF49A45CB856E66048291F6939A9A81BB5C89177
310
38143CA680F4AA299D66A042CEB3354A2684DC9D8D178FE0D9B8B41CAAD720F880EE7EF93C0C18769E099ECC04D5A102C8049A8A05632F4DDF376CF1DE0F6BB65C2F8627B65A33C6BB62177CEBBDAD973006829F89F22E814B54F4BC2BE347F8AA8F681390B50FA73F804400B5F542E796F19FF974E7F78DB802FE05E20750
310
4B0304140006080800CC70623BE75B7789680500003C100000340000006662782F41393633353835312D344632462D344230382D423046372D3739314545314133324237412F6F626A656374732E786D6CAD575B8F9B3818FD2B887D06C22499CB8AA1CA655245D5B455A356FB305264C061D8018C6C3393D95FBFC7600890
310
A4CD5EF210B0B1BFEBF98E3F7B1FF6596ABC522E1296DF9BAE3D320D9A872C4AF2F8DE2CE5CEBA358D0FBEC719939D65A691938CDE9B6ADAF4BD98B3B2D05311DD91329583D9D5FC0F438434A7A611A644887B5384CF34233629258BA878B12322891DEFF6B66BD70BFB62634E8AE781D082709A4B588AF91C528CDA28B73F
310
1C998EEF39EABBEFA97FBD6A7C7E9553F9D3D79FE442923C3C523610337627CB87ABE99D359D4CC6D6E4FACAB5E6ABF9D2726FC6A3C5F56271377BB88362213924694B38DD99FE47C48627A1E7D49F5A8BB5E1A74C0A599ED3B0F21F1E56366B89112D681E218F0915D0D6F17AD41FBA2A369DCF6335D62ABBD39779D5DDD1
310
11D4D8DE3CBB96B2E04FB8202E41051754A1AA8E8F76B4C6DFE810B580B1547F4B84911149794252234D024EF8BBE963A95AE27B3D310A9D5C215C7960FAEE415ED75694C6AFB17BCACA5D99A60A9AA65F217B0BFC53292ACB92BF283FAD0D3621576592CB5BED907C2FA8E9DF794E35E97BEA31BED21FEB401ABB94C44839
310
DCACBF0E1C5DA8DA5B2F4DFFD32AD86F543D9E565E7056502E157C00AD2671CD534549AB752FCA9CDA00677A313F04E51B22FF19E57B300579E3C97EB29F682D92935CEC18CF901B7B54FD8C51F362B56FC72FE0B3C1EAE335EDCCBF5AEC39ADB17DC238973F804BA5E6F6BFE7AF1FB32E523BE9F3BD571418E3631DCA4D48
310
5250CF639223210A9446CA30052EDF057BD35F8329C1ECD84552BF0DC8D18BE7BCE23BFE6BD960AB4A7DE79923A103BEBD80F911CBAA2C60DB19B01CF164A5583B772EE6D3FFA56666CBCDA74DC97724A48F9A58967497E489C4D979006FD7A05E227A1EBDD0F737C623387A9C844D3709995625106D157315F8B8392CD4E0
310
A0B9A720C4BE9829CEF37EA1E13111214D53925356365ADA634861B52519DD27A00AEB808EAF0628E6F435519D446F45CF2C9CF5214F0A15B2F6D06B79DA3EE3CBF7F56780D2F4E7EF73A0F5E5B02A38D07DC852C6B7C1FBB6664213E0C39E3EBA7FF4E1AD23EA2829407C85E586727488B751B2DB9502BC7B228A3FD68B6E
310
A65A22397E690AA8D158D7E404EC8CDA235CC3B7D1898680131CEC2CDF2638C65196279577750F15884AEE19F94199155B92B13297978469D4F8D358DF0AEF7631E28DC8F0D9F437D5D39A83B2231A1D52D543813A824EF8D44BCFF2FA6A31BD1E8DAD87F1CCB526B3879935BF59CDADD5C37479BB1CDD4CA7B3556B516589
310
EF352754B706114D9C885EC9131DE6EFEB43D99AFE2391C2F958179413D7CFEF6B1B6DB1E7600F00DE6E5C67454A339A4BA2E0FBA85ED26F045D454F463DBFCE484C2F90F2E5E3666003662ED8F755951A7D1BECD5B30B550B2785C8E7320B7292A4838DDA71BBC863ED7613CAF659337A3354231D4FF4A182A54904C2898C
310
98B28C4AD0CE056CCF332A80986E571EE9DBC305BB5FEB7E509220A58D25CF042D712A806AC0AD0C657FDEF80D2D9CEAA2EE4D1C76F60BFE74219A06527D6F82DF6412526107381E55E353090704D085B52408A8913C4ED159D79BDA71BB4BC506F4831350EB6F975CD22D69BF7AC49B91A2C0A9DDA3D5CA36AD20FC478E37
310
E61844E2352865EBCB61A275A65283CAAA9DD27703B4102F5AF51EF5F573B75CBB5AD38BC845F7A49F82A0966A49C2E3EA5EA0ECD326CD965F1DB402C6FA8B51A4658C5C5E2EC9E214602E55810345408596591009A82E7E7FFACA19EEA299B14A0081A705CB3296EBC14CDF658DCD336EA6D1136881AAEB87B81AB9EE53D5
310
F5EB8BC8362082DA24122F98680A4E7930C01A0079749CEA14382A0783E5EBA5A10F8C098456A03D6A4AEB6BB881E2513747552A5DB22C7EDAF83BD5528081A365F7FF06504B0304140006080000CC70623B000000000000000000000000350000006662782F41393633353835312D344632462D344230382D423046372D37
310
39314545314133324237412F76657274696365732E62696E504B0304140006080800CC70623BF270F1330600000004000000360000006662782F41393633353835312D344632462D344230382D423046372D3739314545314133324237412F747269616E676C65732E62696E636660600000504B0304140006080000CC7062
310
3B000000000000000000000000370000006662782F41393633353835312D344632462D344230382D423046372D3739314545314133324237412F617474726962757465732E62696E504B0304140006080800CC70623B08DA0BD19000000041010000360000006662782F41393633353835312D344632462D344230382D4230
310
46372D3739314545314133324237412F6469726563746F72792E786D6C858F410AC3201045AF22B36F53E9A60B35CBEEBAE80D244E44489C6234F4F835464A48035D0DF398FF9F8AF63D0E6CC63039F212F8F9020C7D47C6792B21C5FE7403D62A1188E2E60C98D7234A5830286103A55745067B9D86B8A3CF9C7F90C11DE6
310
07FB144396D7B6A82D282E9A152AD114D5EF2CB866EEE831B8EEA07A7BB5A8D7D61A2BAAEB7FD5F70921FF497D00504B0304140006080800CC70623BEDD1DC58FD000000A00100003B0000006662782F41393633353835312D344632462D344230382D423046372D3739314545314133324237412F7265736F75726365732F
310
636F72652E786D6C8D504B6E833010BD0A9A6D65B00922041947112427E8052C33A156828DFCA97AFC9A40A576D7CDCCE87D344F8F9FBFE667F689CE6B6B3A6039850C8DB2A336530731DC4903D95970676DF82583CCC8193B5861107C72362E3BA4AC096842428D1D7107A5F7182053CF7474E0D507CE32973124857FE48B
310
540F3961CEF244279DE03EB81420DB9EAC1384436FA353E879B1B182C7A8C75DA3C7F453DF353A1075D537A7BA6464B8F535A99AE14A9A2BBD90E350DD183B5CFABE3AF262350B1EF4FC9351399401471025A527C218A1E53BAB5A5AB765F5469B96525EACF23FA6B88CFF34456DC2A1DCE36E360F82A5202F42F062ED2BAD
310
579969AFDD8A6F504B010214000A0000080000CC70623B3DEE336E79000000790000001B00000000000000000000000000000000006175746F6465736B2D64657369676E2D7061636B6167652E786D6C504B01021400140006080800CC70623BD486FD9CA0000000F40000001300000000000000000000000000B20000005B
310
436F6E74656E745F54797065735D2E786D6C504B01021400140006080800CC70623B853B8169EB0000007C010000080000000000000000000000000083010000636F72652E786D6C504B01021400140006080800CC70623B55019EA25F0000007C000000070000000000000000000000000094020000636E782E786D6C504B
310
01021400140006080800CC70623BDBABAAF470010000D40300000C00000000000000000000000000180300006662782F636F72652E786D6C504B01021400140006080800CC70623B9C113CC27E0000009D0000000B00000000000000000000000000B20400006662782F636E782E786D6C504B01021400140006080800CC70
310
623B7DF2F77C2A010000120200003100000000000000000000000000590500006662782F41393633353835312D344632462D344230382D423046372D3739314545314133324237412F636F72652E786D6C504B01021400140006080800CC70623BAD7543B64E010000330300003000000000000000000000000000D2060000
310
6662782F41393633353835312D344632462D344230382D423046372D3739314545314133324237412F636E782E786D6C504B01021400140006080800CC70623BE75B7789680500003C10000034000000000000000000000000006E0800006662782F41393633353835312D344632462D344230382D423046372D3739314545
310
314133324237412F6F626A656374732E786D6C504B01021400140006080000CC70623B0000000000000000000000003500000000000000000000000000280E00006662782F41393633353835312D344632462D344230382D423046372D3739314545314133324237412F76657274696365732E62696E504B01021400140006
310
080800CC70623BF270F133060000000400000036000000000000000000000000007B0E00006662782F41393633353835312D344632462D344230382D423046372D3739314545314133324237412F747269616E676C65732E62696E504B01021400140006080000CC70623B0000000000000000000000003700000000000000
310
000000000000D50E00006662782F41393633353835312D344632462D344230382D423046372D3739314545314133324237412F617474726962757465732E62696E504B01021400140006080800CC70623B08DA0BD1900000004101000036000000000000000000000000002A0F00006662782F41393633353835312D344632
310
462D344230382D423046372D3739314545314133324237412F6469726563746F72792E786D6C504B01021400140006080800CC70623BEDD1DC58FD000000A00100003B000000000000000000000000000E1000006662782F41393633353835312D344632462D344230382D423046372D3739314545314133324237412F7265
310
736F75726365732F636F72652E786D6C504B0506000000000E000E0080040000641100000000
  0
XRECORD
  5
C51
102
{ACAD_REACTORS
330
1F7
102
}
330
1F7
100
AcDbXrecord
280
     1
102
MATERIAL
148
0.0
149
0.0
149
0.0
 93
        0
 94
       63
282
     0
 72
     1
 77
     1
171
     1
175
     1
179
     1
273
     0
  0
XRECORD
  5
1F8
102
{ACAD_REACTORS
330
1F7
102
}
330
1F7
100
AcDbXrecord
280
     1
 70
     1
 90
429727718
  1
30362254-06B7-45E0-A893-8CFA70E3D6BC
310
504B03040A0000080000CC70623B3DEE336E79000000790000001B0000006175746F6465736B2D64657369676E2D7061636B6167652E786D6C3C3F786D6C2076657273696F6E3D22312E302220656E636F64696E673D227574662D3822203F3E3C666F726D6174733E3C666F726D61743E687474703A2F2F736368656D612E
310
6175746F6465736B2E636F6D2F64657369676E2D7061636B6167652F323030393C2F666F726D61743E3C2F666F726D6174733E504B0304140006080800CC70623BD486FD9CA0000000F4000000130000005B436F6E74656E745F54797065735D2E786D6C7D8EC10E82300C865F65E91D8A1E8C310C0EEA1BF002731658846E
310
D98AC1B77784ABF1D8FE5FBFBF75BBCE937A534CCEB38643598122B6FEE978D0B0485F9C41B54DDD7D022595594E1A469170414C76A4D9A4D207E29CF43ECE46F218070CC6BECC4078ACAA135ACF422C856C0E68EA1BF5669944DDD7BCDE7B1F8E415D77AECB980613C2E4AC91FC167A2B244592486606FC29C8FD7F045B9A
310
EF7053A7E60B504B0304140006080800CC70623B1EC5D7A3EB0000007C01000008000000636F72652E786D6C8D90416EC3201045AF82665B6103C6756C6122AB4D4ED00B204C5C94182C03558F5F9C3852BBEB6A467FFE9B197D71FC9E6FE8CBACC17AD7032D0820E3B41FAD9B7A48F1820F808E52ACDEC75F36404ECDA687
310
4D0629A6D5A76597B477D1B89855E747B38B2A041301E95B6E7A08FAD3CCAA50296647B8168BD2573599823EBB0CA76447F43862C7BCCF5EAC59410E4DDD9C7973C2755553CCCFA4C603E3040F1565ED3B1FDE4E432BCA0D9622DAF9795FAF464533826484B498524CD807E51D79ED187F21878E10516EF63F505AC67F42C9
310
BA58B1FDDD071640D2FCC87D2045B96591CB3DA85CB7DCE40F504B0304140006080800CC70623B55019EA25F0000007C00000007000000636E782E786D6C4DCB3B0E80201045D1AD90E915ED2CF8AC45050C11660C8261F98AB1B07AC9C97D42D718D865D3E909258CFD00CCE24AC6E326A164D74DC0B4128928FF32603847
310
2BA13128B1252AC747C6BAB984FC68F0B87FE8960A5C09FE86CFB69FBA01504B0304140006080800CC70623B8C9102E971010000D40300000C0000006662782F636F72652E786D6CC5535B6E833010BC8AE5DF0A6C08340F1947A84D4ED00B38C6A128602363A31CBFCB234A53A551FA553EC09AD9F5CE8C31DB9E9B1AF5CA
310
7695D1198E428A91D2D214952E33ECDD315861B4E5CC1AE3BE9561A445A3323CC098B3D21ADFCE9034DA29ED00D5A6503328BA4E398C640D8B0C77F253352214DE4145770A5B214FA2546114020D759C75CE8200340D19DE981F0F6746269C33EFAB6266AB02A655C74A59CCF365BADC27CB5D902ED22848F6340DF238A141
310
BE88E2F57B92BFEDF23523433367AE6A2EEAA455C2A902F398D2751045018D3FA264435F3771F242571B4A1919CA6F9A7C5B3CD9E42BED16F12C776AEB308F40C848FC700B1139D4891EF410CEC810227CC6846F8386402064270EF5C5C709A05E49676C024C61FC95EA45ED154CA5211D1FF4FB8291A913A68E9B83EBBB33
310
E2A7673CDE118E5AE8124C0807CB8377834E366998436B950D7A7746DAD846D4CFD978E0F04FD455FC5D49D2D4C6FE9722321F10997F0F32DC47FE05504B0304140006080800CC70623BFFEA85907E0000009D0000000B0000006662782F636E782E786D6C4DCCD10A83201886E15B91FFDC95D95A811AB6F23E625948A6C3
310
E9D8E5AF46073BFAE0E1E365ED67B3E8ADC3CB78C7815C7240DA3DFC64DCC221C519D7805AC182F7F1EF06C88D9BE6703008B6049F9E274D7A1E938DBB5AE3D6131B2589BA0D3D965551E0B2EA732C9B9A624AAEB41E3A557677029960D9AFB4EF11165F504B0304140006080800CC70623B4FEEA4082C0100001202000031
310
0000006662782F39464131463745442D413632322D343644302D413938332D3331353338454246344243312F636F72652E786D6C8D515B6EC32010BC0AE2AB55850DD871ED0813254D72825EC00192A2C460F1A872FC42ED48ED5F7E00CDCECCCEB26C731F6FE05B39AFADE921293004CA082BB5B9F43086336A21D870E6AC
310
0D7F68109861543DCC30E4ECE26C9C164858139409093556AA051CBC570102714B8F1E7AF1A5C6A11862480C7F2DA6415C878B2A4891CA89C7990F2E050073937C42DE1DB7E4F87ED8A36D4329AA9B3D46DBAEAD504556557BD81DEBDD0761E52CE42C462D17B996298E3E6BE59E35C962CE821E1FF18553435012728A7187
310
0841987E927A8D9B35ADDF70BBC6989599FE4F1427F9A4286A132ABAC49D651EF234CD5CE04CDA78BA3DC2A8FB645D00B9DF8B57E215725C60BCA2A463E54C4CE327C7A65E1C7DB02E7DEFCBF594B864C5CA6CDBD49C957943E9FA5D5FBAF336F90F504B0304140006080800CC70623BAD7543B64E01000033030000300000
310
006662782F39464131463745442D413632322D343644302D413938332D3331353338454246344243312F636E782E786D6CD593CD6EC32010845F0571AD6CE3D48AD20813A9873E410FBD12D82434182C7EAAE6EDBB2424CD25871E7B41D6EC30B3FA84F9E67BB2E40B4234DE8DB46F1925E094D7C6ED479AD3AE5951B2113C
310
789FEE6C943839C1488B4C05DF079FE72A69D8C96C13AAD6B8631503449F83828872B949AC57D26200B826A308D316B4064D6E46FCDA41C05550DC9E483A00797BFD207EFB092A45DE9514C1BBD22178396BD39D891265658C238DEA00936C654E5E433CB65A26D9F6EDB5EBC14EBF49A45CB856E66048291F6939A9A81BB5
310
C8917738143CA680F4AA299D66A042CEB3354A2684DC9D8D178FE0D9B8B41CAAD720F880EE7EF93C0C18769E099ECC04D5A102C8049A8A05632F4DDF376CF1DE0F6BB65C2F8627B65A33C6BB62177CEBBDAD973006829F89F22E814B54F4BC2BE347F8AA8F681390B50FA73F804400B5F542E796F19FF974E7F78DB802FE05
310
E207504B0304140006080800CC70623B16AB87BA640500003C100000340000006662782F39464131463745442D413632322D343644302D413938332D3331353338454246344243312F6F626A656374732E786D6CAD575B6FA33818FD2B887DE6924B3BED8A326A92B68A663B534DD4D13E548A0C38942D60649B369D5FBFC7
310
600890A493BDE42160637FD7F31D7FF63E6FB3D478A55C242CBF3247B66B1A340F5994E4F19559CA8D75611A9F7D8F33263BCB4C232719BD32D5B4E97B316765A1A722BA21652A07B3B7B33F0D11D29C9A46981221AE4C113ED38CD8A4942CA2E2C58E882476BCD9DA23BB5ED8171B73523C0F841684D35CC252CCE79062D4
310
468DFA43D7747CCF51DF7D4FFDEB5593E3AB9CCA9FBEFE241792E4E19EB28198C968BAB8199F5D5A67D3E9C49A9E8F47D6EC76B6B0469F26EEFC7C3EBFBCBEB98462213924694B38DD98FE1D62C393D073EA4FADC5DAF04326852CCF6958F90F0F2B9BB5C48816348F90C7840A68EB78EDF68723159BCEE7891A6B95DDE9D3
310
BCEAEEE8086A6C6F9E5D4B59F0175C10A7A0820BAA5055C7473B5AE3CFDD452D602CD5DF12616444529E90D448938013FE6EFA58AA96F85E4F8C42275708571E98FE6827AF6B2B4AE3D7D83D64E5A64C53054DD3AF90BD06FEA9149565C94FCA0F6B834DC85599E4F2423B24DF0B6AFA979E534DFA9E7A4CC6FA631D486393
310
921829879BF5D781A373557BCB85E97FB90DB62B558F8795179C15944B051F40AB495CF35451D26A4727654E6D8033BD98EF82F21D91FF8AF2DD9982BCF1643BDD4EB516C9492E368C67C88DED563FC36D5EACF66DFF057C3658BDBFA69DF9578B3DA735B64F18C7F20770A9D45CFCF7FCF563D6456A277DBEF78A02637CA2
310
43B90A490AEAB94F72244481D24819A6C0E59B606BFA4B3025981DBB48EAB701D97BF19C577CC77F2D1B6C55A9EF3C732474C0B727303F625995056C3B02963D9EAC146BE78EC5FCEC7FA999EBC5EACBAAE41B12D27B4D2C0BBA49F244E2ECDC81B76B502F113D8F5EE8FB1BE3111CDD4FC2AA9B844CAB1288B68AB90A7CDC
310
1C166AB0D3DC5310625FCC14E779BFD0709F8890A629C9292B1B2DED31A4B0DA928CEE135085754027E3018A397D4D5427D15BD1330B677DC8934285AC3DF45A9EB68FF8F2B8FC0A509AFEECFD0FF2DE25CC6047F7214B195F07EFEB9A094D800F7BFAE8FED187B78EA8A3A400F115961BCAD1215E47C966530AF0EE8128FE
310
58CEBB996A8964FFA529A046635D9353B0336A8F700DDF46271A024E70B0B37C9DE01847591E54DED53D54202AB947E4076556AC49C6CA5C9E1226B7F1A7B1BE15DEED62C41B91E1B3E9AFAAA735036547343A925075041DF0A9979E893B391F8FCFA6967B3EFB644DCF6E5CEBFAE272625DCC6FAF3FB93793C5F90CE1EF57
310
407342756B10D1C489E8953CD1617E5CEECAD6F4EF8914CE5D5D504E5C3F1F9736DA62CFC11E00BCDDB8CC8A9466349744C1F75EBDA4DF09BA8A9E8C7A7E9991989E20E5DBDD6A6003664ED8F7A04A8DBE0DF6EAD9B9AA858342E47399053949D2C146EDB85DE4B176BB0965FBAC19BD19AA918E27FA50C1D22402E144464C
310
59462568E704B6E71915404CB72B8FF4EDE184DDAF753F284990D2C6926782963815403548A70C657FDEF80D2D9CEAA2AE4C1C76F60BFE74219A06527D6582DF6412526107381E55E353090704D085B52408D0933C4ED159D79BDA71BB4BC506F4831350EB6F979CD22D69BF7AC49B91A2C0A9DDA3D5CA36AD20FC478E37E6
310
1844E2352865EBCB6EA275A652E3836BE04EFB400BF1A2556F515F1FBB35B2AB35BD889C744FFA1004B5544B121E57F70215746DD2F5E2C1412B602CBF19455AC6C8E5E9922C4E01E65215385004546899059180EAFCF7A707CE7017CD8CDB0410789AB32C63B91E5CEBBBACB17AC6CD347A022D5075FD106377347AAABA7E
310
7D11590744509B44E205134DC1290F06580320F78E537D3D73540E06CB970B431F185308AD40BBD794D6D77003C5A36E8EAA54BA64597CD8F83BD552A080A365F7FF06504B0304140006080000CC70623B000000000000000000000000350000006662782F39464131463745442D413632322D343644302D413938332D3331
310
353338454246344243312F76657274696365732E62696E504B0304140006080800CC70623BF270F1330600000004000000360000006662782F39464131463745442D413632322D343644302D413938332D3331353338454246344243312F747269616E676C65732E62696E636660600000504B0304140006080000CC70623B
310
000000000000000000000000370000006662782F39464131463745442D413632322D343644302D413938332D3331353338454246344243312F617474726962757465732E62696E504B0304140006080800CC70623B08DA0BD19000000041010000360000006662782F39464131463745442D413632322D343644302D413938
310
332D3331353338454246344243312F6469726563746F72792E786D6C858F410AC3201045AF22B36F53E9A60B35CBEEBAE80D244E44489C6234F4F835464A48035D0DF398FF9F8AF63D0E6CC63039F212F8F9020C7D47C6792B21C5FE7403D62A1188E2E60C98D7234A5830286103A55745067B9D86B8A3CF9C7F90C11DE607
310
FB144396D7B6A82D282E9A152AD114D5EF2CB866EEE831B8EEA07A7BB5A8D7D61A2BAAEB7FD5F70921FF497D00504B0304140006080800CC70623B0D6EF93BFE000000A00100003B0000006662782F39464131463745442D413632322D343644302D413938332D3331353338454246344243312F7265736F75726365732F63
310
6F72652E786D6C8D50596E833010BD0A9ADFCA60B334011947A8694ED00B586642AC041B79A97AFC9A40A5F6AF3F33A3B7689E1E3F7DCD8FEC139DD7D6F4C0720A191A65476DA61E62B892236427C19DB5E1970C322367EC618541F0C9D9B8EC90B226A009093576C41D94DE63804C3DD2D18357379C652E63480A7FCF17A9
310
EE72C29CE5894E3AC17D702940B63D59270887DE46A7D0F36263058F518FBB468FE9A7BE6A7420864373B8D4873369AA8691FA421B3294352543C5CAF65C0F6FEF43CB8BD52C78D0F34F46E550061C419494B6843142CB0F5677F4B52BEB177AEC28E5C52AFF638ACBF84F53D42654E51E77B379102C05791282176B5F693D
310
CB4C7BED567C03504B010214000A0000080000CC70623B3DEE336E79000000790000001B00000000000000000000000000000000006175746F6465736B2D64657369676E2D7061636B6167652E786D6C504B01021400140006080800CC70623BD486FD9CA0000000F40000001300000000000000000000000000B20000005B
310
436F6E74656E745F54797065735D2E786D6C504B01021400140006080800CC70623B1EC5D7A3EB0000007C010000080000000000000000000000000083010000636F72652E786D6C504B01021400140006080800CC70623B55019EA25F0000007C000000070000000000000000000000000094020000636E782E786D6C504B
310
01021400140006080800CC70623B8C9102E971010000D40300000C00000000000000000000000000180300006662782F636F72652E786D6C504B01021400140006080800CC70623BFFEA85907E0000009D0000000B00000000000000000000000000B30400006662782F636E782E786D6C504B01021400140006080800CC70
310
623B4FEEA4082C0100001202000031000000000000000000000000005A0500006662782F39464131463745442D413632322D343644302D413938332D3331353338454246344243312F636F72652E786D6C504B01021400140006080800CC70623BAD7543B64E010000330300003000000000000000000000000000D5060000
310
6662782F39464131463745442D413632322D343644302D413938332D3331353338454246344243312F636E782E786D6C504B01021400140006080800CC70623B16AB87BA640500003C1000003400000000000000000000000000710800006662782F39464131463745442D413632322D343644302D413938332D3331353338
310
454246344243312F6F626A656374732E786D6C504B01021400140006080000CC70623B0000000000000000000000003500000000000000000000000000270E00006662782F39464131463745442D413632322D343644302D413938332D3331353338454246344243312F76657274696365732E62696E504B01021400140006
310
080800CC70623BF270F133060000000400000036000000000000000000000000007A0E00006662782F39464131463745442D413632322D343644302D413938332D3331353338454246344243312F747269616E676C65732E62696E504B01021400140006080000CC70623B0000000000000000000000003700000000000000
310
000000000000D40E00006662782F39464131463745442D413632322D343644302D413938332D3331353338454246344243312F617474726962757465732E62696E504B01021400140006080800CC70623B08DA0BD190000000410100003600000000000000000000000000290F00006662782F39464131463745442D413632
310
322D343644302D413938332D3331353338454246344243312F6469726563746F72792E786D6C504B01021400140006080800CC70623B0D6EF93BFE000000A00100003B000000000000000000000000000D1000006662782F39464131463745442D413632322D343644302D413938332D3331353338454246344243312F7265
310
736F75726365732F636F72652E786D6C504B0506000000000E000E0080040000641100000000
  0
XRECORD
  5
C53
102
{ACAD_REACTORS
330
173
102
}
330
173
100
AcDbXrecord
280
     1
102
MATERIAL
148
0.0
149
0.0
149
0.0
 93
        0
 94
       63
282
     0
 72
     1
 77
     1
171
     1
175
     1
179
     1
273
     0
  0
XRECORD
  5
175
102
{ACAD_REACTORS
330
173
102
}
330
173
100
AcDbXrecord
280
     1
270
     1
271
     1
  0
XRECORD
  5
174
102
{ACAD_REACTORS
330
173
102
}
330
173
100
AcDbXrecord
280
     1
270
     1
271
     1
  0
XRECORD
  5
1FB
102
{ACAD_REACTORS
330
173
102
}
330
173
100
AcDbXrecord
280
     1
 70
     0
 90
1673772943
  1
ECE7A1D2-D628-4531-984C-D00F80459256
310
504B03040A0000080000CC70623B3DEE336E79000000790000001B0000006175746F6465736B2D64657369676E2D7061636B6167652E786D6C3C3F786D6C2076657273696F6E3D22312E302220656E636F64696E673D227574662D3822203F3E3C666F726D6174733E3C666F726D61743E687474703A2F2F736368656D612E
310
6175746F6465736B2E636F6D2F64657369676E2D7061636B6167652F323030393C2F666F726D61743E3C2F666F726D6174733E504B0304140006080800CC70623BD486FD9CA0000000F4000000130000005B436F6E74656E745F54797065735D2E786D6C7D8EC10E82300C865F65E91D8A1E8C310C0EEA1BF002731658846E
310
D98AC1B77784ABF1D8FE5FBFBF75BBCE937A534CCEB38643598122B6FEE978D0B0485F9C41B54DDD7D022595594E1A469170414C76A4D9A4D207E29CF43ECE46F218070CC6BECC4078ACAA135ACF422C856C0E68EA1BF5669944DDD7BCDE7B1F8E415D77AECB980613C2E4AC91FC167A2B244592486606FC29C8FD7F045B9A
310
EF7053A7E60B504B0304140006080800CC70623BD9DDAED0EC0000007C01000008000000636F72652E786D6C8D90416EC3201045AF82665B61836D9CD8C2444DD39CA01740405C94182C03558F5F9C3852BBEB6A467FFE9B197D7EF89E6EE8CB2CC17A37002D0820E394D7D68D03A478C17B4007C117EFE32F1B20272733C0
310
2A83E0E3E2D3BC49CABB685CCCAAF3DA6CA20CC14440EA969B0182FA34932C648AD911AEC52CD5558EA6A0CF2EC329598D1E47ACCEFBECC59A050463A7EA5833865FEBDD0E37353BE3EE8DBDE3F6786A48D375FBF6CC78B9C282473B3DEFABC5C86834888A900E538A49F5419B9EB47DD5BC907D4F082F57FB1F28CDFA9F50
310
B22ED6D5F6EE030B20687EE43E10BC5CB3C8E51E54AE6B6EE207504B0304140006080800CC70623B55019EA25F0000007C00000007000000636E782E786D6C4DCB3B0E80201045D1AD90E915ED2CF8AC45050C11660C8261F98AB1B07AC9C97D42D718D865D3E909258CFD00CCE24AC6E326A164D74DC0B4128928FF326038
310
472BA13128B1252AC747C6BAB984FC68F0B87FE8960A5C09FE86CFB69FBA01504B0304140006080800CC70623BA24EB22D72010000D40300000C0000006662782F636F72652E786D6CC5535B6E833010BC8AE5DF0A6C5E49888CA3A6694ED00B38E05014B091B1518EDFE511A5A9D228FD2A1F60CDEC7A67C6986DCE4D8D7A
310
69BA4AAB0C073EC548AA5C17952A33ECECD15B61B4E1CC686DBF9561A44423333CC098B3D268D7CE50AE9595CA02AA74216750749DB418E5352C32DCE59FB211BE70162ABA93DF8AFC244AE9073ED050C759670D0840D390E18DF9F1706664C23973AE2A66B62A605A75ACA4C13C4976E1364A12EF355A2EBD384AF65EFA96
310
BC7B8BED2EA6719AAE16FB8491A199335B351775B991C2CA02F390D2D40B028F861F41BCA68B7518BFD0D59A524686F29B26D7164F36B94AD9289CE54E6D1DE6010819891F6E21228B3AD1831EC219194284CF98F06DD01008846CC5A1BEF83801D4CBDC6A1303536877A57A513B0953A94FC707FDBE6064EA84A9E3E6E0FA
310
EE8CF0E9198F7784A316AA0413C2C2F2E0ECA0934D1AE6D05A69BCDE9E91D2A611F573361E38FC1375157F5752AE6B6DFE4B11990F88CCBF0719EE23FF02504B0304140006080800CC70623B408A7D3B7C0000009D0000000B0000006662782F636E782E786D6C4DCCD10A83201886E15B91FFDC552A92A0064DBC8F581632
310
D3703A76F9ABD1C18E3E78F878E5F0D9027ABBFCF2292AE86E2D20171F69F6715550CB827B40839639A5F2770314A7CD293819B45C73AAFB45B35BA61ACAA1C1C7E7855C58C15BC331339661262CC762340413D68D77DA5B42298546CBE6573AF60CEB2F504B0304140006080800CC70623B449FB9BD290100001202000031
310
0000006662782F36394639363044362D344446342D343946362D394244322D3234314243333846323333332F636F72652E786D6C8D515B6EC32010BC0AE22B55850D98B871848994463E412FE002495162B07854397EA176A4F62F3F2C9A9D991D587EB84F37F0AD7D30CEF6905418026DA553C65E7A98E219ED203808EE9D
310
8B7F6810D871D23D2C3014FCE25D9A57483A1BB58D19B54EE9151C43D0110279CB971E06F9A5A7B11A53CC8C70ADE6515EC78BAE4895DB992778883E0700CB907242D17643D7E2538BD869608875438BBAE38922CAC8F1BDD90DB4691A5E2F42C153326A951B95E398B3D1FE599322163C9AE9115F7A3D46ADA0A018778810
310
84E907617BDCEE297BC5BB3DC6BC2EF47FA234AB2745C9D8D8D035EE220B50105E2F0DC1954B9FB747187D9F9D8FA0CCDB042D5FA0C015C65B42DF78BD10F3F3B363CB56C7109DCFDFBBB97E662ED92EB62D13BC2E1BCAE5777DB9966D8A1F504B0304140006080800CC70623BAD7543B64E01000033030000300000006662
310
782F36394639363044362D344446342D343946362D394244322D3234314243333846323333332F636E782E786D6CD593CD6EC32010845F0571AD6CE3D48AD20813A9873E410FBD12D82434182C7EAAE6EDBB2424CD25871E7B41D6EC30B3FA84F9E67BB2E40B4234DE8DB46F1925E094D7C6ED479AD3AE5951B2113C789FEE
310
6C943839C1488B4C05DF079FE72A69D8C96C13AAD6B8631503449F83828872B949AC57D26200B826A308D316B4064D6E46FCDA41C05550DC9E483A00797BFD207EFB092A45DE9514C1BBD22178396BD39D891265658C238DEA00936C654E5E433CB65A26D9F6EDB5EBC14EBF49A45CB856E66048291F6939A9A81BB5C89177
310
38143CA680F4AA299D66A042CEB3354A2684DC9D8D178FE0D9B8B41CAAD720F880EE7EF93C0C18769E099ECC04D5A102C8049A8A05632F4DDF376CF1DE0F6BB65C2F8627B65A33C6BB62177CEBBDAD973006829F89F22E814B54F4BC2BE347F8AA8F681390B50FA73F804400B5F542E796F19FF974E7F78DB802FE05E20750
310
4B0304140006080800CC70623B8D05915C650500003B100000340000006662782F36394639363044362D344446342D343946362D394244322D3234314243333846323333332F6F626A656374732E786D6CAD575B6FA33814FE2B887D06429276DA1565D4266D158D3A339A6846FB502932E050B66023DB74D2FDF5FB190C01
310
9276B2973C046C8ECFF53B17071F77456EBD502133CEAE6CDF9DD81665314F32965ED995DA3A17B6F5310C04E7AA47665B8C14F4CAD6DB7618A48257A5D94AE89654B91AEDDEDDFC61C998326A5B714EA4BCB265FC440BE2924AF184CA6737218AB8E976E7FA6E4338649B0A523E8D98964450A6A029F619B8588D52FE7039
310
B1BD30F0F4F730D0FF866AF6369557DB33949F31A9088B0F848DD8CCFCF9F2767A76E99CCDE733677E3EF59D9BBB9BA5E37F984D16E78BC5E5F5ED25044B25C0C96822E8D60EEFE11B91C581D77CEA34368A1F5329E68CD1B8B61F16D63A1B8E092D294B10C78C4A48EB593D192E7DED9BDEE7995E1B91FDEDD3ACEA9FE831
310
6A756F9F7D4D79F4274C90A7A04248AA51D5F8C718DAE06FB2F75AC4796EBE65D22A88A22223B995679120E2D50E41AA49C260C046A35368846B0BECD0DFF3EBEB8AD4F835768F69B9ADF25C43D30E6B646F807FAA64AD59F61715C7A54127C4AACA98BA3006A9D792DAE165E0D59B61A01FB3A9F9D838D2DAE62445C86166
310
F37564E842E7DE6A69879FEEA2DD5AE7E371E1A5E025154AC307D06A03D73EB5978C58FFA4C8E9033066E0F3BD53BEC1F39F91BE7B55103791EDE6BBB991A2046172CB4581D8B893FA674DDA17A77B3B7C413D1B511FD2743BFF8A38F03A658705E3ADF8015C3A3417FF3D7E439FF591DA0B5F18BC20C1B8981957AE6392A3
310
F43C640C01D1A0B4728E2DD4F26DB4B3C3152A252A3B4E913CEC1C72F012782FF88EFF8637AA552DBEF76408E8A8DE9E50F9E1CB3A2DA0DB1B6039A893B56063DC5B3E3FFB5F72E67AB9FEB4AEC496C4F4C1149625DD662C53E89D7BF0F6151A046260D1337DFDC94502430F83B0EE07A130A224BCAD7DAE1D9FB6CD422FF6
310
920702629C4BB9AE79C12F243C6432A6794E18E5552BA56B431AAB5D91317302B2B071E86C3A42B1A02F999E24061403B5D0EB639195DA655DD3EBEAB4FB862DDF579F014AD0E73C22F99E28DA57FB98E75C6CA2D74D53086D600F4786E0FE3144B771A8A7B900F03594DB8A633CBC49B2EDB69228BB479CF863B5E807AAAB
310
23872F6DFEB4129B949CA33823F58830E86D65621E10047D9DB34D862E8EAC3C2ABC2F7B2C40D67CDFE01F5545B92105AF983AC54D93D69E56FB8E797F88913F898A9FEC705D3F9D1B54EC8426FB500D40A03BD0119B06E1B95DDC7EB8F6975367793EBD70E66733DFB9BC982F9CE564727731999F5D4ECFCE3B8D6A4DC2A0
310
6D50FD148437D110834A64C6CDDF57FBACB5C307A2A477DFE4939736CFEF2B175371E0E10CF0DD1D5C15654E0BCA14D1E87DD02FF93782A162C0A3D95F1524A52770F972BF1EE9809D13CE7DD599467F8ECE9ADD85CE85A34CD45355448C64F9E8A031DC2D596ACC6E5DD93D9B82DE2EF5CAF81363A8E47996A0DE24564A79
310
4115AACE09C55E14540231FDA13C319787134EBF34E3A022514E5B4D9E0826E25C02D5805B15ABE1BEF51B26383D445DD9E875EE33FE4C22DA16427D65A3BCA92CA6D28DD01DF5DC53330704308475351050232CCD31583787BA75774AFB06E5070DD0C8EF484E19968C5D83BA5B90B244D31E54D55A372320FE4786B7EA58
310
44E135AA5467CB7EA333A61683CC6A8C3257034C10CF46F40EF9F5BE59BE5BD30C3C72D235E95D10345C1D45445A5F0BB47E46A5EBE5570F9380B5FA629579952296A773720405982B9DE04011506178964401AA8BDF1FBF0A8EAB6861DD6580C0E38217056766716DAEB2D6FA0917D3E4116581EADB879C4E7CFFB11EFACD
310
3D641311495D92C8676CB409A72D18610D803CE8A626049E8EC1887CB5B44CC39883690DDA8399B4B9855B481E7D71D4A9D22F96E5BB73BF5793020C02137BF837504B0304140006080000CC70623B000000000000000000000000350000006662782F36394639363044362D344446342D343946362D394244322D32343142
310
43333846323333332F76657274696365732E62696E504B0304140006080800CC70623BF270F1330600000004000000360000006662782F36394639363044362D344446342D343946362D394244322D3234314243333846323333332F747269616E676C65732E62696E636660600000504B0304140006080000CC70623B0000
310
00000000000000000000370000006662782F36394639363044362D344446342D343946362D394244322D3234314243333846323333332F617474726962757465732E62696E504B0304140006080800CC70623B08DA0BD19000000041010000360000006662782F36394639363044362D344446342D343946362D394244322D
310
3234314243333846323333332F6469726563746F72792E786D6C858F410AC3201045AF22B36F53E9A60B35CBEEBAE80D244E44489C6234F4F835464A48035D0DF398FF9F8AF63D0E6CC63039F212F8F9020C7D47C6792B21C5FE7403D62A1188E2E60C98D7234A5830286103A55745067B9D86B8A3CF9C7F90C11DE607FB14
310
4396D7B6A82D282E9A152AD114D5EF2CB866EEE831B8EEA07A7BB5A8D7D61A2BAAEB7FD5F70921FF497D00504B0304140006080800CC70623BCA768048FE000000A00100003B0000006662782F36394639363044362D344446342D343946362D394244322D3234314243333846323333332F7265736F75726365732F636F72
310
652E786D6C8D50596E833010BD0A9ADFCA60D600328E9AA639412F609909B1126CE4A5EAF16B0295DABFFECC8CDEA2797AECF8353F924FB44E193D409E5248504B332A3D0D10FC95B4901C39B3C6F85F3248B49871801506CE266BC2B243D2688FDA47549B11775038871E12F988C7004EDE7016A9083E2ADC3D5D84BC8B09
310
D33C8D74D471E6BC8D0192EDC93A815B742658898E651BCB59086ADC356A8C3FD555A1055ED7E7E254D615792D0F075295F585746FF53B694EE78A565DD736979A65AB9933AFE69F8CD2A2F038022F28ED489E135A7CE4554F9BBEA85E68DB53CAB255FEC71496F19FA6A0B42F8B3DEE6673C0F318E4497096AD7DC5F52C33
310
EEB55BFE0D504B010214000A0000080000CC70623B3DEE336E79000000790000001B00000000000000000000000000000000006175746F6465736B2D64657369676E2D7061636B6167652E786D6C504B01021400140006080800CC70623BD486FD9CA0000000F40000001300000000000000000000000000B20000005B436F
310
6E74656E745F54797065735D2E786D6C504B01021400140006080800CC70623BD9DDAED0EC0000007C010000080000000000000000000000000083010000636F72652E786D6C504B01021400140006080800CC70623B55019EA25F0000007C000000070000000000000000000000000095020000636E782E786D6C504B0102
310
1400140006080800CC70623BA24EB22D72010000D40300000C00000000000000000000000000190300006662782F636F72652E786D6C504B01021400140006080800CC70623B408A7D3B7C0000009D0000000B00000000000000000000000000B50400006662782F636E782E786D6C504B01021400140006080800CC70623B
310
449FB9BD290100001202000031000000000000000000000000005A0500006662782F36394639363044362D344446342D343946362D394244322D3234314243333846323333332F636F72652E786D6C504B01021400140006080800CC70623BAD7543B64E010000330300003000000000000000000000000000D20600006662
310
782F36394639363044362D344446342D343946362D394244322D3234314243333846323333332F636E782E786D6C504B01021400140006080800CC70623B8D05915C650500003B10000034000000000000000000000000006E0800006662782F36394639363044362D344446342D343946362D394244322D32343142433338
310
46323333332F6F626A656374732E786D6C504B01021400140006080000CC70623B0000000000000000000000003500000000000000000000000000250E00006662782F36394639363044362D344446342D343946362D394244322D3234314243333846323333332F76657274696365732E62696E504B010214001400060808
310
00CC70623BF270F13306000000040000003600000000000000000000000000780E00006662782F36394639363044362D344446342D343946362D394244322D3234314243333846323333332F747269616E676C65732E62696E504B01021400140006080000CC70623B00000000000000000000000037000000000000000000
310
00000000D20E00006662782F36394639363044362D344446342D343946362D394244322D3234314243333846323333332F617474726962757465732E62696E504B01021400140006080800CC70623B08DA0BD190000000410100003600000000000000000000000000270F00006662782F36394639363044362D344446342D
310
343946362D394244322D3234314243333846323333332F6469726563746F72792E786D6C504B01021400140006080800CC70623BCA768048FE000000A00100003B000000000000000000000000000B1000006662782F36394639363044362D344446342D343946362D394244322D3234314243333846323333332F7265736F
310
75726365732F636F72652E786D6C504B0506000000000E000E0080040000621100000000
  0
XRECORD
  5
176
102
{ACAD_REACTORS
330
173
102
}
330
173
100
AcDbXrecord
280
     1
270
     1
271
     1
  0
XRECORD
  5
177
102
{ACAD_REACTORS
330
173
102
}
330
173
100
AcDbXrecord
280
     1
270
     1
271
     1
  0
XRECORD
  5
C75
102
{ACAD_REACTORS
330
C74
102
}
330
C74
100
AcDbXrecord
280
     1
102
ACAD_ROUNDTRIP_2012_MLEADER_STYLE
298
     1
  0
XRECORD
  5
C87
102
{ACAD_REACTORS
330
C86
102
}
330
C86
100
AcDbXrecord
280
     1
102
DISPLAYNAME
  1
Metric50
102
FLAGS
 90
        0
  0
CELLSTYLEMAP
  5
C47
102
{ACAD_REACTORS
330
162
102
}
330
162
100
AcDbCellStyleMap
 90
        3
300
CELLSTYLE
  1
TABLEFORMAT_BEGIN
 90
        5
170
     1
 91
        0
 92
    32768
 62
   257
 93
        1
300
CONTENTFORMAT
  1
CONTENTFORMAT_BEGIN
 90
        0
 91
        0
 92
      512
 93
        0
300

 40
0.0
140
1.0
 94
        5
 62
     0
340
11
144
6.0
309
CONTENTFORMAT_END
171
     1
301
MARGIN
  1
CELLMARGIN_BEGIN
 40
1.5
 40
1.5
 40
1.5
 40
1.5
 40
4.5
 40
4.5
309
CELLMARGIN_END
 94
        6
 95
        1
302
GRIDFORMAT
  1
GRIDFORMAT_BEGIN
 90
        0
 91
        1
 62
     0
 92
       -2
340
14
 93
        0
 40
1.125
309
GRIDFORMAT_END
 95
        2
302
GRIDFORMAT
  1
GRIDFORMAT_BEGIN
 90
        0
 91
        1
 62
     0
 92
       -2
340
14
 93
        0
 40
1.125
309
GRIDFORMAT_END
 95
        4
302
GRIDFORMAT
  1
GRIDFORMAT_BEGIN
 90
        0
 91
        1
 62
     0
 92
       -2
340
14
 93
        0
 40
1.125
309
GRIDFORMAT_END
 95
        8
302
GRIDFORMAT
  1
GRIDFORMAT_BEGIN
 90
        0
 91
        1
 62
     0
 92
       -2
340
14
 93
        0
 40
1.125
309
GRIDFORMAT_END
 95
       16
302
GRIDFORMAT
  1
GRIDFORMAT_BEGIN
 90
        0
 91
        1
 62
     0
 92
       -2
340
14
 93
        0
 40
1.125
309
GRIDFORMAT_END
 95
       32
302
GRIDFORMAT
  1
GRIDFORMAT_BEGIN
 90
        0
 91
        1
 62
     0
 92
       -2
340
14
 93
        0
 40
1.125
309
GRIDFORMAT_END
309
TABLEFORMAT_END
  1
CELLSTYLE_BEGIN
 90
        1
 91
        1
300
_TITLE
309
CELLSTYLE_END
300
CELLSTYLE
  1
TABLEFORMAT_BEGIN
 90
        5
170
     1
 91
        0
 92
        0
 62
   257
 93
        1
300
CONTENTFORMAT
  1
CONTENTFORMAT_BEGIN
 90
        0
 91
        0
 92
      512
 93
        0
300

 40
0.0
140
1.0
 94
        5
 62
     0
340
11
144
4.5
309
CONTENTFORMAT_END
171
     1
301
MARGIN
  1
CELLMARGIN_BEGIN
 40
1.5
 40
1.5
 40
1.5
 40
1.5
 40
4.5
 40
4.5
309
CELLMARGIN_END
 94
        6
 95
        1
302
GRIDFORMAT
  1
GRIDFORMAT_BEGIN
 90
        0
 91
        1
 62
     0
 92
       -2
340
14
 93
        0
 40
1.125
309
GRIDFORMAT_END
 95
        2
302
GRIDFORMAT
  1
GRIDFORMAT_BEGIN
 90
        0
 91
        1
 62
     0
 92
       -2
340
14
 93
        0
 40
1.125
309
GRIDFORMAT_END
 95
        4
302
GRIDFORMAT
  1
GRIDFORMAT_BEGIN
 90
        0
 91
        1
 62
     0
 92
       -2
340
14
 93
        0
 40
1.125
309
GRIDFORMAT_END
 95
        8
302
GRIDFORMAT
  1
GRIDFORMAT_BEGIN
 90
        0
 91
        1
 62
     0
 92
       -2
340
14
 93
        0
 40
1.125
309
GRIDFORMAT_END
 95
       16
302
GRIDFORMAT
  1
GRIDFORMAT_BEGIN
 90
        0
 91
        1
 62
     0
 92
       -2
340
14
 93
        0
 40
1.125
309
GRIDFORMAT_END
 95
       32
302
GRIDFORMAT
  1
GRIDFORMAT_BEGIN
 90
        0
 91
        1
 62
     0
 92
       -2
340
14
 93
        0
 40
1.125
309
GRIDFORMAT_END
309
TABLEFORMAT_END
  1
CELLSTYLE_BEGIN
 90
        2
 91
        1
300
_HEADER
309
CELLSTYLE_END
300
CELLSTYLE
  1
TABLEFORMAT_BEGIN
 90
        5
170
     1
 91
        0
 92
        0
 62
   257
 93
        1
300
CONTENTFORMAT
  1
CONTENTFORMAT_BEGIN
 90
        0
 91
        0
 92
      512
 93
        0
300

 40
0.0
140
1.0
 94
        2
 62
     0
340
11
144
4.5
309
CONTENTFORMAT_END
171
     1
301
MARGIN
  1
CELLMARGIN_BEGIN
 40
1.5
 40
1.5
 40
1.5
 40
1.5
 40
4.5
 40
4.5
309
CELLMARGIN_END
 94
        6
 95
        1
302
GRIDFORMAT
  1
GRIDFORMAT_BEGIN
 90
        0
 91
        1
 62
     0
 92
       -2
340
14
 93
        0
 40
1.125
309
GRIDFORMAT_END
 95
        2
302
GRIDFORMAT
  1
GRIDFORMAT_BEGIN
 90
        0
 91
        1
 62
     0
 92
       -2
340
14
 93
        0
 40
1.125
309
GRIDFORMAT_END
 95
        4
302
GRIDFORMAT
  1
GRIDFORMAT_BEGIN
 90
        0
 91
        1
 62
     0
 92
       -2
340
14
 93
        0
 40
1.125
309
GRIDFORMAT_END
 95
        8
302
GRIDFORMAT
  1
GRIDFORMAT_BEGIN
 90
        0
 91
        1
 62
     0
 92
       -2
340
14
 93
        0
 40
1.125
309
GRIDFORMAT_END
 95
       16
302
GRIDFORMAT
  1
GRIDFORMAT_BEGIN
 90
        0
 91
        1
 62
     0
 92
       -2
340
14
 93
        0
 40
1.125
309
GRIDFORMAT_END
 95
       32
302
GRIDFORMAT
  1
GRIDFORMAT_BEGIN
 90
        0
 91
        1
 62
     0
 92
       -2
340
14
 93
        0
 40
1.125
309
GRIDFORMAT_END
309
TABLEFORMAT_END
  1
CELLSTYLE_BEGIN
 90
        3
 91
        2
300
_DATA
309
CELLSTYLE_END
  0
XRECORD
  5
C4C
102
{ACAD_REACTORS
330
162
102
}
330
162
100
AcDbXrecord
280
     1
102
ACAD_ROUNDTRIP_PRE2007_TABLESTYLE
 90
      512
 91
        0
  1

 92
      512
 93
        0
  2

 94
      512
 95
        0
  3

  0
XRECORD
  5
C5F
102
{ACAD_REACTORS
330
C5E
102
}
330
C5E
100
AcDbXrecord
280
     1
102
RTVSPost2010Prop28
280
     1
102
RTVSPost2010PropOp28
 70
     1
102
RTVSPost2010Prop29
280
     1
102
RTVSPost2010PropOp29
 70
     1
102
RTVSPost2010Prop30
280
     0
102
RTVSPost2010PropOp30
 70
     1
102
RTVSPost2010Prop31
280
     0
102
RTVSPost2010PropOp31
 70
     1
102
RTVSPost2010Prop32
280
     0
102
RTVSPost2010PropOp32
 70
     1
102
RTVSPost2010Prop33
280
     0
102
RTVSPost2010PropOp33
 70
     1
102
RTVSPost2010Prop34
280
     0
102
RTVSPost2010PropOp34
 70
     1
102
RTVSPost2010Prop35
280
     0
102
RTVSPost2010PropOp35
 70
     1
102
RTVSPost2010Prop36
280
     0
102
RTVSPost2010PropOp36
 70
     1
102
RTVSPost2010Prop37
 90
       50
102
RTVSPost2010PropOp37
 70
     1
102
RTVSPost2010Prop38
140
0.0
102
RTVSPost2010PropOp38
 70
     1
102
RTVSPost2010Prop39
140
1.0
102
RTVSPost2010PropOp39
 70
     1
102
RTVSPost2010Prop40
 90
        0
102
RTVSPost2010PropOp40
 70
     1
102
RTVSPost2010Prop41ColorIndex
 90
       18
102
RTVSPost2010Prop41ColorRGB
 90
        0
102
RTVSPost2010PropOp41
 70
     1
102
RTVSPost2010Prop42
 90
       50
102
RTVSPost2010PropOp42
 70
     1
102
RTVSPost2010Prop43
 90
        3
102
RTVSPost2010PropOp43
 70
     1
102
RTVSPost2010Prop44ColorIndex
 90
        5
102
RTVSPost2010Prop44ColorRGB
 90
      255
102
RTVSPost2010PropOp44
 70
     1
102
RTVSPost2010Prop45
280
     0
102
RTVSPost2010PropOp45
 70
     1
102
RTVSPost2010Prop46
 90
       50
102
RTVSPost2010PropOp46
 70
     1
102
RTVSPost2010Prop47
 90
       50
102
RTVSPost2010PropOp47
 70
     1
102
RTVSPost2010Prop48
 90
       50
102
RTVSPost2010PropOp48
 70
     1
102
RTVSPost2010Prop49
280
     0
102
RTVSPost2010PropOp49
 70
     1
102
RTVSPost2010Prop50
 90
       50
102
RTVSPost2010PropOp50
 70
     1
102
RTVSPost2010Prop51ColorIndex
 90
      256
102
RTVSPost2010Prop51ColorRGB
 90
-16777216
102
RTVSPost2010PropOp51
 70
     0
102
RTVSPost2010Prop52
140
1.0
102
RTVSPost2010PropOp52
 70
     0
102
RTVSPost2010Prop53
 90
        2
102
RTVSPost2010PropOp53
 70
     1
102
RTVSPost2010Prop54
  1
strokes_ogs.tif
102
RTVSPost2010PropOp54
 70
     1
102
RTVSPost2010Prop55
280
     0
102
RTVSPost2010PropOp55
 70
     1
102
RTVSPost2010Prop56
140
1.0
102
RTVSPost2010PropOp56
 70
     1
102
RTVSPost2010Prop57
140
1.0
102
RTVSPost2010PropOp57
 70
     1
102
RTVSPropertyOp0
 70
     1
102
RTVSPropertyOp1
 70
     1
102
RTVSPropertyOp2
 70
     1
102
RTVSPropertyOp3
 70
     1
102
RTVSPropertyOp4
 70
     1
102
RTVSPropertyOp5
 70
     1
102
RTVSPropertyOp6
 70
     1
102
RTVSPropertyOp7
 70
     1
102
RTVSPropertyOp8
 70
     1
102
RTVSPropertyOp9
 70
     1
102
RTVSPropertyOp10
 70
     1
102
RTVSPropertyOp11
 70
     1
102
RTVSPropertyOp12
 70
     1
102
RTVSPropertyOp13
 70
     1
102
RTVSPropertyOp14
 70
     1
102
RTVSPropertyOp15
 70
     1
102
RTVSPropertyOp16
 70
     1
102
RTVSPropertyOp17
 70
     1
102
RTVSPropertyOp18
 70
     1
102
RTVSPropertyOp19
 70
     1
102
RTVSPropertyOp20
 70
     1
102
RTVSPropertyOp21
 70
     1
102
RTVSPropertyOp22
 70
     1
102
RTVSPropertyOp23
 70
     1
102
RTVSPropertyOp24
 70
     1
102
RTVSPropertyOp25
 70
     1
102
RTVSPropertyOp26
 70
     1
102
RTVSPropertyOp27
 70
     1
102
RTVSPropertyOp28
 70
     1
102
RTVSPropertyOp29
 70
     1
102
RTVSPropertyOp30
 70
     1
102
RTVSPropertyOp31
 70
     1
102
RTVSPropertyOp32
 70
     1
102
RTVSPropertyOp33
 70
     1
102
RTVSPropertyOp34
 70
     1
102
RTVSPropertyOp35
 70
     1
102
RTVSPropertyOp36
 70
     1
102
RTVSPropertyOp37
 70
     1
102
RTVSPropertyOp38
 70
     1
102
RTVSPropertyOp39
 70
     1
102
RTVSPropertyOp40
 70
     1
102
RTVSPropertyOp41
 70
     1
102
RTVSPropertyOp42
 70
     1
102
RTVSPropertyOp43
 70
     1
102
RTVSPropertyOp44
 70
     1
102
RTVSPropertyOp45
 70
     1
102
RTVSPropertyOp46
 70
     1
102
RTVSPropertyOp47
 70
     1
102
RTVSPropertyOp48
 70
     1
102
RTVSPropertyOp49
 70
     1
102
RTVSPropertyOp50
 70
     1
102
RTVSPropertyOp51
 70
     0
102
RTVSPropertyOp52
 70
     0
102
RTVSPropertyOp53
 70
     1
102
RTVSPropertyOp54
 70
     1
102
RTVSPropertyOp55
 70
     1
102
RTVSPropertyOp56
 70
     1
102
RTVSPropertyOp57
 70
     1
102
RTVSPropertyOp58
 70
     1
102
RTVSPropertyOp59
 70
     1
102
RTVSPropertyOp60
 70
     1
102
RTVSPropertyOp61
 70
     1
102
RTVSPropertyOp62
 70
     1
  0
XRECORD
  5
C5D
102
{ACAD_REACTORS
330
C5C
102
}
330
C5C
100
AcDbXrecord
280
     1
102
RTVSPost2010Prop28
280
     0
102
RTVSPost2010PropOp28
 70
     1
102
RTVSPost2010Prop29
280
     1
102
RTVSPost2010PropOp29
 70
     1
102
RTVSPost2010Prop30
280
     1
102
RTVSPost2010PropOp30
 70
     1
102
RTVSPost2010Prop31
280
     0
102
RTVSPost2010PropOp31
 70
     1
102
RTVSPost2010Prop32
280
     0
102
RTVSPost2010PropOp32
 70
     1
102
RTVSPost2010Prop33
280
     0
102
RTVSPost2010PropOp33
 70
     1
102
RTVSPost2010Prop34
280
     0
102
RTVSPost2010PropOp34
 70
     1
102
RTVSPost2010Prop35
280
     0
102
RTVSPost2010PropOp35
 70
     1
102
RTVSPost2010Prop36
280
     0
102
RTVSPost2010PropOp36
 70
     1
102
RTVSPost2010Prop37
 90
       50
102
RTVSPost2010PropOp37
 70
     1
102
RTVSPost2010Prop38
140
0.0
102
RTVSPost2010PropOp38
 70
     1
102
RTVSPost2010Prop39
140
1.0
102
RTVSPost2010PropOp39
 70
     1
102
RTVSPost2010Prop40
 90
        0
102
RTVSPost2010PropOp40
 70
     1
102
RTVSPost2010Prop41ColorIndex
 90
       18
102
RTVSPost2010Prop41ColorRGB
 90
        0
102
RTVSPost2010PropOp41
 70
     1
102
RTVSPost2010Prop42
 90
       50
102
RTVSPost2010PropOp42
 70
     1
102
RTVSPost2010Prop43
 90
        3
102
RTVSPost2010PropOp43
 70
     1
102
RTVSPost2010Prop44ColorIndex
 90
        5
102
RTVSPost2010Prop44ColorRGB
 90
      255
102
RTVSPost2010PropOp44
 70
     1
102
RTVSPost2010Prop45
280
     0
102
RTVSPost2010PropOp45
 70
     1
102
RTVSPost2010Prop46
 90
       50
102
RTVSPost2010PropOp46
 70
     1
102
RTVSPost2010Prop47
 90
       50
102
RTVSPost2010PropOp47
 70
     1
102
RTVSPost2010Prop48
 90
       50
102
RTVSPost2010PropOp48
 70
     1
102
RTVSPost2010Prop49
280
     0
102
RTVSPost2010PropOp49
 70
     1
102
RTVSPost2010Prop50
 90
       50
102
RTVSPost2010PropOp50
 70
     1
102
RTVSPost2010Prop51ColorIndex
 90
      256
102
RTVSPost2010Prop51ColorRGB
 90
-16777216
102
RTVSPost2010PropOp51
 70
     0
102
RTVSPost2010Prop52
140
1.0
102
RTVSPost2010PropOp52
 70
     0
102
RTVSPost2010Prop53
 90
        2
102
RTVSPost2010PropOp53
 70
     1
102
RTVSPost2010Prop54
  1
strokes_ogs.tif
102
RTVSPost2010PropOp54
 70
     1
102
RTVSPost2010Prop55
280
     0
102
RTVSPost2010PropOp55
 70
     1
102
RTVSPost2010Prop56
140
1.0
102
RTVSPost2010PropOp56
 70
     1
102
RTVSPost2010Prop57
140
1.0
102
RTVSPost2010PropOp57
 70
     1
102
RTVSPropertyOp0
 70
     1
102
RTVSPropertyOp1
 70
     1
102
RTVSPropertyOp2
 70
     1
102
RTVSPropertyOp3
 70
     1
102
RTVSPropertyOp4
 70
     1
102
RTVSPropertyOp5
 70
     1
102
RTVSPropertyOp6
 70
     1
102
RTVSPropertyOp7
 70
     1
102
RTVSPropertyOp8
 70
     1
102
RTVSPropertyOp9
 70
     1
102
RTVSPropertyOp10
 70
     1
102
RTVSPropertyOp11
 70
     1
102
RTVSPropertyOp12
 70
     1
102
RTVSPropertyOp13
 70
     1
102
RTVSPropertyOp14
 70
     1
102
RTVSPropertyOp15
 70
     1
102
RTVSPropertyOp16
 70
     1
102
RTVSPropertyOp17
 70
     1
102
RTVSPropertyOp18
 70
     1
102
RTVSPropertyOp19
 70
     1
102
RTVSPropertyOp20
 70
     1
102
RTVSPropertyOp21
 70
     1
102
RTVSPropertyOp22
 70
     1
102
RTVSPropertyOp23
 70
     1
102
RTVSPropertyOp24
 70
     1
102
RTVSPropertyOp25
 70
     1
102
RTVSPropertyOp26
 70
     1
102
RTVSPropertyOp27
 70
     1
102
RTVSPropertyOp28
 70
     1
102
RTVSPropertyOp29
 70
     1
102
RTVSPropertyOp30
 70
     1
102
RTVSPropertyOp31
 70
     1
102
RTVSPropertyOp32
 70
     1
102
RTVSPropertyOp33
 70
     1
102
RTVSPropertyOp34
 70
     1
102
RTVSPropertyOp35
 70
     1
102
RTVSPropertyOp36
 70
     1
102
RTVSPropertyOp37
 70
     1
102
RTVSPropertyOp38
 70
     1
102
RTVSPropertyOp39
 70
     1
102
RTVSPropertyOp40
 70
     1
102
RTVSPropertyOp41
 70
     1
102
RTVSPropertyOp42
 70
     1
102
RTVSPropertyOp43
 70
     1
102
RTVSPropertyOp44
 70
     1
102
RTVSPropertyOp45
 70
     1
102
RTVSPropertyOp46
 70
     1
102
RTVSPropertyOp47
 70
     1
102
RTVSPropertyOp48
 70
     1
102
RTVSPropertyOp49
 70
     1
102
RTVSPropertyOp50
 70
     1
102
RTVSPropertyOp51
 70
     0
102
RTVSPropertyOp52
 70
     0
102
RTVSPropertyOp53
 70
     1
102
RTVSPropertyOp54
 70
     1
102
RTVSPropertyOp55
 70
     1
102
RTVSPropertyOp56
 70
     1
102
RTVSPropertyOp57
 70
     1
102
RTVSPropertyOp58
 70
     1
102
RTVSPropertyOp59
 70
     1
102
RTVSPropertyOp60
 70
     1
102
RTVSPropertyOp61
 70
     1
102
RTVSPropertyOp62
 70
     1
  0
XRECORD
  5
C6B
102
{ACAD_REACTORS
330
C6A
102
}
330
C6A
100
AcDbXrecord
280
     1
102
RTVSPost2010Prop28
280
     0
102
RTVSPost2010PropOp28
 70
     1
102
RTVSPost2010Prop29
280
     1
102
RTVSPost2010PropOp29
 70
     1
102
RTVSPost2010Prop30
280
     1
102
RTVSPost2010PropOp30
 70
     1
102
RTVSPost2010Prop31
280
     0
102
RTVSPost2010PropOp31
 70
     1
102
RTVSPost2010Prop32
280
     0
102
RTVSPost2010PropOp32
 70
     1
102
RTVSPost2010Prop33
280
     0
102
RTVSPost2010PropOp33
 70
     1
102
RTVSPost2010Prop34
280
     0
102
RTVSPost2010PropOp34
 70
     1
102
RTVSPost2010Prop35
280
     0
102
RTVSPost2010PropOp35
 70
     1
102
RTVSPost2010Prop36
280
     0
102
RTVSPost2010PropOp36
 70
     1
102
RTVSPost2010Prop37
 90
       50
102
RTVSPost2010PropOp37
 70
     1
102
RTVSPost2010Prop38
140
0.0
102
RTVSPost2010PropOp38
 70
     1
102
RTVSPost2010Prop39
140
1.0
102
RTVSPost2010PropOp39
 70
     1
102
RTVSPost2010Prop40
 90
        0
102
RTVSPost2010PropOp40
 70
     1
102
RTVSPost2010Prop41ColorIndex
 90
       18
102
RTVSPost2010Prop41ColorRGB
 90
        0
102
RTVSPost2010PropOp41
 70
     1
102
RTVSPost2010Prop42
 90
       50
102
RTVSPost2010PropOp42
 70
     1
102
RTVSPost2010Prop43
 90
        3
102
RTVSPost2010PropOp43
 70
     1
102
RTVSPost2010Prop44ColorIndex
 90
        5
102
RTVSPost2010Prop44ColorRGB
 90
      255
102
RTVSPost2010PropOp44
 70
     1
102
RTVSPost2010Prop45
280
     0
102
RTVSPost2010PropOp45
 70
     1
102
RTVSPost2010Prop46
 90
       50
102
RTVSPost2010PropOp46
 70
     1
102
RTVSPost2010Prop47
 90
       50
102
RTVSPost2010PropOp47
 70
     1
102
RTVSPost2010Prop48
 90
       50
102
RTVSPost2010PropOp48
 70
     1
102
RTVSPost2010Prop49
280
     0
102
RTVSPost2010PropOp49
 70
     1
102
RTVSPost2010Prop50
 90
       50
102
RTVSPost2010PropOp50
 70
     1
102
RTVSPost2010Prop51ColorIndex
 90
      256
102
RTVSPost2010Prop51ColorRGB
 90
-16777216
102
RTVSPost2010PropOp51
 70
     0
102
RTVSPost2010Prop52
140
1.0
102
RTVSPost2010PropOp52
 70
     0
102
RTVSPost2010Prop53
 90
        2
102
RTVSPost2010PropOp53
 70
     1
102
RTVSPost2010Prop54
  1
strokes_ogs.tif
102
RTVSPost2010PropOp54
 70
     1
102
RTVSPost2010Prop55
280
     0
102
RTVSPost2010PropOp55
 70
     1
102
RTVSPost2010Prop56
140
1.0
102
RTVSPost2010PropOp56
 70
     1
102
RTVSPost2010Prop57
140
1.0
102
RTVSPost2010PropOp57
 70
     1
102
RTVSPropertyOp0
 70
     1
102
RTVSPropertyOp1
 70
     1
102
RTVSPropertyOp2
 70
     1
102
RTVSPropertyOp3
 70
     1
102
RTVSPropertyOp4
 70
     1
102
RTVSPropertyOp5
 70
     1
102
RTVSPropertyOp6
 70
     1
102
RTVSPropertyOp7
 70
     1
102
RTVSPropertyOp8
 70
     1
102
RTVSPropertyOp9
 70
     1
102
RTVSPropertyOp10
 70
     1
102
RTVSPropertyOp11
 70
     1
102
RTVSPropertyOp12
 70
     1
102
RTVSPropertyOp13
 70
     1
102
RTVSPropertyOp14
 70
     1
102
RTVSPropertyOp15
 70
     1
102
RTVSPropertyOp16
 70
     1
102
RTVSPropertyOp17
 70
     1
102
RTVSPropertyOp18
 70
     1
102
RTVSPropertyOp19
 70
     1
102
RTVSPropertyOp20
 70
     1
102
RTVSPropertyOp21
 70
     1
102
RTVSPropertyOp22
 70
     1
102
RTVSPropertyOp23
 70
     1
102
RTVSPropertyOp24
 70
     1
102
RTVSPropertyOp25
 70
     1
102
RTVSPropertyOp26
 70
     1
102
RTVSPropertyOp27
 70
     1
102
RTVSPropertyOp28
 70
     1
102
RTVSPropertyOp29
 70
     1
102
RTVSPropertyOp30
 70
     1
102
RTVSPropertyOp31
 70
     1
102
RTVSPropertyOp32
 70
     1
102
RTVSPropertyOp33
 70
     1
102
RTVSPropertyOp34
 70
     1
102
RTVSPropertyOp35
 70
     1
102
RTVSPropertyOp36
 70
     1
102
RTVSPropertyOp37
 70
     1
102
RTVSPropertyOp38
 70
     1
102
RTVSPropertyOp39
 70
     1
102
RTVSPropertyOp40
 70
     1
102
RTVSPropertyOp41
 70
     1
102
RTVSPropertyOp42
 70
     1
102
RTVSPropertyOp43
 70
     1
102
RTVSPropertyOp44
 70
     1
102
RTVSPropertyOp45
 70
     1
102
RTVSPropertyOp46
 70
     1
102
RTVSPropertyOp47
 70
     1
102
RTVSPropertyOp48
 70
     1
102
RTVSPropertyOp49
 70
     1
102
RTVSPropertyOp50
 70
     1
102
RTVSPropertyOp51
 70
     0
102
RTVSPropertyOp52
 70
     0
102
RTVSPropertyOp53
 70
     1
102
RTVSPropertyOp54
 70
     1
102
RTVSPropertyOp55
 70
     1
102
RTVSPropertyOp56
 70
     1
102
RTVSPropertyOp57
 70
     1
102
RTVSPropertyOp58
 70
     1
102
RTVSPropertyOp59
 70
     1
102
RTVSPropertyOp60
 70
     1
102
RTVSPropertyOp61
 70
     1
102
RTVSPropertyOp62
 70
     1
  0
XRECORD
  5
C73
102
{ACAD_REACTORS
330
C72
102
}
330
C72
100
AcDbXrecord
280
     1
102
RTVSPost2010Prop28
280
     0
102
RTVSPost2010PropOp28
 70
     1
102
RTVSPost2010Prop29
280
     1
102
RTVSPost2010PropOp29
 70
     1
102
RTVSPost2010Prop30
280
     1
102
RTVSPost2010PropOp30
 70
     1
102
RTVSPost2010Prop31
280
     0
102
RTVSPost2010PropOp31
 70
     1
102
RTVSPost2010Prop32
280
     0
102
RTVSPost2010PropOp32
 70
     1
102
RTVSPost2010Prop33
280
     0
102
RTVSPost2010PropOp33
 70
     1
102
RTVSPost2010Prop34
280
     0
102
RTVSPost2010PropOp34
 70
     1
102
RTVSPost2010Prop35
280
     0
102
RTVSPost2010PropOp35
 70
     1
102
RTVSPost2010Prop36
280
     0
102
RTVSPost2010PropOp36
 70
     1
102
RTVSPost2010Prop37
 90
       50
102
RTVSPost2010PropOp37
 70
     1
102
RTVSPost2010Prop38
140
0.0
102
RTVSPost2010PropOp38
 70
     1
102
RTVSPost2010Prop39
140
1.0
102
RTVSPost2010PropOp39
 70
     1
102
RTVSPost2010Prop40
 90
        0
102
RTVSPost2010PropOp40
 70
     1
102
RTVSPost2010Prop41ColorIndex
 90
       18
102
RTVSPost2010Prop41ColorRGB
 90
        0
102
RTVSPost2010PropOp41
 70
     1
102
RTVSPost2010Prop42
 90
       50
102
RTVSPost2010PropOp42
 70
     1
102
RTVSPost2010Prop43
 90
        3
102
RTVSPost2010PropOp43
 70
     1
102
RTVSPost2010Prop44ColorIndex
 90
        5
102
RTVSPost2010Prop44ColorRGB
 90
      255
102
RTVSPost2010PropOp44
 70
     1
102
RTVSPost2010Prop45
280
     0
102
RTVSPost2010PropOp45
 70
     1
102
RTVSPost2010Prop46
 90
       50
102
RTVSPost2010PropOp46
 70
     1
102
RTVSPost2010Prop47
 90
       50
102
RTVSPost2010PropOp47
 70
     1
102
RTVSPost2010Prop48
 90
       50
102
RTVSPost2010PropOp48
 70
     1
102
RTVSPost2010Prop49
280
     0
102
RTVSPost2010PropOp49
 70
     1
102
RTVSPost2010Prop50
 90
       50
102
RTVSPost2010PropOp50
 70
     1
102
RTVSPost2010Prop51ColorIndex
 90
      256
102
RTVSPost2010Prop51ColorRGB
 90
-16777216
102
RTVSPost2010PropOp51
 70
     0
102
RTVSPost2010Prop52
140
1.0
102
RTVSPost2010PropOp52
 70
     0
102
RTVSPost2010Prop53
 90
        2
102
RTVSPost2010PropOp53
 70
     1
102
RTVSPost2010Prop54
  1
strokes_ogs.tif
102
RTVSPost2010PropOp54
 70
     1
102
RTVSPost2010Prop55
280
     0
102
RTVSPost2010PropOp55
 70
     1
102
RTVSPost2010Prop56
140
1.0
102
RTVSPost2010PropOp56
 70
     1
102
RTVSPost2010Prop57
140
1.0
102
RTVSPost2010PropOp57
 70
     1
102
RTVSPropertyOp0
 70
     1
102
RTVSPropertyOp1
 70
     1
102
RTVSPropertyOp2
 70
     1
102
RTVSPropertyOp3
 70
     1
102
RTVSPropertyOp4
 70
     1
102
RTVSPropertyOp5
 70
     1
102
RTVSPropertyOp6
 70
     1
102
RTVSPropertyOp7
 70
     1
102
RTVSPropertyOp8
 70
     1
102
RTVSPropertyOp9
 70
     1
102
RTVSPropertyOp10
 70
     1
102
RTVSPropertyOp11
 70
     1
102
RTVSPropertyOp12
 70
     1
102
RTVSPropertyOp13
 70
     1
102
RTVSPropertyOp14
 70
     1
102
RTVSPropertyOp15
 70
     1
102
RTVSPropertyOp16
 70
     1
102
RTVSPropertyOp17
 70
     1
102
RTVSPropertyOp18
 70
     1
102
RTVSPropertyOp19
 70
     1
102
RTVSPropertyOp20
 70
     1
102
RTVSPropertyOp21
 70
     1
102
RTVSPropertyOp22
 70
     1
102
RTVSPropertyOp23
 70
     1
102
RTVSPropertyOp24
 70
     1
102
RTVSPropertyOp25
 70
     1
102
RTVSPropertyOp26
 70
     1
102
RTVSPropertyOp27
 70
     1
102
RTVSPropertyOp28
 70
     1
102
RTVSPropertyOp29
 70
     1
102
RTVSPropertyOp30
 70
     1
102
RTVSPropertyOp31
 70
     1
102
RTVSPropertyOp32
 70
     1
102
RTVSPropertyOp33
 70
     1
102
RTVSPropertyOp34
 70
     1
102
RTVSPropertyOp35
 70
     1
102
RTVSPropertyOp36
 70
     1
102
RTVSPropertyOp37
 70
     1
102
RTVSPropertyOp38
 70
     1
102
RTVSPropertyOp39
 70
     1
102
RTVSPropertyOp40
 70
     1
102
RTVSPropertyOp41
 70
     1
102
RTVSPropertyOp42
 70
     1
102
RTVSPropertyOp43
 70
     1
102
RTVSPropertyOp44
 70
     1
102
RTVSPropertyOp45
 70
     1
102
RTVSPropertyOp46
 70
     1
102
RTVSPropertyOp47
 70
     1
102
RTVSPropertyOp48
 70
     1
102
RTVSPropertyOp49
 70
     1
102
RTVSPropertyOp50
 70
     1
102
RTVSPropertyOp51
 70
     0
102
RTVSPropertyOp52
 70
     0
102
RTVSPropertyOp53
 70
     1
102
RTVSPropertyOp54
 70
     1
102
RTVSPropertyOp55
 70
     1
102
RTVSPropertyOp56
 70
     1
102
RTVSPropertyOp57
 70
     1
102
RTVSPropertyOp58
 70
     1
102
RTVSPropertyOp59
 70
     1
102
RTVSPropertyOp60
 70
     1
102
RTVSPropertyOp61
 70
     1
102
RTVSPropertyOp62
 70
     1
  0
XRECORD
  5
C65
102
{ACAD_REACTORS
330
C64
102
}
330
C64
100
AcDbXrecord
280
     1
102
RTVSPost2010Prop28
280
     0
102
RTVSPost2010PropOp28
 70
     1
102
RTVSPost2010Prop29
280
     1
102
RTVSPost2010PropOp29
 70
     1
102
RTVSPost2010Prop30
280
     1
102
RTVSPost2010PropOp30
 70
     1
102
RTVSPost2010Prop31
280
     0
102
RTVSPost2010PropOp31
 70
     1
102
RTVSPost2010Prop32
280
     0
102
RTVSPost2010PropOp32
 70
     1
102
RTVSPost2010Prop33
280
     0
102
RTVSPost2010PropOp33
 70
     1
102
RTVSPost2010Prop34
280
     0
102
RTVSPost2010PropOp34
 70
     1
102
RTVSPost2010Prop35
280
     0
102
RTVSPost2010PropOp35
 70
     1
102
RTVSPost2010Prop36
280
     0
102
RTVSPost2010PropOp36
 70
     1
102
RTVSPost2010Prop37
 90
       50
102
RTVSPost2010PropOp37
 70
     1
102
RTVSPost2010Prop38
140
0.0
102
RTVSPost2010PropOp38
 70
     1
102
RTVSPost2010Prop39
140
1.0
102
RTVSPost2010PropOp39
 70
     1
102
RTVSPost2010Prop40
 90
        0
102
RTVSPost2010PropOp40
 70
     1
102
RTVSPost2010Prop41ColorIndex
 90
       18
102
RTVSPost2010Prop41ColorRGB
 90
        0
102
RTVSPost2010PropOp41
 70
     1
102
RTVSPost2010Prop42
 90
       50
102
RTVSPost2010PropOp42
 70
     1
102
RTVSPost2010Prop43
 90
        3
102
RTVSPost2010PropOp43
 70
     1
102
RTVSPost2010Prop44ColorIndex
 90
        5
102
RTVSPost2010Prop44ColorRGB
 90
      255
102
RTVSPost2010PropOp44
 70
     1
102
RTVSPost2010Prop45
280
     0
102
RTVSPost2010PropOp45
 70
     1
102
RTVSPost2010Prop46
 90
       50
102
RTVSPost2010PropOp46
 70
     1
102
RTVSPost2010Prop47
 90
       50
102
RTVSPost2010PropOp47
 70
     1
102
RTVSPost2010Prop48
 90
       50
102
RTVSPost2010PropOp48
 70
     1
102
RTVSPost2010Prop49
280
     0
102
RTVSPost2010PropOp49
 70
     1
102
RTVSPost2010Prop50
 90
       50
102
RTVSPost2010PropOp50
 70
     1
102
RTVSPost2010Prop51ColorIndex
 90
      256
102
RTVSPost2010Prop51ColorRGB
 90
-16777216
102
RTVSPost2010PropOp51
 70
     0
102
RTVSPost2010Prop52
140
1.0
102
RTVSPost2010PropOp52
 70
     0
102
RTVSPost2010Prop53
 90
        2
102
RTVSPost2010PropOp53
 70
     1
102
RTVSPost2010Prop54
  1
strokes_ogs.tif
102
RTVSPost2010PropOp54
 70
     1
102
RTVSPost2010Prop55
280
     0
102
RTVSPost2010PropOp55
 70
     1
102
RTVSPost2010Prop56
140
1.0
102
RTVSPost2010PropOp56
 70
     1
102
RTVSPost2010Prop57
140
1.0
102
RTVSPost2010PropOp57
 70
     1
102
RTVSPropertyOp0
 70
     1
102
RTVSPropertyOp1
 70
     1
102
RTVSPropertyOp2
 70
     1
102
RTVSPropertyOp3
 70
     1
102
RTVSPropertyOp4
 70
     1
102
RTVSPropertyOp5
 70
     1
102
RTVSPropertyOp6
 70
     1
102
RTVSPropertyOp7
 70
     1
102
RTVSPropertyOp8
 70
     1
102
RTVSPropertyOp9
 70
     1
102
RTVSPropertyOp10
 70
     1
102
RTVSPropertyOp11
 70
     1
102
RTVSPropertyOp12
 70
     1
102
RTVSPropertyOp13
 70
     1
102
RTVSPropertyOp14
 70
     1
102
RTVSPropertyOp15
 70
     1
102
RTVSPropertyOp16
 70
     1
102
RTVSPropertyOp17
 70
     1
102
RTVSPropertyOp18
 70
     1
102
RTVSPropertyOp19
 70
     1
102
RTVSPropertyOp20
 70
     1
102
RTVSPropertyOp21
 70
     1
102
RTVSPropertyOp22
 70
     1
102
RTVSPropertyOp23
 70
     1
102
RTVSPropertyOp24
 70
     1
102
RTVSPropertyOp25
 70
     1
102
RTVSPropertyOp26
 70
     1
102
RTVSPropertyOp27
 70
     1
102
RTVSPropertyOp28
 70
     1
102
RTVSPropertyOp29
 70
     1
102
RTVSPropertyOp30
 70
     1
102
RTVSPropertyOp31
 70
     1
102
RTVSPropertyOp32
 70
     1
102
RTVSPropertyOp33
 70
     1
102
RTVSPropertyOp34
 70
     1
102
RTVSPropertyOp35
 70
     1
102
RTVSPropertyOp36
 70
     1
102
RTVSPropertyOp37
 70
     1
102
RTVSPropertyOp38
 70
     1
102
RTVSPropertyOp39
 70
     1
102
RTVSPropertyOp40
 70
     1
102
RTVSPropertyOp41
 70
     1
102
RTVSPropertyOp42
 70
     1
102
RTVSPropertyOp43
 70
     1
102
RTVSPropertyOp44
 70
     1
102
RTVSPropertyOp45
 70
     1
102
RTVSPropertyOp46
 70
     1
102
RTVSPropertyOp47
 70
     1
102
RTVSPropertyOp48
 70
     1
102
RTVSPropertyOp49
 70
     1
102
RTVSPropertyOp50
 70
     1
102
RTVSPropertyOp51
 70
     0
102
RTVSPropertyOp52
 70
     0
102
RTVSPropertyOp53
 70
     1
102
RTVSPropertyOp54
 70
     1
102
RTVSPropertyOp55
 70
     1
102
RTVSPropertyOp56
 70
     1
102
RTVSPropertyOp57
 70
     1
102
RTVSPropertyOp58
 70
     1
102
RTVSPropertyOp59
 70
     1
102
RTVSPropertyOp60
 70
     1
102
RTVSPropertyOp61
 70
     1
102
RTVSPropertyOp62
 70
     1
  0
XRECORD
  5
C69
102
{ACAD_REACTORS
330
C68
102
}
330
C68
100
AcDbXrecord
280
     1
102
RTVSPost2010Prop28
280
     0
102
RTVSPost2010PropOp28
 70
     1
102
RTVSPost2010Prop29
280
     1
102
RTVSPost2010PropOp29
 70
     1
102
RTVSPost2010Prop30
280
     1
102
RTVSPost2010PropOp30
 70
     1
102
RTVSPost2010Prop31
280
     0
102
RTVSPost2010PropOp31
 70
     1
102
RTVSPost2010Prop32
280
     0
102
RTVSPost2010PropOp32
 70
     1
102
RTVSPost2010Prop33
280
     0
102
RTVSPost2010PropOp33
 70
     1
102
RTVSPost2010Prop34
280
     0
102
RTVSPost2010PropOp34
 70
     1
102
RTVSPost2010Prop35
280
     0
102
RTVSPost2010PropOp35
 70
     1
102
RTVSPost2010Prop36
280
     0
102
RTVSPost2010PropOp36
 70
     1
102
RTVSPost2010Prop37
 90
       50
102
RTVSPost2010PropOp37
 70
     1
102
RTVSPost2010Prop38
140
0.0
102
RTVSPost2010PropOp38
 70
     1
102
RTVSPost2010Prop39
140
1.0
102
RTVSPost2010PropOp39
 70
     1
102
RTVSPost2010Prop40
 90
        0
102
RTVSPost2010PropOp40
 70
     1
102
RTVSPost2010Prop41ColorIndex
 90
       18
102
RTVSPost2010Prop41ColorRGB
 90
        0
102
RTVSPost2010PropOp41
 70
     1
102
RTVSPost2010Prop42
 90
       50
102
RTVSPost2010PropOp42
 70
     1
102
RTVSPost2010Prop43
 90
        3
102
RTVSPost2010PropOp43
 70
     1
102
RTVSPost2010Prop44ColorIndex
 90
        5
102
RTVSPost2010Prop44ColorRGB
 90
      255
102
RTVSPost2010PropOp44
 70
     1
102
RTVSPost2010Prop45
280
     0
102
RTVSPost2010PropOp45
 70
     1
102
RTVSPost2010Prop46
 90
       50
102
RTVSPost2010PropOp46
 70
     1
102
RTVSPost2010Prop47
 90
       50
102
RTVSPost2010PropOp47
 70
     1
102
RTVSPost2010Prop48
 90
       50
102
RTVSPost2010PropOp48
 70
     1
102
RTVSPost2010Prop49
280
     0
102
RTVSPost2010PropOp49
 70
     1
102
RTVSPost2010Prop50
 90
       50
102
RTVSPost2010PropOp50
 70
     1
102
RTVSPost2010Prop51ColorIndex
 90
      256
102
RTVSPost2010Prop51ColorRGB
 90
-16777216
102
RTVSPost2010PropOp51
 70
     0
102
RTVSPost2010Prop52
140
1.0
102
RTVSPost2010PropOp52
 70
     0
102
RTVSPost2010Prop53
 90
        2
102
RTVSPost2010PropOp53
 70
     1
102
RTVSPost2010Prop54
  1
strokes_ogs.tif
102
RTVSPost2010PropOp54
 70
     1
102
RTVSPost2010Prop55
280
     0
102
RTVSPost2010PropOp55
 70
     1
102
RTVSPost2010Prop56
140
1.0
102
RTVSPost2010PropOp56
 70
     1
102
RTVSPost2010Prop57
140
1.0
102
RTVSPost2010PropOp57
 70
     1
102
RTVSPropertyOp0
 70
     1
102
RTVSPropertyOp1
 70
     1
102
RTVSPropertyOp2
 70
     1
102
RTVSPropertyOp3
 70
     1
102
RTVSPropertyOp4
 70
     1
102
RTVSPropertyOp5
 70
     1
102
RTVSPropertyOp6
 70
     1
102
RTVSPropertyOp7
 70
     1
102
RTVSPropertyOp8
 70
     1
102
RTVSPropertyOp9
 70
     1
102
RTVSPropertyOp10
 70
     1
102
RTVSPropertyOp11
 70
     1
102
RTVSPropertyOp12
 70
     1
102
RTVSPropertyOp13
 70
     1
102
RTVSPropertyOp14
 70
     1
102
RTVSPropertyOp15
 70
     1
102
RTVSPropertyOp16
 70
     1
102
RTVSPropertyOp17
 70
     1
102
RTVSPropertyOp18
 70
     1
102
RTVSPropertyOp19
 70
     1
102
RTVSPropertyOp20
 70
     1
102
RTVSPropertyOp21
 70
     1
102
RTVSPropertyOp22
 70
     1
102
RTVSPropertyOp23
 70
     1
102
RTVSPropertyOp24
 70
     1
102
RTVSPropertyOp25
 70
     1
102
RTVSPropertyOp26
 70
     1
102
RTVSPropertyOp27
 70
     1
102
RTVSPropertyOp28
 70
     1
102
RTVSPropertyOp29
 70
     1
102
RTVSPropertyOp30
 70
     1
102
RTVSPropertyOp31
 70
     1
102
RTVSPropertyOp32
 70
     1
102
RTVSPropertyOp33
 70
     1
102
RTVSPropertyOp34
 70
     1
102
RTVSPropertyOp35
 70
     1
102
RTVSPropertyOp36
 70
     1
102
RTVSPropertyOp37
 70
     1
102
RTVSPropertyOp38
 70
     1
102
RTVSPropertyOp39
 70
     1
102
RTVSPropertyOp40
 70
     1
102
RTVSPropertyOp41
 70
     1
102
RTVSPropertyOp42
 70
     1
102
RTVSPropertyOp43
 70
     1
102
RTVSPropertyOp44
 70
     1
102
RTVSPropertyOp45
 70
     1
102
RTVSPropertyOp46
 70
     1
102
RTVSPropertyOp47
 70
     1
102
RTVSPropertyOp48
 70
     1
102
RTVSPropertyOp49
 70
     1
102
RTVSPropertyOp50
 70
     1
102
RTVSPropertyOp51
 70
     0
102
RTVSPropertyOp52
 70
     0
102
RTVSPropertyOp53
 70
     1
102
RTVSPropertyOp54
 70
     1
102
RTVSPropertyOp55
 70
     1
102
RTVSPropertyOp56
 70
     1
102
RTVSPropertyOp57
 70
     1
102
RTVSPropertyOp58
 70
     1
102
RTVSPropertyOp59
 70
     1
102
RTVSPropertyOp60
 70
     1
102
RTVSPropertyOp61
 70
     1
102
RTVSPropertyOp62
 70
     1
  0
XRECORD
  5
C7B
102
{ACAD_REACTORS
330
C7A
102
}
330
C7A
100
AcDbXrecord
280
     1
102
RTVSPost2010Prop28
280
     0
102
RTVSPost2010PropOp28
 70
     1
102
RTVSPost2010Prop29
280
     1
102
RTVSPost2010PropOp29
 70
     1
102
RTVSPost2010Prop30
280
     1
102
RTVSPost2010PropOp30
 70
     1
102
RTVSPost2010Prop31
280
     0
102
RTVSPost2010PropOp31
 70
     1
102
RTVSPost2010Prop32
280
     0
102
RTVSPost2010PropOp32
 70
     1
102
RTVSPost2010Prop33
280
     0
102
RTVSPost2010PropOp33
 70
     1
102
RTVSPost2010Prop34
280
     0
102
RTVSPost2010PropOp34
 70
     1
102
RTVSPost2010Prop35
280
     0
102
RTVSPost2010PropOp35
 70
     1
102
RTVSPost2010Prop36
280
     0
102
RTVSPost2010PropOp36
 70
     1
102
RTVSPost2010Prop37
 90
       50
102
RTVSPost2010PropOp37
 70
     1
102
RTVSPost2010Prop38
140
0.0
102
RTVSPost2010PropOp38
 70
     1
102
RTVSPost2010Prop39
140
1.0
102
RTVSPost2010PropOp39
 70
     1
102
RTVSPost2010Prop40
 90
        0
102
RTVSPost2010PropOp40
 70
     1
102
RTVSPost2010Prop41ColorIndex
 90
       18
102
RTVSPost2010Prop41ColorRGB
 90
        0
102
RTVSPost2010PropOp41
 70
     1
102
RTVSPost2010Prop42
 90
       50
102
RTVSPost2010PropOp42
 70
     1
102
RTVSPost2010Prop43
 90
        3
102
RTVSPost2010PropOp43
 70
     1
102
RTVSPost2010Prop44ColorIndex
 90
        5
102
RTVSPost2010Prop44ColorRGB
 90
      255
102
RTVSPost2010PropOp44
 70
     1
102
RTVSPost2010Prop45
280
     0
102
RTVSPost2010PropOp45
 70
     1
102
RTVSPost2010Prop46
 90
       50
102
RTVSPost2010PropOp46
 70
     1
102
RTVSPost2010Prop47
 90
       50
102
RTVSPost2010PropOp47
 70
     1
102
RTVSPost2010Prop48
 90
       50
102
RTVSPost2010PropOp48
 70
     1
102
RTVSPost2010Prop49
280
     0
102
RTVSPost2010PropOp49
 70
     1
102
RTVSPost2010Prop50
 90
       50
102
RTVSPost2010PropOp50
 70
     1
102
RTVSPost2010Prop51ColorIndex
 90
      256
102
RTVSPost2010Prop51ColorRGB
 90
-16777216
102
RTVSPost2010PropOp51
 70
     0
102
RTVSPost2010Prop52
140
1.0
102
RTVSPost2010PropOp52
 70
     0
102
RTVSPost2010Prop53
 90
        2
102
RTVSPost2010PropOp53
 70
     1
102
RTVSPost2010Prop54
  1
strokes_ogs.tif
102
RTVSPost2010PropOp54
 70
     1
102
RTVSPost2010Prop55
280
     0
102
RTVSPost2010PropOp55
 70
     1
102
RTVSPost2010Prop56
140
1.0
102
RTVSPost2010PropOp56
 70
     1
102
RTVSPost2010Prop57
140
1.0
102
RTVSPost2010PropOp57
 70
     1
102
RTVSPropertyOp0
 70
     0
102
RTVSPropertyOp1
 70
     0
102
RTVSPropertyOp2
 70
     0
102
RTVSPropertyOp3
 70
     0
102
RTVSPropertyOp4
 70
     0
102
RTVSPropertyOp5
 70
     0
102
RTVSPropertyOp6
 70
     0
102
RTVSPropertyOp7
 70
     0
102
RTVSPropertyOp8
 70
     0
102
RTVSPropertyOp9
 70
     0
102
RTVSPropertyOp10
 70
     0
102
RTVSPropertyOp11
 70
     0
102
RTVSPropertyOp12
 70
     0
102
RTVSPropertyOp13
 70
     0
102
RTVSPropertyOp14
 70
     2
102
RTVSPropertyOp15
 70
     0
102
RTVSPropertyOp16
 70
     0
102
RTVSPropertyOp17
 70
     0
102
RTVSPropertyOp18
 70
     0
102
RTVSPropertyOp19
 70
     0
102
RTVSPropertyOp20
 70
     0
102
RTVSPropertyOp21
 70
     0
102
RTVSPropertyOp22
 70
     0
102
RTVSPropertyOp23
 70
     0
102
RTVSPropertyOp24
 70
     0
102
RTVSPropertyOp25
 70
     0
102
RTVSPropertyOp26
 70
     0
102
RTVSPropertyOp27
 70
     0
102
RTVSPropertyOp28
 70
     1
102
RTVSPropertyOp29
 70
     1
102
RTVSPropertyOp30
 70
     1
102
RTVSPropertyOp31
 70
     1
102
RTVSPropertyOp32
 70
     1
102
RTVSPropertyOp33
 70
     1
102
RTVSPropertyOp34
 70
     1
102
RTVSPropertyOp35
 70
     1
102
RTVSPropertyOp36
 70
     1
102
RTVSPropertyOp37
 70
     1
102
RTVSPropertyOp38
 70
     1
102
RTVSPropertyOp39
 70
     1
102
RTVSPropertyOp40
 70
     1
102
RTVSPropertyOp41
 70
     1
102
RTVSPropertyOp42
 70
     1
102
RTVSPropertyOp43
 70
     1
102
RTVSPropertyOp44
 70
     1
102
RTVSPropertyOp45
 70
     1
102
RTVSPropertyOp46
 70
     1
102
RTVSPropertyOp47
 70
     1
102
RTVSPropertyOp48
 70
     1
102
RTVSPropertyOp49
 70
     1
102
RTVSPropertyOp50
 70
     1
102
RTVSPropertyOp51
 70
     0
102
RTVSPropertyOp52
 70
     0
102
RTVSPropertyOp53
 70
     1
102
RTVSPropertyOp54
 70
     1
102
RTVSPropertyOp55
 70
     1
102
RTVSPropertyOp56
 70
     1
102
RTVSPropertyOp57
 70
     1
102
RTVSPropertyOp58
 70
     1
102
RTVSPropertyOp59
 70
     1
102
RTVSPropertyOp60
 70
     1
102
RTVSPropertyOp61
 70
     1
102
RTVSPropertyOp62
 70
     1
  0
XRECORD
  5
C71
102
{ACAD_REACTORS
330
C70
102
}
330
C70
100
AcDbXrecord
280
     1
102
RTVSPost2010Prop28
280
     0
102
RTVSPost2010PropOp28
 70
     1
102
RTVSPost2010Prop29
280
     1
102
RTVSPost2010PropOp29
 70
     1
102
RTVSPost2010Prop30
280
     1
102
RTVSPost2010PropOp30
 70
     1
102
RTVSPost2010Prop31
280
     0
102
RTVSPost2010PropOp31
 70
     1
102
RTVSPost2010Prop32
280
     0
102
RTVSPost2010PropOp32
 70
     1
102
RTVSPost2010Prop33
280
     0
102
RTVSPost2010PropOp33
 70
     1
102
RTVSPost2010Prop34
280
     0
102
RTVSPost2010PropOp34
 70
     1
102
RTVSPost2010Prop35
280
     0
102
RTVSPost2010PropOp35
 70
     1
102
RTVSPost2010Prop36
280
     0
102
RTVSPost2010PropOp36
 70
     1
102
RTVSPost2010Prop37
 90
       50
102
RTVSPost2010PropOp37
 70
     1
102
RTVSPost2010Prop38
140
0.0
102
RTVSPost2010PropOp38
 70
     1
102
RTVSPost2010Prop39
140
1.0
102
RTVSPost2010PropOp39
 70
     1
102
RTVSPost2010Prop40
 90
        0
102
RTVSPost2010PropOp40
 70
     1
102
RTVSPost2010Prop41ColorIndex
 90
       18
102
RTVSPost2010Prop41ColorRGB
 90
        0
102
RTVSPost2010PropOp41
 70
     1
102
RTVSPost2010Prop42
 90
       50
102
RTVSPost2010PropOp42
 70
     1
102
RTVSPost2010Prop43
 90
        3
102
RTVSPost2010PropOp43
 70
     1
102
RTVSPost2010Prop44ColorIndex
 90
        5
102
RTVSPost2010Prop44ColorRGB
 90
      255
102
RTVSPost2010PropOp44
 70
     1
102
RTVSPost2010Prop45
280
     0
102
RTVSPost2010PropOp45
 70
     1
102
RTVSPost2010Prop46
 90
       50
102
RTVSPost2010PropOp46
 70
     1
102
RTVSPost2010Prop47
 90
       50
102
RTVSPost2010PropOp47
 70
     1
102
RTVSPost2010Prop48
 90
       50
102
RTVSPost2010PropOp48
 70
     1
102
RTVSPost2010Prop49
280
     0
102
RTVSPost2010PropOp49
 70
     1
102
RTVSPost2010Prop50
 90
       50
102
RTVSPost2010PropOp50
 70
     1
102
RTVSPost2010Prop51ColorIndex
 90
      256
102
RTVSPost2010Prop51ColorRGB
 90
-16777216
102
RTVSPost2010PropOp51
 70
     0
102
RTVSPost2010Prop52
140
1.0
102
RTVSPost2010PropOp52
 70
     0
102
RTVSPost2010Prop53
 90
        2
102
RTVSPost2010PropOp53
 70
     1
102
RTVSPost2010Prop54
  1
strokes_ogs.tif
102
RTVSPost2010PropOp54
 70
     1
102
RTVSPost2010Prop55
280
     0
102
RTVSPost2010PropOp55
 70
     1
102
RTVSPost2010Prop56
140
1.0
102
RTVSPost2010PropOp56
 70
     1
102
RTVSPost2010Prop57
140
1.0
102
RTVSPost2010PropOp57
 70
     1
102
RTVSPropertyOp0
 70
     1
102
RTVSPropertyOp1
 70
     1
102
RTVSPropertyOp2
 70
     1
102
RTVSPropertyOp3
 70
     1
102
RTVSPropertyOp4
 70
     1
102
RTVSPropertyOp5
 70
     1
102
RTVSPropertyOp6
 70
     1
102
RTVSPropertyOp7
 70
     1
102
RTVSPropertyOp8
 70
     1
102
RTVSPropertyOp9
 70
     1
102
RTVSPropertyOp10
 70
     1
102
RTVSPropertyOp11
 70
     1
102
RTVSPropertyOp12
 70
     1
102
RTVSPropertyOp13
 70
     1
102
RTVSPropertyOp14
 70
     1
102
RTVSPropertyOp15
 70
     1
102
RTVSPropertyOp16
 70
     1
102
RTVSPropertyOp17
 70
     1
102
RTVSPropertyOp18
 70
     1
102
RTVSPropertyOp19
 70
     1
102
RTVSPropertyOp20
 70
     1
102
RTVSPropertyOp21
 70
     1
102
RTVSPropertyOp22
 70
     1
102
RTVSPropertyOp23
 70
     1
102
RTVSPropertyOp24
 70
     1
102
RTVSPropertyOp25
 70
     1
102
RTVSPropertyOp26
 70
     1
102
RTVSPropertyOp27
 70
     1
102
RTVSPropertyOp28
 70
     1
102
RTVSPropertyOp29
 70
     1
102
RTVSPropertyOp30
 70
     1
102
RTVSPropertyOp31
 70
     1
102
RTVSPropertyOp32
 70
     1
102
RTVSPropertyOp33
 70
     1
102
RTVSPropertyOp34
 70
     1
102
RTVSPropertyOp35
 70
     1
102
RTVSPropertyOp36
 70
     1
102
RTVSPropertyOp37
 70
     1
102
RTVSPropertyOp38
 70
     1
102
RTVSPropertyOp39
 70
     1
102
RTVSPropertyOp40
 70
     1
102
RTVSPropertyOp41
 70
     1
102
RTVSPropertyOp42
 70
     1
102
RTVSPropertyOp43
 70
     1
102
RTVSPropertyOp44
 70
     1
102
RTVSPropertyOp45
 70
     1
102
RTVSPropertyOp46
 70
     1
102
RTVSPropertyOp47
 70
     1
102
RTVSPropertyOp48
 70
     1
102
RTVSPropertyOp49
 70
     1
102
RTVSPropertyOp50
 70
     1
102
RTVSPropertyOp51
 70
     0
102
RTVSPropertyOp52
 70
     0
102
RTVSPropertyOp53
 70
     1
102
RTVSPropertyOp54
 70
     1
102
RTVSPropertyOp55
 70
     1
102
RTVSPropertyOp56
 70
     1
102
RTVSPropertyOp57
 70
     1
102
RTVSPropertyOp58
 70
     1
102
RTVSPropertyOp59
 70
     1
102
RTVSPropertyOp60
 70
     1
102
RTVSPropertyOp61
 70
     1
102
RTVSPropertyOp62
 70
     1
  0
XRECORD
  5
C55
102
{ACAD_REACTORS
330
C54
102
}
330
C54
100
AcDbXrecord
280
     1
102
RTVSPost2010Prop28
280
     0
102
RTVSPost2010PropOp28
 70
     1
102
RTVSPost2010Prop29
280
     1
102
RTVSPost2010PropOp29
 70
     1
102
RTVSPost2010Prop30
280
     1
102
RTVSPost2010PropOp30
 70
     1
102
RTVSPost2010Prop31
280
     0
102
RTVSPost2010PropOp31
 70
     1
102
RTVSPost2010Prop32
280
     0
102
RTVSPost2010PropOp32
 70
     1
102
RTVSPost2010Prop33
280
     0
102
RTVSPost2010PropOp33
 70
     1
102
RTVSPost2010Prop34
280
     0
102
RTVSPost2010PropOp34
 70
     1
102
RTVSPost2010Prop35
280
     0
102
RTVSPost2010PropOp35
 70
     1
102
RTVSPost2010Prop36
280
     0
102
RTVSPost2010PropOp36
 70
     1
102
RTVSPost2010Prop37
 90
       50
102
RTVSPost2010PropOp37
 70
     1
102
RTVSPost2010Prop38
140
0.0
102
RTVSPost2010PropOp38
 70
     1
102
RTVSPost2010Prop39
140
1.0
102
RTVSPost2010PropOp39
 70
     1
102
RTVSPost2010Prop40
 90
        0
102
RTVSPost2010PropOp40
 70
     1
102
RTVSPost2010Prop41ColorIndex
 90
       18
102
RTVSPost2010Prop41ColorRGB
 90
        0
102
RTVSPost2010PropOp41
 70
     1
102
RTVSPost2010Prop42
 90
       50
102
RTVSPost2010PropOp42
 70
     1
102
RTVSPost2010Prop43
 90
        3
102
RTVSPost2010PropOp43
 70
     1
102
RTVSPost2010Prop44ColorIndex
 90
        5
102
RTVSPost2010Prop44ColorRGB
 90
      255
102
RTVSPost2010PropOp44
 70
     1
102
RTVSPost2010Prop45
280
     0
102
RTVSPost2010PropOp45
 70
     1
102
RTVSPost2010Prop46
 90
       50
102
RTVSPost2010PropOp46
 70
     1
102
RTVSPost2010Prop47
 90
       50
102
RTVSPost2010PropOp47
 70
     1
102
RTVSPost2010Prop48
 90
       50
102
RTVSPost2010PropOp48
 70
     1
102
RTVSPost2010Prop49
280
     0
102
RTVSPost2010PropOp49
 70
     1
102
RTVSPost2010Prop50
 90
       50
102
RTVSPost2010PropOp50
 70
     1
102
RTVSPost2010Prop51ColorIndex
 90
      256
102
RTVSPost2010Prop51ColorRGB
 90
-16777216
102
RTVSPost2010PropOp51
 70
     0
102
RTVSPost2010Prop52
140
1.0
102
RTVSPost2010PropOp52
 70
     0
102
RTVSPost2010Prop53
 90
        2
102
RTVSPost2010PropOp53
 70
     1
102
RTVSPost2010Prop54
  1
strokes_ogs.tif
102
RTVSPost2010PropOp54
 70
     1
102
RTVSPost2010Prop55
280
     0
102
RTVSPost2010PropOp55
 70
     1
102
RTVSPost2010Prop56
140
1.0
102
RTVSPost2010PropOp56
 70
     1
102
RTVSPost2010Prop57
140
1.0
102
RTVSPost2010PropOp57
 70
     1
102
RTVSPropertyOp0
 70
     1
102
RTVSPropertyOp1
 70
     1
102
RTVSPropertyOp2
 70
     1
102
RTVSPropertyOp3
 70
     1
102
RTVSPropertyOp4
 70
     1
102
RTVSPropertyOp5
 70
     1
102
RTVSPropertyOp6
 70
     1
102
RTVSPropertyOp7
 70
     1
102
RTVSPropertyOp8
 70
     1
102
RTVSPropertyOp9
 70
     1
102
RTVSPropertyOp10
 70
     1
102
RTVSPropertyOp11
 70
     1
102
RTVSPropertyOp12
 70
     1
102
RTVSPropertyOp13
 70
     1
102
RTVSPropertyOp14
 70
     1
102
RTVSPropertyOp15
 70
     1
102
RTVSPropertyOp16
 70
     1
102
RTVSPropertyOp17
 70
     1
102
RTVSPropertyOp18
 70
     1
102
RTVSPropertyOp19
 70
     1
102
RTVSPropertyOp20
 70
     1
102
RTVSPropertyOp21
 70
     1
102
RTVSPropertyOp22
 70
     1
102
RTVSPropertyOp23
 70
     1
102
RTVSPropertyOp24
 70
     1
102
RTVSPropertyOp25
 70
     1
102
RTVSPropertyOp26
 70
     1
102
RTVSPropertyOp27
 70
     1
102
RTVSPropertyOp28
 70
     1
102
RTVSPropertyOp29
 70
     1
102
RTVSPropertyOp30
 70
     1
102
RTVSPropertyOp31
 70
     1
102
RTVSPropertyOp32
 70
     1
102
RTVSPropertyOp33
 70
     1
102
RTVSPropertyOp34
 70
     1
102
RTVSPropertyOp35
 70
     1
102
RTVSPropertyOp36
 70
     1
102
RTVSPropertyOp37
 70
     1
102
RTVSPropertyOp38
 70
     1
102
RTVSPropertyOp39
 70
     1
102
RTVSPropertyOp40
 70
     1
102
RTVSPropertyOp41
 70
     1
102
RTVSPropertyOp42
 70
     1
102
RTVSPropertyOp43
 70
     1
102
RTVSPropertyOp44
 70
     1
102
RTVSPropertyOp45
 70
     1
102
RTVSPropertyOp46
 70
     1
102
RTVSPropertyOp47
 70
     1
102
RTVSPropertyOp48
 70
     1
102
RTVSPropertyOp49
 70
     1
102
RTVSPropertyOp50
 70
     1
102
RTVSPropertyOp51
 70
     0
102
RTVSPropertyOp52
 70
     0
102
RTVSPropertyOp53
 70
     1
102
RTVSPropertyOp54
 70
     1
102
RTVSPropertyOp55
 70
     1
102
RTVSPropertyOp56
 70
     1
102
RTVSPropertyOp57
 70
     1
102
RTVSPropertyOp58
 70
     1
102
RTVSPropertyOp59
 70
     1
102
RTVSPropertyOp60
 70
     1
102
RTVSPropertyOp61
 70
     1
102
RTVSPropertyOp62
 70
     1
  0
XRECORD
  5
C57
102
{ACAD_REACTORS
330
C56
102
}
330
C56
100
AcDbXrecord
280
     1
102
RTVSPost2010Prop28
280
     0
102
RTVSPost2010PropOp28
 70
     1
102
RTVSPost2010Prop29
280
     1
102
RTVSPost2010PropOp29
 70
     1
102
RTVSPost2010Prop30
280
     1
102
RTVSPost2010PropOp30
 70
     1
102
RTVSPost2010Prop31
280
     0
102
RTVSPost2010PropOp31
 70
     1
102
RTVSPost2010Prop32
280
     0
102
RTVSPost2010PropOp32
 70
     1
102
RTVSPost2010Prop33
280
     0
102
RTVSPost2010PropOp33
 70
     1
102
RTVSPost2010Prop34
280
     0
102
RTVSPost2010PropOp34
 70
     1
102
RTVSPost2010Prop35
280
     0
102
RTVSPost2010PropOp35
 70
     1
102
RTVSPost2010Prop36
280
     0
102
RTVSPost2010PropOp36
 70
     1
102
RTVSPost2010Prop37
 90
       50
102
RTVSPost2010PropOp37
 70
     1
102
RTVSPost2010Prop38
140
0.0
102
RTVSPost2010PropOp38
 70
     1
102
RTVSPost2010Prop39
140
1.0
102
RTVSPost2010PropOp39
 70
     1
102
RTVSPost2010Prop40
 90
        0
102
RTVSPost2010PropOp40
 70
     1
102
RTVSPost2010Prop41ColorIndex
 90
       18
102
RTVSPost2010Prop41ColorRGB
 90
        0
102
RTVSPost2010PropOp41
 70
     1
102
RTVSPost2010Prop42
 90
       50
102
RTVSPost2010PropOp42
 70
     1
102
RTVSPost2010Prop43
 90
        3
102
RTVSPost2010PropOp43
 70
     1
102
RTVSPost2010Prop44ColorIndex
 90
        5
102
RTVSPost2010Prop44ColorRGB
 90
      255
102
RTVSPost2010PropOp44
 70
     1
102
RTVSPost2010Prop45
280
     0
102
RTVSPost2010PropOp45
 70
     1
102
RTVSPost2010Prop46
 90
       50
102
RTVSPost2010PropOp46
 70
     1
102
RTVSPost2010Prop47
 90
       50
102
RTVSPost2010PropOp47
 70
     1
102
RTVSPost2010Prop48
 90
       50
102
RTVSPost2010PropOp48
 70
     1
102
RTVSPost2010Prop49
280
     0
102
RTVSPost2010PropOp49
 70
     1
102
RTVSPost2010Prop50
 90
       50
102
RTVSPost2010PropOp50
 70
     1
102
RTVSPost2010Prop51ColorIndex
 90
      256
102
RTVSPost2010Prop51ColorRGB
 90
-16777216
102
RTVSPost2010PropOp51
 70
     0
102
RTVSPost2010Prop52
140
1.0
102
RTVSPost2010PropOp52
 70
     0
102
RTVSPost2010Prop53
 90
        2
102
RTVSPost2010PropOp53
 70
     1
102
RTVSPost2010Prop54
  1
strokes_ogs.tif
102
RTVSPost2010PropOp54
 70
     1
102
RTVSPost2010Prop55
280
     0
102
RTVSPost2010PropOp55
 70
     1
102
RTVSPost2010Prop56
140
1.0
102
RTVSPost2010PropOp56
 70
     1
102
RTVSPost2010Prop57
140
1.0
102
RTVSPost2010PropOp57
 70
     1
102
RTVSPropertyOp0
 70
     1
102
RTVSPropertyOp1
 70
     1
102
RTVSPropertyOp2
 70
     1
102
RTVSPropertyOp3
 70
     1
102
RTVSPropertyOp4
 70
     1
102
RTVSPropertyOp5
 70
     1
102
RTVSPropertyOp6
 70
     1
102
RTVSPropertyOp7
 70
     1
102
RTVSPropertyOp8
 70
     1
102
RTVSPropertyOp9
 70
     1
102
RTVSPropertyOp10
 70
     1
102
RTVSPropertyOp11
 70
     1
102
RTVSPropertyOp12
 70
     1
102
RTVSPropertyOp13
 70
     1
102
RTVSPropertyOp14
 70
     1
102
RTVSPropertyOp15
 70
     1
102
RTVSPropertyOp16
 70
     1
102
RTVSPropertyOp17
 70
     1
102
RTVSPropertyOp18
 70
     1
102
RTVSPropertyOp19
 70
     1
102
RTVSPropertyOp20
 70
     1
102
RTVSPropertyOp21
 70
     1
102
RTVSPropertyOp22
 70
     1
102
RTVSPropertyOp23
 70
     1
102
RTVSPropertyOp24
 70
     1
102
RTVSPropertyOp25
 70
     1
102
RTVSPropertyOp26
 70
     1
102
RTVSPropertyOp27
 70
     1
102
RTVSPropertyOp28
 70
     1
102
RTVSPropertyOp29
 70
     1
102
RTVSPropertyOp30
 70
     1
102
RTVSPropertyOp31
 70
     1
102
RTVSPropertyOp32
 70
     1
102
RTVSPropertyOp33
 70
     1
102
RTVSPropertyOp34
 70
     1
102
RTVSPropertyOp35
 70
     1
102
RTVSPropertyOp36
 70
     1
102
RTVSPropertyOp37
 70
     1
102
RTVSPropertyOp38
 70
     1
102
RTVSPropertyOp39
 70
     1
102
RTVSPropertyOp40
 70
     1
102
RTVSPropertyOp41
 70
     1
102
RTVSPropertyOp42
 70
     1
102
RTVSPropertyOp43
 70
     1
102
RTVSPropertyOp44
 70
     1
102
RTVSPropertyOp45
 70
     1
102
RTVSPropertyOp46
 70
     1
102
RTVSPropertyOp47
 70
     1
102
RTVSPropertyOp48
 70
     1
102
RTVSPropertyOp49
 70
     1
102
RTVSPropertyOp50
 70
     1
102
RTVSPropertyOp51
 70
     0
102
RTVSPropertyOp52
 70
     0
102
RTVSPropertyOp53
 70
     1
102
RTVSPropertyOp54
 70
     1
102
RTVSPropertyOp55
 70
     1
102
RTVSPropertyOp56
 70
     1
102
RTVSPropertyOp57
 70
     1
102
RTVSPropertyOp58
 70
     1
102
RTVSPropertyOp59
 70
     1
102
RTVSPropertyOp60
 70
     1
102
RTVSPropertyOp61
 70
     1
102
RTVSPropertyOp62
 70
     1
  0
XRECORD
  5
C59
102
{ACAD_REACTORS
330
C58
102
}
330
C58
100
AcDbXrecord
280
     1
102
RTVSPost2010Prop28
280
     0
102
RTVSPost2010PropOp28
 70
     1
102
RTVSPost2010Prop29
280
     1
102
RTVSPost2010PropOp29
 70
     1
102
RTVSPost2010Prop30
280
     1
102
RTVSPost2010PropOp30
 70
     1
102
RTVSPost2010Prop31
280
     0
102
RTVSPost2010PropOp31
 70
     1
102
RTVSPost2010Prop32
280
     0
102
RTVSPost2010PropOp32
 70
     1
102
RTVSPost2010Prop33
280
     0
102
RTVSPost2010PropOp33
 70
     1
102
RTVSPost2010Prop34
280
     0
102
RTVSPost2010PropOp34
 70
     1
102
RTVSPost2010Prop35
280
     0
102
RTVSPost2010PropOp35
 70
     1
102
RTVSPost2010Prop36
280
     0
102
RTVSPost2010PropOp36
 70
     1
102
RTVSPost2010Prop37
 90
       50
102
RTVSPost2010PropOp37
 70
     1
102
RTVSPost2010Prop38
140
0.0
102
RTVSPost2010PropOp38
 70
     1
102
RTVSPost2010Prop39
140
1.0
102
RTVSPost2010PropOp39
 70
     1
102
RTVSPost2010Prop40
 90
        0
102
RTVSPost2010PropOp40
 70
     1
102
RTVSPost2010Prop41ColorIndex
 90
       18
102
RTVSPost2010Prop41ColorRGB
 90
        0
102
RTVSPost2010PropOp41
 70
     1
102
RTVSPost2010Prop42
 90
       50
102
RTVSPost2010PropOp42
 70
     1
102
RTVSPost2010Prop43
 90
        3
102
RTVSPost2010PropOp43
 70
     1
102
RTVSPost2010Prop44ColorIndex
 90
        5
102
RTVSPost2010Prop44ColorRGB
 90
      255
102
RTVSPost2010PropOp44
 70
     1
102
RTVSPost2010Prop45
280
     0
102
RTVSPost2010PropOp45
 70
     1
102
RTVSPost2010Prop46
 90
       50
102
RTVSPost2010PropOp46
 70
     1
102
RTVSPost2010Prop47
 90
       50
102
RTVSPost2010PropOp47
 70
     1
102
RTVSPost2010Prop48
 90
       50
102
RTVSPost2010PropOp48
 70
     1
102
RTVSPost2010Prop49
280
     0
102
RTVSPost2010PropOp49
 70
     1
102
RTVSPost2010Prop50
 90
       50
102
RTVSPost2010PropOp50
 70
     1
102
RTVSPost2010Prop51ColorIndex
 90
      256
102
RTVSPost2010Prop51ColorRGB
 90
-16777216
102
RTVSPost2010PropOp51
 70
     0
102
RTVSPost2010Prop52
140
1.0
102
RTVSPost2010PropOp52
 70
     0
102
RTVSPost2010Prop53
 90
        2
102
RTVSPost2010PropOp53
 70
     1
102
RTVSPost2010Prop54
  1
strokes_ogs.tif
102
RTVSPost2010PropOp54
 70
     1
102
RTVSPost2010Prop55
280
     0
102
RTVSPost2010PropOp55
 70
     1
102
RTVSPost2010Prop56
140
1.0
102
RTVSPost2010PropOp56
 70
     1
102
RTVSPost2010Prop57
140
1.0
102
RTVSPost2010PropOp57
 70
     1
102
RTVSPropertyOp0
 70
     1
102
RTVSPropertyOp1
 70
     1
102
RTVSPropertyOp2
 70
     1
102
RTVSPropertyOp3
 70
     1
102
RTVSPropertyOp4
 70
     1
102
RTVSPropertyOp5
 70
     1
102
RTVSPropertyOp6
 70
     1
102
RTVSPropertyOp7
 70
     1
102
RTVSPropertyOp8
 70
     1
102
RTVSPropertyOp9
 70
     1
102
RTVSPropertyOp10
 70
     1
102
RTVSPropertyOp11
 70
     1
102
RTVSPropertyOp12
 70
     1
102
RTVSPropertyOp13
 70
     1
102
RTVSPropertyOp14
 70
     1
102
RTVSPropertyOp15
 70
     1
102
RTVSPropertyOp16
 70
     1
102
RTVSPropertyOp17
 70
     1
102
RTVSPropertyOp18
 70
     1
102
RTVSPropertyOp19
 70
     1
102
RTVSPropertyOp20
 70
     1
102
RTVSPropertyOp21
 70
     1
102
RTVSPropertyOp22
 70
     1
102
RTVSPropertyOp23
 70
     1
102
RTVSPropertyOp24
 70
     1
102
RTVSPropertyOp25
 70
     1
102
RTVSPropertyOp26
 70
     1
102
RTVSPropertyOp27
 70
     1
102
RTVSPropertyOp28
 70
     1
102
RTVSPropertyOp29
 70
     1
102
RTVSPropertyOp30
 70
     1
102
RTVSPropertyOp31
 70
     1
102
RTVSPropertyOp32
 70
     1
102
RTVSPropertyOp33
 70
     1
102
RTVSPropertyOp34
 70
     1
102
RTVSPropertyOp35
 70
     1
102
RTVSPropertyOp36
 70
     1
102
RTVSPropertyOp37
 70
     1
102
RTVSPropertyOp38
 70
     1
102
RTVSPropertyOp39
 70
     1
102
RTVSPropertyOp40
 70
     1
102
RTVSPropertyOp41
 70
     1
102
RTVSPropertyOp42
 70
     1
102
RTVSPropertyOp43
 70
     1
102
RTVSPropertyOp44
 70
     1
102
RTVSPropertyOp45
 70
     1
102
RTVSPropertyOp46
 70
     1
102
RTVSPropertyOp47
 70
     1
102
RTVSPropertyOp48
 70
     1
102
RTVSPropertyOp49
 70
     1
102
RTVSPropertyOp50
 70
     1
102
RTVSPropertyOp51
 70
     0
102
RTVSPropertyOp52
 70
     0
102
RTVSPropertyOp53
 70
     1
102
RTVSPropertyOp54
 70
     1
102
RTVSPropertyOp55
 70
     1
102
RTVSPropertyOp56
 70
     1
102
RTVSPropertyOp57
 70
     1
102
RTVSPropertyOp58
 70
     1
102
RTVSPropertyOp59
 70
     1
102
RTVSPropertyOp60
 70
     1
102
RTVSPropertyOp61
 70
     1
102
RTVSPropertyOp62
 70
     1
  0
XRECORD
  5
C5B
102
{ACAD_REACTORS
330
C5A
102
}
330
C5A
100
AcDbXrecord
280
     1
102
RTVSPost2010Prop28
280
     0
102
RTVSPost2010PropOp28
 70
     1
102
RTVSPost2010Prop29
280
     1
102
RTVSPost2010PropOp29
 70
     1
102
RTVSPost2010Prop30
280
     1
102
RTVSPost2010PropOp30
 70
     1
102
RTVSPost2010Prop31
280
     0
102
RTVSPost2010PropOp31
 70
     1
102
RTVSPost2010Prop32
280
     0
102
RTVSPost2010PropOp32
 70
     1
102
RTVSPost2010Prop33
280
     0
102
RTVSPost2010PropOp33
 70
     1
102
RTVSPost2010Prop34
280
     0
102
RTVSPost2010PropOp34
 70
     1
102
RTVSPost2010Prop35
280
     0
102
RTVSPost2010PropOp35
 70
     1
102
RTVSPost2010Prop36
280
     0
102
RTVSPost2010PropOp36
 70
     1
102
RTVSPost2010Prop37
 90
       50
102
RTVSPost2010PropOp37
 70
     1
102
RTVSPost2010Prop38
140
0.0
102
RTVSPost2010PropOp38
 70
     1
102
RTVSPost2010Prop39
140
1.0
102
RTVSPost2010PropOp39
 70
     1
102
RTVSPost2010Prop40
 90
        0
102
RTVSPost2010PropOp40
 70
     1
102
RTVSPost2010Prop41ColorIndex
 90
       18
102
RTVSPost2010Prop41ColorRGB
 90
        0
102
RTVSPost2010PropOp41
 70
     1
102
RTVSPost2010Prop42
 90
       50
102
RTVSPost2010PropOp42
 70
     1
102
RTVSPost2010Prop43
 90
        3
102
RTVSPost2010PropOp43
 70
     1
102
RTVSPost2010Prop44ColorIndex
 90
        5
102
RTVSPost2010Prop44ColorRGB
 90
      255
102
RTVSPost2010PropOp44
 70
     1
102
RTVSPost2010Prop45
280
     0
102
RTVSPost2010PropOp45
 70
     1
102
RTVSPost2010Prop46
 90
       50
102
RTVSPost2010PropOp46
 70
     1
102
RTVSPost2010Prop47
 90
       50
102
RTVSPost2010PropOp47
 70
     1
102
RTVSPost2010Prop48
 90
       50
102
RTVSPost2010PropOp48
 70
     1
102
RTVSPost2010Prop49
280
     0
102
RTVSPost2010PropOp49
 70
     1
102
RTVSPost2010Prop50
 90
       50
102
RTVSPost2010PropOp50
 70
     1
102
RTVSPost2010Prop51ColorIndex
 90
      256
102
RTVSPost2010Prop51ColorRGB
 90
-16777216
102
RTVSPost2010PropOp51
 70
     0
102
RTVSPost2010Prop52
140
1.0
102
RTVSPost2010PropOp52
 70
     0
102
RTVSPost2010Prop53
 90
        2
102
RTVSPost2010PropOp53
 70
     1
102
RTVSPost2010Prop54
  1
strokes_ogs.tif
102
RTVSPost2010PropOp54
 70
     1
102
RTVSPost2010Prop55
280
     0
102
RTVSPost2010PropOp55
 70
     1
102
RTVSPost2010Prop56
140
1.0
102
RTVSPost2010PropOp56
 70
     1
102
RTVSPost2010Prop57
140
1.0
102
RTVSPost2010PropOp57
 70
     1
102
RTVSPropertyOp0
 70
     1
102
RTVSPropertyOp1
 70
     1
102
RTVSPropertyOp2
 70
     1
102
RTVSPropertyOp3
 70
     1
102
RTVSPropertyOp4
 70
     1
102
RTVSPropertyOp5
 70
     1
102
RTVSPropertyOp6
 70
     1
102
RTVSPropertyOp7
 70
     1
102
RTVSPropertyOp8
 70
     1
102
RTVSPropertyOp9
 70
     1
102
RTVSPropertyOp10
 70
     1
102
RTVSPropertyOp11
 70
     1
102
RTVSPropertyOp12
 70
     1
102
RTVSPropertyOp13
 70
     1
102
RTVSPropertyOp14
 70
     1
102
RTVSPropertyOp15
 70
     1
102
RTVSPropertyOp16
 70
     1
102
RTVSPropertyOp17
 70
     1
102
RTVSPropertyOp18
 70
     1
102
RTVSPropertyOp19
 70
     1
102
RTVSPropertyOp20
 70
     1
102
RTVSPropertyOp21
 70
     1
102
RTVSPropertyOp22
 70
     1
102
RTVSPropertyOp23
 70
     1
102
RTVSPropertyOp24
 70
     1
102
RTVSPropertyOp25
 70
     1
102
RTVSPropertyOp26
 70
     1
102
RTVSPropertyOp27
 70
     1
102
RTVSPropertyOp28
 70
     1
102
RTVSPropertyOp29
 70
     1
102
RTVSPropertyOp30
 70
     1
102
RTVSPropertyOp31
 70
     1
102
RTVSPropertyOp32
 70
     1
102
RTVSPropertyOp33
 70
     1
102
RTVSPropertyOp34
 70
     1
102
RTVSPropertyOp35
 70
     1
102
RTVSPropertyOp36
 70
     1
102
RTVSPropertyOp37
 70
     1
102
RTVSPropertyOp38
 70
     1
102
RTVSPropertyOp39
 70
     1
102
RTVSPropertyOp40
 70
     1
102
RTVSPropertyOp41
 70
     1
102
RTVSPropertyOp42
 70
     1
102
RTVSPropertyOp43
 70
     1
102
RTVSPropertyOp44
 70
     1
102
RTVSPropertyOp45
 70
     1
102
RTVSPropertyOp46
 70
     1
102
RTVSPropertyOp47
 70
     1
102
RTVSPropertyOp48
 70
     1
102
RTVSPropertyOp49
 70
     1
102
RTVSPropertyOp50
 70
     1
102
RTVSPropertyOp51
 70
     0
102
RTVSPropertyOp52
 70
     0
102
RTVSPropertyOp53
 70
     1
102
RTVSPropertyOp54
 70
     1
102
RTVSPropertyOp55
 70
     1
102
RTVSPropertyOp56
 70
     1
102
RTVSPropertyOp57
 70
     1
102
RTVSPropertyOp58
 70
     1
102
RTVSPropertyOp59
 70
     1
102
RTVSPropertyOp60
 70
     1
102
RTVSPropertyOp61
 70
     1
102
RTVSPropertyOp62
 70
     1
  0
XRECORD
  5
C63
102
{ACAD_REACTORS
330
C62
102
}
330
C62
100
AcDbXrecord
280
     1
102
RTVSPost2010Prop28
280
     0
102
RTVSPost2010PropOp28
 70
     1
102
RTVSPost2010Prop29
280
     1
102
RTVSPost2010PropOp29
 70
     1
102
RTVSPost2010Prop30
280
     1
102
RTVSPost2010PropOp30
 70
     1
102
RTVSPost2010Prop31
280
     0
102
RTVSPost2010PropOp31
 70
     1
102
RTVSPost2010Prop32
280
     0
102
RTVSPost2010PropOp32
 70
     1
102
RTVSPost2010Prop33
280
     0
102
RTVSPost2010PropOp33
 70
     1
102
RTVSPost2010Prop34
280
     0
102
RTVSPost2010PropOp34
 70
     1
102
RTVSPost2010Prop35
280
     0
102
RTVSPost2010PropOp35
 70
     1
102
RTVSPost2010Prop36
280
     0
102
RTVSPost2010PropOp36
 70
     1
102
RTVSPost2010Prop37
 90
       50
102
RTVSPost2010PropOp37
 70
     1
102
RTVSPost2010Prop38
140
0.0
102
RTVSPost2010PropOp38
 70
     1
102
RTVSPost2010Prop39
140
1.0
102
RTVSPost2010PropOp39
 70
     1
102
RTVSPost2010Prop40
 90
        0
102
RTVSPost2010PropOp40
 70
     1
102
RTVSPost2010Prop41ColorIndex
 90
       18
102
RTVSPost2010Prop41ColorRGB
 90
        0
102
RTVSPost2010PropOp41
 70
     1
102
RTVSPost2010Prop42
 90
       50
102
RTVSPost2010PropOp42
 70
     1
102
RTVSPost2010Prop43
 90
        3
102
RTVSPost2010PropOp43
 70
     1
102
RTVSPost2010Prop44ColorIndex
 90
        5
102
RTVSPost2010Prop44ColorRGB
 90
      255
102
RTVSPost2010PropOp44
 70
     1
102
RTVSPost2010Prop45
280
     0
102
RTVSPost2010PropOp45
 70
     1
102
RTVSPost2010Prop46
 90
       50
102
RTVSPost2010PropOp46
 70
     1
102
RTVSPost2010Prop47
 90
       50
102
RTVSPost2010PropOp47
 70
     1
102
RTVSPost2010Prop48
 90
       50
102
RTVSPost2010PropOp48
 70
     1
102
RTVSPost2010Prop49
280
     0
102
RTVSPost2010PropOp49
 70
     1
102
RTVSPost2010Prop50
 90
       50
102
RTVSPost2010PropOp50
 70
     1
102
RTVSPost2010Prop51ColorIndex
 90
      256
102
RTVSPost2010Prop51ColorRGB
 90
-16777216
102
RTVSPost2010PropOp51
 70
     0
102
RTVSPost2010Prop52
140
1.0
102
RTVSPost2010PropOp52
 70
     0
102
RTVSPost2010Prop53
 90
        2
102
RTVSPost2010PropOp53
 70
     1
102
RTVSPost2010Prop54
  1
strokes_ogs.tif
102
RTVSPost2010PropOp54
 70
     1
102
RTVSPost2010Prop55
280
     0
102
RTVSPost2010PropOp55
 70
     1
102
RTVSPost2010Prop56
140
1.0
102
RTVSPost2010PropOp56
 70
     1
102
RTVSPost2010Prop57
140
1.0
102
RTVSPost2010PropOp57
 70
     1
102
RTVSPropertyOp0
 70
     1
102
RTVSPropertyOp1
 70
     1
102
RTVSPropertyOp2
 70
     1
102
RTVSPropertyOp3
 70
     1
102
RTVSPropertyOp4
 70
     1
102
RTVSPropertyOp5
 70
     1
102
RTVSPropertyOp6
 70
     1
102
RTVSPropertyOp7
 70
     1
102
RTVSPropertyOp8
 70
     1
102
RTVSPropertyOp9
 70
     1
102
RTVSPropertyOp10
 70
     1
102
RTVSPropertyOp11
 70
     1
102
RTVSPropertyOp12
 70
     1
102
RTVSPropertyOp13
 70
     1
102
RTVSPropertyOp14
 70
     1
102
RTVSPropertyOp15
 70
     1
102
RTVSPropertyOp16
 70
     1
102
RTVSPropertyOp17
 70
     1
102
RTVSPropertyOp18
 70
     1
102
RTVSPropertyOp19
 70
     1
102
RTVSPropertyOp20
 70
     1
102
RTVSPropertyOp21
 70
     1
102
RTVSPropertyOp22
 70
     1
102
RTVSPropertyOp23
 70
     1
102
RTVSPropertyOp24
 70
     1
102
RTVSPropertyOp25
 70
     1
102
RTVSPropertyOp26
 70
     1
102
RTVSPropertyOp27
 70
     1
102
RTVSPropertyOp28
 70
     1
102
RTVSPropertyOp29
 70
     1
102
RTVSPropertyOp30
 70
     1
102
RTVSPropertyOp31
 70
     1
102
RTVSPropertyOp32
 70
     1
102
RTVSPropertyOp33
 70
     1
102
RTVSPropertyOp34
 70
     1
102
RTVSPropertyOp35
 70
     1
102
RTVSPropertyOp36
 70
     1
102
RTVSPropertyOp37
 70
     1
102
RTVSPropertyOp38
 70
     1
102
RTVSPropertyOp39
 70
     1
102
RTVSPropertyOp40
 70
     1
102
RTVSPropertyOp41
 70
     1
102
RTVSPropertyOp42
 70
     1
102
RTVSPropertyOp43
 70
     1
102
RTVSPropertyOp44
 70
     1
102
RTVSPropertyOp45
 70
     1
102
RTVSPropertyOp46
 70
     1
102
RTVSPropertyOp47
 70
     1
102
RTVSPropertyOp48
 70
     1
102
RTVSPropertyOp49
 70
     1
102
RTVSPropertyOp50
 70
     1
102
RTVSPropertyOp51
 70
     0
102
RTVSPropertyOp52
 70
     0
102
RTVSPropertyOp53
 70
     1
102
RTVSPropertyOp54
 70
     1
102
RTVSPropertyOp55
 70
     1
102
RTVSPropertyOp56
 70
     1
102
RTVSPropertyOp57
 70
     1
102
RTVSPropertyOp58
 70
     1
102
RTVSPropertyOp59
 70
     1
102
RTVSPropertyOp60
 70
     1
102
RTVSPropertyOp61
 70
     1
102
RTVSPropertyOp62
 70
     1
  0
XRECORD
  5
C77
102
{ACAD_REACTORS
330
C76
102
}
330
C76
100
AcDbXrecord
280
     1
102
RTVSPost2010Prop28
280
     0
102
RTVSPost2010PropOp28
 70
     1
102
RTVSPost2010Prop29
280
     1
102
RTVSPost2010PropOp29
 70
     1
102
RTVSPost2010Prop30
280
     1
102
RTVSPost2010PropOp30
 70
     1
102
RTVSPost2010Prop31
280
     0
102
RTVSPost2010PropOp31
 70
     1
102
RTVSPost2010Prop32
280
     0
102
RTVSPost2010PropOp32
 70
     1
102
RTVSPost2010Prop33
280
     0
102
RTVSPost2010PropOp33
 70
     1
102
RTVSPost2010Prop34
280
     0
102
RTVSPost2010PropOp34
 70
     1
102
RTVSPost2010Prop35
280
     0
102
RTVSPost2010PropOp35
 70
     1
102
RTVSPost2010Prop36
280
     0
102
RTVSPost2010PropOp36
 70
     1
102
RTVSPost2010Prop37
 90
       50
102
RTVSPost2010PropOp37
 70
     1
102
RTVSPost2010Prop38
140
0.0
102
RTVSPost2010PropOp38
 70
     1
102
RTVSPost2010Prop39
140
1.0
102
RTVSPost2010PropOp39
 70
     1
102
RTVSPost2010Prop40
 90
        0
102
RTVSPost2010PropOp40
 70
     1
102
RTVSPost2010Prop41ColorIndex
 90
       18
102
RTVSPost2010Prop41ColorRGB
 90
        0
102
RTVSPost2010PropOp41
 70
     1
102
RTVSPost2010Prop42
 90
       50
102
RTVSPost2010PropOp42
 70
     1
102
RTVSPost2010Prop43
 90
        3
102
RTVSPost2010PropOp43
 70
     1
102
RTVSPost2010Prop44ColorIndex
 90
        5
102
RTVSPost2010Prop44ColorRGB
 90
      255
102
RTVSPost2010PropOp44
 70
     1
102
RTVSPost2010Prop45
280
     0
102
RTVSPost2010PropOp45
 70
     1
102
RTVSPost2010Prop46
 90
       50
102
RTVSPost2010PropOp46
 70
     1
102
RTVSPost2010Prop47
 90
       50
102
RTVSPost2010PropOp47
 70
     1
102
RTVSPost2010Prop48
 90
       50
102
RTVSPost2010PropOp48
 70
     1
102
RTVSPost2010Prop49
280
     0
102
RTVSPost2010PropOp49
 70
     1
102
RTVSPost2010Prop50
 90
       50
102
RTVSPost2010PropOp50
 70
     1
102
RTVSPost2010Prop51ColorIndex
 90
      256
102
RTVSPost2010Prop51ColorRGB
 90
-16777216
102
RTVSPost2010PropOp51
 70
     0
102
RTVSPost2010Prop52
140
1.0
102
RTVSPost2010PropOp52
 70
     0
102
RTVSPost2010Prop53
 90
        2
102
RTVSPost2010PropOp53
 70
     1
102
RTVSPost2010Prop54
  1
strokes_ogs.tif
102
RTVSPost2010PropOp54
 70
     1
102
RTVSPost2010Prop55
280
     0
102
RTVSPost2010PropOp55
 70
     1
102
RTVSPost2010Prop56
140
1.0
102
RTVSPost2010PropOp56
 70
     1
102
RTVSPost2010Prop57
140
1.0
102
RTVSPost2010PropOp57
 70
     1
102
RTVSPropertyOp0
 70
     0
102
RTVSPropertyOp1
 70
     0
102
RTVSPropertyOp2
 70
     0
102
RTVSPropertyOp3
 70
     0
102
RTVSPropertyOp4
 70
     0
102
RTVSPropertyOp5
 70
     0
102
RTVSPropertyOp6
 70
     0
102
RTVSPropertyOp7
 70
     0
102
RTVSPropertyOp8
 70
     0
102
RTVSPropertyOp9
 70
     0
102
RTVSPropertyOp10
 70
     0
102
RTVSPropertyOp11
 70
     0
102
RTVSPropertyOp12
 70
     0
102
RTVSPropertyOp13
 70
     0
102
RTVSPropertyOp14
 70
     2
102
RTVSPropertyOp15
 70
     0
102
RTVSPropertyOp16
 70
     0
102
RTVSPropertyOp17
 70
     0
102
RTVSPropertyOp18
 70
     0
102
RTVSPropertyOp19
 70
     0
102
RTVSPropertyOp20
 70
     0
102
RTVSPropertyOp21
 70
     0
102
RTVSPropertyOp22
 70
     0
102
RTVSPropertyOp23
 70
     0
102
RTVSPropertyOp24
 70
     0
102
RTVSPropertyOp25
 70
     0
102
RTVSPropertyOp26
 70
     0
102
RTVSPropertyOp27
 70
     0
102
RTVSPropertyOp28
 70
     1
102
RTVSPropertyOp29
 70
     1
102
RTVSPropertyOp30
 70
     1
102
RTVSPropertyOp31
 70
     1
102
RTVSPropertyOp32
 70
     1
102
RTVSPropertyOp33
 70
     1
102
RTVSPropertyOp34
 70
     1
102
RTVSPropertyOp35
 70
     1
102
RTVSPropertyOp36
 70
     1
102
RTVSPropertyOp37
 70
     1
102
RTVSPropertyOp38
 70
     1
102
RTVSPropertyOp39
 70
     1
102
RTVSPropertyOp40
 70
     1
102
RTVSPropertyOp41
 70
     1
102
RTVSPropertyOp42
 70
     1
102
RTVSPropertyOp43
 70
     1
102
RTVSPropertyOp44
 70
     1
102
RTVSPropertyOp45
 70
     1
102
RTVSPropertyOp46
 70
     1
102
RTVSPropertyOp47
 70
     1
102
RTVSPropertyOp48
 70
     1
102
RTVSPropertyOp49
 70
     1
102
RTVSPropertyOp50
 70
     1
102
RTVSPropertyOp51
 70
     0
102
RTVSPropertyOp52
 70
     0
102
RTVSPropertyOp53
 70
     1
102
RTVSPropertyOp54
 70
     1
102
RTVSPropertyOp55
 70
     1
102
RTVSPropertyOp56
 70
     1
102
RTVSPropertyOp57
 70
     1
102
RTVSPropertyOp58
 70
     1
102
RTVSPropertyOp59
 70
     1
102
RTVSPropertyOp60
 70
     1
102
RTVSPropertyOp61
 70
     1
102
RTVSPropertyOp62
 70
     1
  0
XRECORD
  5
C6F
102
{ACAD_REACTORS
330
C6E
102
}
330
C6E
100
AcDbXrecord
280
     1
102
RTVSPost2010Prop28
280
     0
102
RTVSPost2010PropOp28
 70
     1
102
RTVSPost2010Prop29
280
     1
102
RTVSPost2010PropOp29
 70
     1
102
RTVSPost2010Prop30
280
     1
102
RTVSPost2010PropOp30
 70
     1
102
RTVSPost2010Prop31
280
     0
102
RTVSPost2010PropOp31
 70
     1
102
RTVSPost2010Prop32
280
     0
102
RTVSPost2010PropOp32
 70
     1
102
RTVSPost2010Prop33
280
     0
102
RTVSPost2010PropOp33
 70
     1
102
RTVSPost2010Prop34
280
     0
102
RTVSPost2010PropOp34
 70
     1
102
RTVSPost2010Prop35
280
     0
102
RTVSPost2010PropOp35
 70
     1
102
RTVSPost2010Prop36
280
     0
102
RTVSPost2010PropOp36
 70
     1
102
RTVSPost2010Prop37
 90
       50
102
RTVSPost2010PropOp37
 70
     1
102
RTVSPost2010Prop38
140
0.0
102
RTVSPost2010PropOp38
 70
     1
102
RTVSPost2010Prop39
140
1.0
102
RTVSPost2010PropOp39
 70
     1
102
RTVSPost2010Prop40
 90
        0
102
RTVSPost2010PropOp40
 70
     1
102
RTVSPost2010Prop41ColorIndex
 90
       18
102
RTVSPost2010Prop41ColorRGB
 90
        0
102
RTVSPost2010PropOp41
 70
     1
102
RTVSPost2010Prop42
 90
       50
102
RTVSPost2010PropOp42
 70
     1
102
RTVSPost2010Prop43
 90
        3
102
RTVSPost2010PropOp43
 70
     1
102
RTVSPost2010Prop44ColorIndex
 90
        5
102
RTVSPost2010Prop44ColorRGB
 90
      255
102
RTVSPost2010PropOp44
 70
     1
102
RTVSPost2010Prop45
280
     0
102
RTVSPost2010PropOp45
 70
     1
102
RTVSPost2010Prop46
 90
       50
102
RTVSPost2010PropOp46
 70
     1
102
RTVSPost2010Prop47
 90
       50
102
RTVSPost2010PropOp47
 70
     1
102
RTVSPost2010Prop48
 90
       50
102
RTVSPost2010PropOp48
 70
     1
102
RTVSPost2010Prop49
280
     0
102
RTVSPost2010PropOp49
 70
     1
102
RTVSPost2010Prop50
 90
       50
102
RTVSPost2010PropOp50
 70
     1
102
RTVSPost2010Prop51ColorIndex
 90
      256
102
RTVSPost2010Prop51ColorRGB
 90
-16777216
102
RTVSPost2010PropOp51
 70
     0
102
RTVSPost2010Prop52
140
1.0
102
RTVSPost2010PropOp52
 70
     0
102
RTVSPost2010Prop53
 90
        2
102
RTVSPost2010PropOp53
 70
     1
102
RTVSPost2010Prop54
  1
strokes_ogs.tif
102
RTVSPost2010PropOp54
 70
     1
102
RTVSPost2010Prop55
280
     0
102
RTVSPost2010PropOp55
 70
     1
102
RTVSPost2010Prop56
140
1.0
102
RTVSPost2010PropOp56
 70
     1
102
RTVSPost2010Prop57
140
1.0
102
RTVSPost2010PropOp57
 70
     1
102
RTVSPropertyOp0
 70
     1
102
RTVSPropertyOp1
 70
     1
102
RTVSPropertyOp2
 70
     1
102
RTVSPropertyOp3
 70
     1
102
RTVSPropertyOp4
 70
     1
102
RTVSPropertyOp5
 70
     1
102
RTVSPropertyOp6
 70
     1
102
RTVSPropertyOp7
 70
     1
102
RTVSPropertyOp8
 70
     1
102
RTVSPropertyOp9
 70
     1
102
RTVSPropertyOp10
 70
     1
102
RTVSPropertyOp11
 70
     1
102
RTVSPropertyOp12
 70
     1
102
RTVSPropertyOp13
 70
     1
102
RTVSPropertyOp14
 70
     1
102
RTVSPropertyOp15
 70
     1
102
RTVSPropertyOp16
 70
     1
102
RTVSPropertyOp17
 70
     1
102
RTVSPropertyOp18
 70
     1
102
RTVSPropertyOp19
 70
     1
102
RTVSPropertyOp20
 70
     1
102
RTVSPropertyOp21
 70
     1
102
RTVSPropertyOp22
 70
     1
102
RTVSPropertyOp23
 70
     1
102
RTVSPropertyOp24
 70
     1
102
RTVSPropertyOp25
 70
     1
102
RTVSPropertyOp26
 70
     1
102
RTVSPropertyOp27
 70
     1
102
RTVSPropertyOp28
 70
     1
102
RTVSPropertyOp29
 70
     1
102
RTVSPropertyOp30
 70
     1
102
RTVSPropertyOp31
 70
     1
102
RTVSPropertyOp32
 70
     1
102
RTVSPropertyOp33
 70
     1
102
RTVSPropertyOp34
 70
     1
102
RTVSPropertyOp35
 70
     1
102
RTVSPropertyOp36
 70
     1
102
RTVSPropertyOp37
 70
     1
102
RTVSPropertyOp38
 70
     1
102
RTVSPropertyOp39
 70
     1
102
RTVSPropertyOp40
 70
     1
102
RTVSPropertyOp41
 70
     1
102
RTVSPropertyOp42
 70
     1
102
RTVSPropertyOp43
 70
     1
102
RTVSPropertyOp44
 70
     1
102
RTVSPropertyOp45
 70
     1
102
RTVSPropertyOp46
 70
     1
102
RTVSPropertyOp47
 70
     1
102
RTVSPropertyOp48
 70
     1
102
RTVSPropertyOp49
 70
     1
102
RTVSPropertyOp50
 70
     1
102
RTVSPropertyOp51
 70
     0
102
RTVSPropertyOp52
 70
     0
102
RTVSPropertyOp53
 70
     1
102
RTVSPropertyOp54
 70
     1
102
RTVSPropertyOp55
 70
     1
102
RTVSPropertyOp56
 70
     1
102
RTVSPropertyOp57
 70
     1
102
RTVSPropertyOp58
 70
     1
102
RTVSPropertyOp59
 70
     1
102
RTVSPropertyOp60
 70
     1
102
RTVSPropertyOp61
 70
     1
102
RTVSPropertyOp62
 70
     1
  0
XRECORD
  5
C79
102
{ACAD_REACTORS
330
C78
102
}
330
C78
100
AcDbXrecord
280
     1
102
RTVSPost2010Prop28
280
     0
102
RTVSPost2010PropOp28
 70
     1
102
RTVSPost2010Prop29
280
     1
102
RTVSPost2010PropOp29
 70
     1
102
RTVSPost2010Prop30
280
     1
102
RTVSPost2010PropOp30
 70
     1
102
RTVSPost2010Prop31
280
     0
102
RTVSPost2010PropOp31
 70
     1
102
RTVSPost2010Prop32
280
     0
102
RTVSPost2010PropOp32
 70
     1
102
RTVSPost2010Prop33
280
     0
102
RTVSPost2010PropOp33
 70
     1
102
RTVSPost2010Prop34
280
     0
102
RTVSPost2010PropOp34
 70
     1
102
RTVSPost2010Prop35
280
     0
102
RTVSPost2010PropOp35
 70
     1
102
RTVSPost2010Prop36
280
     0
102
RTVSPost2010PropOp36
 70
     1
102
RTVSPost2010Prop37
 90
       50
102
RTVSPost2010PropOp37
 70
     1
102
RTVSPost2010Prop38
140
0.0
102
RTVSPost2010PropOp38
 70
     1
102
RTVSPost2010Prop39
140
1.0
102
RTVSPost2010PropOp39
 70
     1
102
RTVSPost2010Prop40
 90
        0
102
RTVSPost2010PropOp40
 70
     1
102
RTVSPost2010Prop41ColorIndex
 90
       18
102
RTVSPost2010Prop41ColorRGB
 90
        0
102
RTVSPost2010PropOp41
 70
     1
102
RTVSPost2010Prop42
 90
       50
102
RTVSPost2010PropOp42
 70
     1
102
RTVSPost2010Prop43
 90
        3
102
RTVSPost2010PropOp43
 70
     1
102
RTVSPost2010Prop44ColorIndex
 90
        5
102
RTVSPost2010Prop44ColorRGB
 90
      255
102
RTVSPost2010PropOp44
 70
     1
102
RTVSPost2010Prop45
280
     0
102
RTVSPost2010PropOp45
 70
     1
102
RTVSPost2010Prop46
 90
       50
102
RTVSPost2010PropOp46
 70
     1
102
RTVSPost2010Prop47
 90
       50
102
RTVSPost2010PropOp47
 70
     1
102
RTVSPost2010Prop48
 90
       50
102
RTVSPost2010PropOp48
 70
     1
102
RTVSPost2010Prop49
280
     0
102
RTVSPost2010PropOp49
 70
     1
102
RTVSPost2010Prop50
 90
       50
102
RTVSPost2010PropOp50
 70
     1
102
RTVSPost2010Prop51ColorIndex
 90
      256
102
RTVSPost2010Prop51ColorRGB
 90
-16777216
102
RTVSPost2010PropOp51
 70
     0
102
RTVSPost2010Prop52
140
1.0
102
RTVSPost2010PropOp52
 70
     0
102
RTVSPost2010Prop53
 90
        2
102
RTVSPost2010PropOp53
 70
     1
102
RTVSPost2010Prop54
  1
strokes_ogs.tif
102
RTVSPost2010PropOp54
 70
     1
102
RTVSPost2010Prop55
280
     0
102
RTVSPost2010PropOp55
 70
     1
102
RTVSPost2010Prop56
140
1.0
102
RTVSPost2010PropOp56
 70
     1
102
RTVSPost2010Prop57
140
1.0
102
RTVSPost2010PropOp57
 70
     1
102
RTVSPropertyOp0
 70
     0
102
RTVSPropertyOp1
 70
     0
102
RTVSPropertyOp2
 70
     0
102
RTVSPropertyOp3
 70
     0
102
RTVSPropertyOp4
 70
     0
102
RTVSPropertyOp5
 70
     0
102
RTVSPropertyOp6
 70
     0
102
RTVSPropertyOp7
 70
     0
102
RTVSPropertyOp8
 70
     0
102
RTVSPropertyOp9
 70
     0
102
RTVSPropertyOp10
 70
     0
102
RTVSPropertyOp11
 70
     0
102
RTVSPropertyOp12
 70
     0
102
RTVSPropertyOp13
 70
     0
102
RTVSPropertyOp14
 70
     2
102
RTVSPropertyOp15
 70
     0
102
RTVSPropertyOp16
 70
     0
102
RTVSPropertyOp17
 70
     0
102
RTVSPropertyOp18
 70
     0
102
RTVSPropertyOp19
 70
     0
102
RTVSPropertyOp20
 70
     0
102
RTVSPropertyOp21
 70
     0
102
RTVSPropertyOp22
 70
     0
102
RTVSPropertyOp23
 70
     0
102
RTVSPropertyOp24
 70
     0
102
RTVSPropertyOp25
 70
     0
102
RTVSPropertyOp26
 70
     0
102
RTVSPropertyOp27
 70
     0
102
RTVSPropertyOp28
 70
     1
102
RTVSPropertyOp29
 70
     1
102
RTVSPropertyOp30
 70
     1
102
RTVSPropertyOp31
 70
     1
102
RTVSPropertyOp32
 70
     1
102
RTVSPropertyOp33
 70
     1
102
RTVSPropertyOp34
 70
     1
102
RTVSPropertyOp35
 70
     1
102
RTVSPropertyOp36
 70
     1
102
RTVSPropertyOp37
 70
     1
102
RTVSPropertyOp38
 70
     1
102
RTVSPropertyOp39
 70
     1
102
RTVSPropertyOp40
 70
     1
102
RTVSPropertyOp41
 70
     1
102
RTVSPropertyOp42
 70
     1
102
RTVSPropertyOp43
 70
     1
102
RTVSPropertyOp44
 70
     1
102
RTVSPropertyOp45
 70
     1
102
RTVSPropertyOp46
 70
     1
102
RTVSPropertyOp47
 70
     1
102
RTVSPropertyOp48
 70
     1
102
RTVSPropertyOp49
 70
     1
102
RTVSPropertyOp50
 70
     1
102
RTVSPropertyOp51
 70
     0
102
RTVSPropertyOp52
 70
     0
102
RTVSPropertyOp53
 70
     1
102
RTVSPropertyOp54
 70
     1
102
RTVSPropertyOp55
 70
     1
102
RTVSPropertyOp56
 70
     1
102
RTVSPropertyOp57
 70
     1
102
RTVSPropertyOp58
 70
     1
102
RTVSPropertyOp59
 70
     1
102
RTVSPropertyOp60
 70
     1
102
RTVSPropertyOp61
 70
     1
102
RTVSPropertyOp62
 70
     1
  0
XRECORD
  5
C67
102
{ACAD_REACTORS
330
C66
102
}
330
C66
100
AcDbXrecord
280
     1
102
RTVSPost2010Prop28
280
     0
102
RTVSPost2010PropOp28
 70
     1
102
RTVSPost2010Prop29
280
     1
102
RTVSPost2010PropOp29
 70
     1
102
RTVSPost2010Prop30
280
     1
102
RTVSPost2010PropOp30
 70
     1
102
RTVSPost2010Prop31
280
     0
102
RTVSPost2010PropOp31
 70
     1
102
RTVSPost2010Prop32
280
     0
102
RTVSPost2010PropOp32
 70
     1
102
RTVSPost2010Prop33
280
     0
102
RTVSPost2010PropOp33
 70
     1
102
RTVSPost2010Prop34
280
     0
102
RTVSPost2010PropOp34
 70
     1
102
RTVSPost2010Prop35
280
     0
102
RTVSPost2010PropOp35
 70
     1
102
RTVSPost2010Prop36
280
     0
102
RTVSPost2010PropOp36
 70
     1
102
RTVSPost2010Prop37
 90
       50
102
RTVSPost2010PropOp37
 70
     1
102
RTVSPost2010Prop38
140
0.0
102
RTVSPost2010PropOp38
 70
     1
102
RTVSPost2010Prop39
140
1.0
102
RTVSPost2010PropOp39
 70
     1
102
RTVSPost2010Prop40
 90
        0
102
RTVSPost2010PropOp40
 70
     1
102
RTVSPost2010Prop41ColorIndex
 90
       18
102
RTVSPost2010Prop41ColorRGB
 90
        0
102
RTVSPost2010PropOp41
 70
     1
102
RTVSPost2010Prop42
 90
       50
102
RTVSPost2010PropOp42
 70
     1
102
RTVSPost2010Prop43
 90
        3
102
RTVSPost2010PropOp43
 70
     1
102
RTVSPost2010Prop44ColorIndex
 90
        5
102
RTVSPost2010Prop44ColorRGB
 90
      255
102
RTVSPost2010PropOp44
 70
     1
102
RTVSPost2010Prop45
280
     0
102
RTVSPost2010PropOp45
 70
     1
102
RTVSPost2010Prop46
 90
       50
102
RTVSPost2010PropOp46
 70
     1
102
RTVSPost2010Prop47
 90
       50
102
RTVSPost2010PropOp47
 70
     1
102
RTVSPost2010Prop48
 90
       50
102
RTVSPost2010PropOp48
 70
     1
102
RTVSPost2010Prop49
280
     0
102
RTVSPost2010PropOp49
 70
     1
102
RTVSPost2010Prop50
 90
       50
102
RTVSPost2010PropOp50
 70
     1
102
RTVSPost2010Prop51ColorIndex
 90
      256
102
RTVSPost2010Prop51ColorRGB
 90
-16777216
102
RTVSPost2010PropOp51
 70
     0
102
RTVSPost2010Prop52
140
1.0
102
RTVSPost2010PropOp52
 70
     0
102
RTVSPost2010Prop53
 90
        2
102
RTVSPost2010PropOp53
 70
     1
102
RTVSPost2010Prop54
  1
strokes_ogs.tif
102
RTVSPost2010PropOp54
 70
     1
102
RTVSPost2010Prop55
280
     0
102
RTVSPost2010PropOp55
 70
     1
102
RTVSPost2010Prop56
140
1.0
102
RTVSPost2010PropOp56
 70
     1
102
RTVSPost2010Prop57
140
1.0
102
RTVSPost2010PropOp57
 70
     1
102
RTVSPropertyOp0
 70
     1
102
RTVSPropertyOp1
 70
     1
102
RTVSPropertyOp2
 70
     1
102
RTVSPropertyOp3
 70
     1
102
RTVSPropertyOp4
 70
     1
102
RTVSPropertyOp5
 70
     1
102
RTVSPropertyOp6
 70
     1
102
RTVSPropertyOp7
 70
     1
102
RTVSPropertyOp8
 70
     1
102
RTVSPropertyOp9
 70
     1
102
RTVSPropertyOp10
 70
     1
102
RTVSPropertyOp11
 70
     1
102
RTVSPropertyOp12
 70
     1
102
RTVSPropertyOp13
 70
     1
102
RTVSPropertyOp14
 70
     1
102
RTVSPropertyOp15
 70
     1
102
RTVSPropertyOp16
 70
     1
102
RTVSPropertyOp17
 70
     1
102
RTVSPropertyOp18
 70
     1
102
RTVSPropertyOp19
 70
     1
102
RTVSPropertyOp20
 70
     1
102
RTVSPropertyOp21
 70
     1
102
RTVSPropertyOp22
 70
     1
102
RTVSPropertyOp23
 70
     1
102
RTVSPropertyOp24
 70
     1
102
RTVSPropertyOp25
 70
     1
102
RTVSPropertyOp26
 70
     1
102
RTVSPropertyOp27
 70
     1
102
RTVSPropertyOp28
 70
     1
102
RTVSPropertyOp29
 70
     1
102
RTVSPropertyOp30
 70
     1
102
RTVSPropertyOp31
 70
     1
102
RTVSPropertyOp32
 70
     1
102
RTVSPropertyOp33
 70
     1
102
RTVSPropertyOp34
 70
     1
102
RTVSPropertyOp35
 70
     1
102
RTVSPropertyOp36
 70
     1
102
RTVSPropertyOp37
 70
     1
102
RTVSPropertyOp38
 70
     1
102
RTVSPropertyOp39
 70
     1
102
RTVSPropertyOp40
 70
     1
102
RTVSPropertyOp41
 70
     1
102
RTVSPropertyOp42
 70
     1
102
RTVSPropertyOp43
 70
     1
102
RTVSPropertyOp44
 70
     1
102
RTVSPropertyOp45
 70
     1
102
RTVSPropertyOp46
 70
     1
102
RTVSPropertyOp47
 70
     1
102
RTVSPropertyOp48
 70
     1
102
RTVSPropertyOp49
 70
     1
102
RTVSPropertyOp50
 70
     1
102
RTVSPropertyOp51
 70
     0
102
RTVSPropertyOp52
 70
     0
102
RTVSPropertyOp53
 70
     1
102
RTVSPropertyOp54
 70
     1
102
RTVSPropertyOp55
 70
     1
102
RTVSPropertyOp56
 70
     1
102
RTVSPropertyOp57
 70
     1
102
RTVSPropertyOp58
 70
     1
102
RTVSPropertyOp59
 70
     1
102
RTVSPropertyOp60
 70
     1
102
RTVSPropertyOp61
 70
     1
102
RTVSPropertyOp62
 70
     1
  0
XRECORD
  5
C85
102
{ACAD_REACTORS
330
C84
102
}
330
C84
100
AcDbXrecord
280
     1
102
RTVSPost2010Prop28
280
     0
102
RTVSPost2010PropOp28
 70
     1
102
RTVSPost2010Prop29
280
     1
102
RTVSPost2010PropOp29
 70
     1
102
RTVSPost2010Prop30
280
     1
102
RTVSPost2010PropOp30
 70
     1
102
RTVSPost2010Prop31
280
     0
102
RTVSPost2010PropOp31
 70
     1
102
RTVSPost2010Prop32
280
     0
102
RTVSPost2010PropOp32
 70
     1
102
RTVSPost2010Prop33
280
     0
102
RTVSPost2010PropOp33
 70
     1
102
RTVSPost2010Prop34
280
     0
102
RTVSPost2010PropOp34
 70
     1
102
RTVSPost2010Prop35
280
     0
102
RTVSPost2010PropOp35
 70
     1
102
RTVSPost2010Prop36
280
     0
102
RTVSPost2010PropOp36
 70
     1
102
RTVSPost2010Prop37
 90
       50
102
RTVSPost2010PropOp37
 70
     1
102
RTVSPost2010Prop38
140
0.0
102
RTVSPost2010PropOp38
 70
     1
102
RTVSPost2010Prop39
140
1.0
102
RTVSPost2010PropOp39
 70
     1
102
RTVSPost2010Prop40
 90
        0
102
RTVSPost2010PropOp40
 70
     1
102
RTVSPost2010Prop41ColorIndex
 90
       18
102
RTVSPost2010Prop41ColorRGB
 90
        0
102
RTVSPost2010PropOp41
 70
     1
102
RTVSPost2010Prop42
 90
       50
102
RTVSPost2010PropOp42
 70
     1
102
RTVSPost2010Prop43
 90
        3
102
RTVSPost2010PropOp43
 70
     1
102
RTVSPost2010Prop44ColorIndex
 90
        5
102
RTVSPost2010Prop44ColorRGB
 90
      255
102
RTVSPost2010PropOp44
 70
     1
102
RTVSPost2010Prop45
280
     0
102
RTVSPost2010PropOp45
 70
     1
102
RTVSPost2010Prop46
 90
       50
102
RTVSPost2010PropOp46
 70
     1
102
RTVSPost2010Prop47
 90
       50
102
RTVSPost2010PropOp47
 70
     1
102
RTVSPost2010Prop48
 90
       50
102
RTVSPost2010PropOp48
 70
     1
102
RTVSPost2010Prop49
280
     0
102
RTVSPost2010PropOp49
 70
     1
102
RTVSPost2010Prop50
 90
       50
102
RTVSPost2010PropOp50
 70
     1
102
RTVSPost2010Prop51ColorIndex
 90
      256
102
RTVSPost2010Prop51ColorRGB
 90
-16777216
102
RTVSPost2010PropOp51
 70
     0
102
RTVSPost2010Prop52
140
1.0
102
RTVSPost2010PropOp52
 70
     0
102
RTVSPost2010Prop53
 90
        2
102
RTVSPost2010PropOp53
 70
     1
102
RTVSPost2010Prop54
  1
strokes_ogs.tif
102
RTVSPost2010PropOp54
 70
     1
102
RTVSPost2010Prop55
280
     0
102
RTVSPost2010PropOp55
 70
     1
102
RTVSPost2010Prop56
140
1.0
102
RTVSPost2010PropOp56
 70
     1
102
RTVSPost2010Prop57
140
1.0
102
RTVSPost2010PropOp57
 70
     1
102
RTVSPropertyOp0
 70
     1
102
RTVSPropertyOp1
 70
     1
102
RTVSPropertyOp2
 70
     1
102
RTVSPropertyOp3
 70
     1
102
RTVSPropertyOp4
 70
     1
102
RTVSPropertyOp5
 70
     1
102
RTVSPropertyOp6
 70
     1
102
RTVSPropertyOp7
 70
     1
102
RTVSPropertyOp8
 70
     1
102
RTVSPropertyOp9
 70
     1
102
RTVSPropertyOp10
 70
     1
102
RTVSPropertyOp11
 70
     1
102
RTVSPropertyOp12
 70
     1
102
RTVSPropertyOp13
 70
     1
102
RTVSPropertyOp14
 70
     1
102
RTVSPropertyOp15
 70
     1
102
RTVSPropertyOp16
 70
     1
102
RTVSPropertyOp17
 70
     1
102
RTVSPropertyOp18
 70
     1
102
RTVSPropertyOp19
 70
     1
102
RTVSPropertyOp20
 70
     1
102
RTVSPropertyOp21
 70
     1
102
RTVSPropertyOp22
 70
     1
102
RTVSPropertyOp23
 70
     1
102
RTVSPropertyOp24
 70
     1
102
RTVSPropertyOp25
 70
     1
102
RTVSPropertyOp26
 70
     1
102
RTVSPropertyOp27
 70
     1
102
RTVSPropertyOp28
 70
     1
102
RTVSPropertyOp29
 70
     1
102
RTVSPropertyOp30
 70
     1
102
RTVSPropertyOp31
 70
     1
102
RTVSPropertyOp32
 70
     1
102
RTVSPropertyOp33
 70
     1
102
RTVSPropertyOp34
 70
     1
102
RTVSPropertyOp35
 70
     1
102
RTVSPropertyOp36
 70
     1
102
RTVSPropertyOp37
 70
     1
102
RTVSPropertyOp38
 70
     1
102
RTVSPropertyOp39
 70
     1
102
RTVSPropertyOp40
 70
     1
102
RTVSPropertyOp41
 70
     1
102
RTVSPropertyOp42
 70
     1
102
RTVSPropertyOp43
 70
     1
102
RTVSPropertyOp44
 70
     1
102
RTVSPropertyOp45
 70
     1
102
RTVSPropertyOp46
 70
     1
102
RTVSPropertyOp47
 70
     1
102
RTVSPropertyOp48
 70
     1
102
RTVSPropertyOp49
 70
     1
102
RTVSPropertyOp50
 70
     1
102
RTVSPropertyOp51
 70
     0
102
RTVSPropertyOp52
 70
     0
102
RTVSPropertyOp53
 70
     1
102
RTVSPropertyOp54
 70
     1
102
RTVSPropertyOp55
 70
     1
102
RTVSPropertyOp56
 70
     1
102
RTVSPropertyOp57
 70
     1
102
RTVSPropertyOp58
 70
     1
102
RTVSPropertyOp59
 70
     1
102
RTVSPropertyOp60
 70
     1
102
RTVSPropertyOp61
 70
     1
102
RTVSPropertyOp62
 70
     1
  0
XRECORD
  5
C83
102
{ACAD_REACTORS
330
C82
102
}
330
C82
100
AcDbXrecord
280
     1
102
RTVSPost2010Prop28
280
     0
102
RTVSPost2010PropOp28
 70
     1
102
RTVSPost2010Prop29
280
     1
102
RTVSPost2010PropOp29
 70
     1
102
RTVSPost2010Prop30
280
     1
102
RTVSPost2010PropOp30
 70
     1
102
RTVSPost2010Prop31
280
     0
102
RTVSPost2010PropOp31
 70
     1
102
RTVSPost2010Prop32
280
     0
102
RTVSPost2010PropOp32
 70
     1
102
RTVSPost2010Prop33
280
     0
102
RTVSPost2010PropOp33
 70
     1
102
RTVSPost2010Prop34
280
     0
102
RTVSPost2010PropOp34
 70
     1
102
RTVSPost2010Prop35
280
     0
102
RTVSPost2010PropOp35
 70
     1
102
RTVSPost2010Prop36
280
     0
102
RTVSPost2010PropOp36
 70
     1
102
RTVSPost2010Prop37
 90
       50
102
RTVSPost2010PropOp37
 70
     1
102
RTVSPost2010Prop38
140
0.0
102
RTVSPost2010PropOp38
 70
     1
102
RTVSPost2010Prop39
140
1.0
102
RTVSPost2010PropOp39
 70
     1
102
RTVSPost2010Prop40
 90
        0
102
RTVSPost2010PropOp40
 70
     1
102
RTVSPost2010Prop41ColorIndex
 90
       18
102
RTVSPost2010Prop41ColorRGB
 90
        0
102
RTVSPost2010PropOp41
 70
     1
102
RTVSPost2010Prop42
 90
       50
102
RTVSPost2010PropOp42
 70
     1
102
RTVSPost2010Prop43
 90
        3
102
RTVSPost2010PropOp43
 70
     1
102
RTVSPost2010Prop44ColorIndex
 90
        5
102
RTVSPost2010Prop44ColorRGB
 90
      255
102
RTVSPost2010PropOp44
 70
     1
102
RTVSPost2010Prop45
280
     0
102
RTVSPost2010PropOp45
 70
     1
102
RTVSPost2010Prop46
 90
       50
102
RTVSPost2010PropOp46
 70
     1
102
RTVSPost2010Prop47
 90
       50
102
RTVSPost2010PropOp47
 70
     1
102
RTVSPost2010Prop48
 90
       50
102
RTVSPost2010PropOp48
 70
     1
102
RTVSPost2010Prop49
280
     0
102
RTVSPost2010PropOp49
 70
     1
102
RTVSPost2010Prop50
 90
       50
102
RTVSPost2010PropOp50
 70
     1
102
RTVSPost2010Prop51ColorIndex
 90
      256
102
RTVSPost2010Prop51ColorRGB
 90
-16777216
102
RTVSPost2010PropOp51
 70
     0
102
RTVSPost2010Prop52
140
1.0
102
RTVSPost2010PropOp52
 70
     0
102
RTVSPost2010Prop53
 90
        2
102
RTVSPost2010PropOp53
 70
     1
102
RTVSPost2010Prop54
  1
strokes_ogs.tif
102
RTVSPost2010PropOp54
 70
     1
102
RTVSPost2010Prop55
280
     0
102
RTVSPost2010PropOp55
 70
     1
102
RTVSPost2010Prop56
140
1.0
102
RTVSPost2010PropOp56
 70
     1
102
RTVSPost2010Prop57
140
1.0
102
RTVSPost2010PropOp57
 70
     1
102
RTVSPropertyOp0
 70
     1
102
RTVSPropertyOp1
 70
     1
102
RTVSPropertyOp2
 70
     1
102
RTVSPropertyOp3
 70
     1
102
RTVSPropertyOp4
 70
     1
102
RTVSPropertyOp5
 70
     1
102
RTVSPropertyOp6
 70
     1
102
RTVSPropertyOp7
 70
     1
102
RTVSPropertyOp8
 70
     1
102
RTVSPropertyOp9
 70
     1
102
RTVSPropertyOp10
 70
     1
102
RTVSPropertyOp11
 70
     1
102
RTVSPropertyOp12
 70
     1
102
RTVSPropertyOp13
 70
     1
102
RTVSPropertyOp14
 70
     1
102
RTVSPropertyOp15
 70
     1
102
RTVSPropertyOp16
 70
     1
102
RTVSPropertyOp17
 70
     1
102
RTVSPropertyOp18
 70
     1
102
RTVSPropertyOp19
 70
     1
102
RTVSPropertyOp20
 70
     1
102
RTVSPropertyOp21
 70
     1
102
RTVSPropertyOp22
 70
     1
102
RTVSPropertyOp23
 70
     1
102
RTVSPropertyOp24
 70
     1
102
RTVSPropertyOp25
 70
     1
102
RTVSPropertyOp26
 70
     1
102
RTVSPropertyOp27
 70
     1
102
RTVSPropertyOp28
 70
     1
102
RTVSPropertyOp29
 70
     1
102
RTVSPropertyOp30
 70
     1
102
RTVSPropertyOp31
 70
     1
102
RTVSPropertyOp32
 70
     1
102
RTVSPropertyOp33
 70
     1
102
RTVSPropertyOp34
 70
     1
102
RTVSPropertyOp35
 70
     1
102
RTVSPropertyOp36
 70
     1
102
RTVSPropertyOp37
 70
     1
102
RTVSPropertyOp38
 70
     1
102
RTVSPropertyOp39
 70
     1
102
RTVSPropertyOp40
 70
     1
102
RTVSPropertyOp41
 70
     1
102
RTVSPropertyOp42
 70
     1
102
RTVSPropertyOp43
 70
     1
102
RTVSPropertyOp44
 70
     1
102
RTVSPropertyOp45
 70
     1
102
RTVSPropertyOp46
 70
     1
102
RTVSPropertyOp47
 70
     1
102
RTVSPropertyOp48
 70
     1
102
RTVSPropertyOp49
 70
     1
102
RTVSPropertyOp50
 70
     1
102
RTVSPropertyOp51
 70
     0
102
RTVSPropertyOp52
 70
     0
102
RTVSPropertyOp53
 70
     1
102
RTVSPropertyOp54
 70
     1
102
RTVSPropertyOp55
 70
     1
102
RTVSPropertyOp56
 70
     1
102
RTVSPropertyOp57
 70
     1
102
RTVSPropertyOp58
 70
     1
102
RTVSPropertyOp59
 70
     1
102
RTVSPropertyOp60
 70
     1
102
RTVSPropertyOp61
 70
     1
102
RTVSPropertyOp62
 70
     1
  0
XRECORD
  5
C7D
102
{ACAD_REACTORS
330
C7C
102
}
330
C7C
100
AcDbXrecord
280
     1
102
RTVSPost2010Prop28
280
     0
102
RTVSPost2010PropOp28
 70
     1
102
RTVSPost2010Prop29
280
     1
102
RTVSPost2010PropOp29
 70
     1
102
RTVSPost2010Prop30
280
     1
102
RTVSPost2010PropOp30
 70
     1
102
RTVSPost2010Prop31
280
     0
102
RTVSPost2010PropOp31
 70
     1
102
RTVSPost2010Prop32
280
     0
102
RTVSPost2010PropOp32
 70
     1
102
RTVSPost2010Prop33
280
     0
102
RTVSPost2010PropOp33
 70
     1
102
RTVSPost2010Prop34
280
     0
102
RTVSPost2010PropOp34
 70
     1
102
RTVSPost2010Prop35
280
     0
102
RTVSPost2010PropOp35
 70
     1
102
RTVSPost2010Prop36
280
     0
102
RTVSPost2010PropOp36
 70
     1
102
RTVSPost2010Prop37
 90
       50
102
RTVSPost2010PropOp37
 70
     1
102
RTVSPost2010Prop38
140
0.0
102
RTVSPost2010PropOp38
 70
     1
102
RTVSPost2010Prop39
140
1.0
102
RTVSPost2010PropOp39
 70
     1
102
RTVSPost2010Prop40
 90
        0
102
RTVSPost2010PropOp40
 70
     1
102
RTVSPost2010Prop41ColorIndex
 90
       18
102
RTVSPost2010Prop41ColorRGB
 90
        0
102
RTVSPost2010PropOp41
 70
     1
102
RTVSPost2010Prop42
 90
       50
102
RTVSPost2010PropOp42
 70
     1
102
RTVSPost2010Prop43
 90
        3
102
RTVSPost2010PropOp43
 70
     1
102
RTVSPost2010Prop44ColorIndex
 90
        5
102
RTVSPost2010Prop44ColorRGB
 90
      255
102
RTVSPost2010PropOp44
 70
     1
102
RTVSPost2010Prop45
280
     0
102
RTVSPost2010PropOp45
 70
     1
102
RTVSPost2010Prop46
 90
       50
102
RTVSPost2010PropOp46
 70
     1
102
RTVSPost2010Prop47
 90
       50
102
RTVSPost2010PropOp47
 70
     1
102
RTVSPost2010Prop48
 90
       50
102
RTVSPost2010PropOp48
 70
     1
102
RTVSPost2010Prop49
280
     0
102
RTVSPost2010PropOp49
 70
     1
102
RTVSPost2010Prop50
 90
       50
102
RTVSPost2010PropOp50
 70
     1
102
RTVSPost2010Prop51ColorIndex
 90
      256
102
RTVSPost2010Prop51ColorRGB
 90
-16777216
102
RTVSPost2010PropOp51
 70
     0
102
RTVSPost2010Prop52
140
1.0
102
RTVSPost2010PropOp52
 70
     0
102
RTVSPost2010Prop53
 90
        2
102
RTVSPost2010PropOp53
 70
     1
102
RTVSPost2010Prop54
  1
strokes_ogs.tif
102
RTVSPost2010PropOp54
 70
     1
102
RTVSPost2010Prop55
280
     0
102
RTVSPost2010PropOp55
 70
     1
102
RTVSPost2010Prop56
140
1.0
102
RTVSPost2010PropOp56
 70
     1
102
RTVSPost2010Prop57
140
1.0
102
RTVSPost2010PropOp57
 70
     1
102
RTVSPropertyOp0
 70
     1
102
RTVSPropertyOp1
 70
     1
102
RTVSPropertyOp2
 70
     1
102
RTVSPropertyOp3
 70
     1
102
RTVSPropertyOp4
 70
     1
102
RTVSPropertyOp5
 70
     1
102
RTVSPropertyOp6
 70
     1
102
RTVSPropertyOp7
 70
     1
102
RTVSPropertyOp8
 70
     1
102
RTVSPropertyOp9
 70
     1
102
RTVSPropertyOp10
 70
     1
102
RTVSPropertyOp11
 70
     1
102
RTVSPropertyOp12
 70
     1
102
RTVSPropertyOp13
 70
     1
102
RTVSPropertyOp14
 70
     1
102
RTVSPropertyOp15
 70
     1
102
RTVSPropertyOp16
 70
     1
102
RTVSPropertyOp17
 70
     1
102
RTVSPropertyOp18
 70
     1
102
RTVSPropertyOp19
 70
     1
102
RTVSPropertyOp20
 70
     1
102
RTVSPropertyOp21
 70
     1
102
RTVSPropertyOp22
 70
     1
102
RTVSPropertyOp23
 70
     1
102
RTVSPropertyOp24
 70
     1
102
RTVSPropertyOp25
 70
     1
102
RTVSPropertyOp26
 70
     1
102
RTVSPropertyOp27
 70
     1
102
RTVSPropertyOp28
 70
     1
102
RTVSPropertyOp29
 70
     1
102
RTVSPropertyOp30
 70
     1
102
RTVSPropertyOp31
 70
     1
102
RTVSPropertyOp32
 70
     1
102
RTVSPropertyOp33
 70
     1
102
RTVSPropertyOp34
 70
     1
102
RTVSPropertyOp35
 70
     1
102
RTVSPropertyOp36
 70
     1
102
RTVSPropertyOp37
 70
     1
102
RTVSPropertyOp38
 70
     1
102
RTVSPropertyOp39
 70
     1
102
RTVSPropertyOp40
 70
     1
102
RTVSPropertyOp41
 70
     1
102
RTVSPropertyOp42
 70
     1
102
RTVSPropertyOp43
 70
     1
102
RTVSPropertyOp44
 70
     1
102
RTVSPropertyOp45
 70
     1
102
RTVSPropertyOp46
 70
     1
102
RTVSPropertyOp47
 70
     1
102
RTVSPropertyOp48
 70
     1
102
RTVSPropertyOp49
 70
     1
102
RTVSPropertyOp50
 70
     1
102
RTVSPropertyOp51
 70
     0
102
RTVSPropertyOp52
 70
     0
102
RTVSPropertyOp53
 70
     1
102
RTVSPropertyOp54
 70
     1
102
RTVSPropertyOp55
 70
     1
102
RTVSPropertyOp56
 70
     1
102
RTVSPropertyOp57
 70
     1
102
RTVSPropertyOp58
 70
     1
102
RTVSPropertyOp59
 70
     1
102
RTVSPropertyOp60
 70
     1
102
RTVSPropertyOp61
 70
     1
102
RTVSPropertyOp62
 70
     1
  0
XRECORD
  5
C7F
102
{ACAD_REACTORS
330
C7E
102
}
330
C7E
100
AcDbXrecord
280
     1
102
RTVSPost2010Prop28
280
     0
102
RTVSPost2010PropOp28
 70
     1
102
RTVSPost2010Prop29
280
     1
102
RTVSPost2010PropOp29
 70
     1
102
RTVSPost2010Prop30
280
     1
102
RTVSPost2010PropOp30
 70
     1
102
RTVSPost2010Prop31
280
     0
102
RTVSPost2010PropOp31
 70
     1
102
RTVSPost2010Prop32
280
     0
102
RTVSPost2010PropOp32
 70
     1
102
RTVSPost2010Prop33
280
     0
102
RTVSPost2010PropOp33
 70
     1
102
RTVSPost2010Prop34
280
     0
102
RTVSPost2010PropOp34
 70
     1
102
RTVSPost2010Prop35
280
     0
102
RTVSPost2010PropOp35
 70
     1
102
RTVSPost2010Prop36
280
     0
102
RTVSPost2010PropOp36
 70
     1
102
RTVSPost2010Prop37
 90
       50
102
RTVSPost2010PropOp37
 70
     1
102
RTVSPost2010Prop38
140
0.0
102
RTVSPost2010PropOp38
 70
     1
102
RTVSPost2010Prop39
140
1.0
102
RTVSPost2010PropOp39
 70
     1
102
RTVSPost2010Prop40
 90
        0
102
RTVSPost2010PropOp40
 70
     1
102
RTVSPost2010Prop41ColorIndex
 90
       18
102
RTVSPost2010Prop41ColorRGB
 90
        0
102
RTVSPost2010PropOp41
 70
     1
102
RTVSPost2010Prop42
 90
       50
102
RTVSPost2010PropOp42
 70
     1
102
RTVSPost2010Prop43
 90
        3
102
RTVSPost2010PropOp43
 70
     1
102
RTVSPost2010Prop44ColorIndex
 90
        5
102
RTVSPost2010Prop44ColorRGB
 90
      255
102
RTVSPost2010PropOp44
 70
     1
102
RTVSPost2010Prop45
280
     0
102
RTVSPost2010PropOp45
 70
     1
102
RTVSPost2010Prop46
 90
       50
102
RTVSPost2010PropOp46
 70
     1
102
RTVSPost2010Prop47
 90
       50
102
RTVSPost2010PropOp47
 70
     1
102
RTVSPost2010Prop48
 90
       50
102
RTVSPost2010PropOp48
 70
     1
102
RTVSPost2010Prop49
280
     0
102
RTVSPost2010PropOp49
 70
     1
102
RTVSPost2010Prop50
 90
       50
102
RTVSPost2010PropOp50
 70
     1
102
RTVSPost2010Prop51ColorIndex
 90
      256
102
RTVSPost2010Prop51ColorRGB
 90
-16777216
102
RTVSPost2010PropOp51
 70
     0
102
RTVSPost2010Prop52
140
1.0
102
RTVSPost2010PropOp52
 70
     0
102
RTVSPost2010Prop53
 90
        2
102
RTVSPost2010PropOp53
 70
     1
102
RTVSPost2010Prop54
  1
strokes_ogs.tif
102
RTVSPost2010PropOp54
 70
     1
102
RTVSPost2010Prop55
280
     0
102
RTVSPost2010PropOp55
 70
     1
102
RTVSPost2010Prop56
140
1.0
102
RTVSPost2010PropOp56
 70
     1
102
RTVSPost2010Prop57
140
1.0
102
RTVSPost2010PropOp57
 70
     1
102
RTVSPropertyOp0
 70
     1
102
RTVSPropertyOp1
 70
     1
102
RTVSPropertyOp2
 70
     1
102
RTVSPropertyOp3
 70
     1
102
RTVSPropertyOp4
 70
     1
102
RTVSPropertyOp5
 70
     1
102
RTVSPropertyOp6
 70
     1
102
RTVSPropertyOp7
 70
     1
102
RTVSPropertyOp8
 70
     1
102
RTVSPropertyOp9
 70
     1
102
RTVSPropertyOp10
 70
     1
102
RTVSPropertyOp11
 70
     1
102
RTVSPropertyOp12
 70
     1
102
RTVSPropertyOp13
 70
     1
102
RTVSPropertyOp14
 70
     1
102
RTVSPropertyOp15
 70
     1
102
RTVSPropertyOp16
 70
     1
102
RTVSPropertyOp17
 70
     1
102
RTVSPropertyOp18
 70
     1
102
RTVSPropertyOp19
 70
     1
102
RTVSPropertyOp20
 70
     1
102
RTVSPropertyOp21
 70
     1
102
RTVSPropertyOp22
 70
     1
102
RTVSPropertyOp23
 70
     1
102
RTVSPropertyOp24
 70
     1
102
RTVSPropertyOp25
 70
     1
102
RTVSPropertyOp26
 70
     1
102
RTVSPropertyOp27
 70
     1
102
RTVSPropertyOp28
 70
     1
102
RTVSPropertyOp29
 70
     1
102
RTVSPropertyOp30
 70
     1
102
RTVSPropertyOp31
 70
     1
102
RTVSPropertyOp32
 70
     1
102
RTVSPropertyOp33
 70
     1
102
RTVSPropertyOp34
 70
     1
102
RTVSPropertyOp35
 70
     1
102
RTVSPropertyOp36
 70
     1
102
RTVSPropertyOp37
 70
     1
102
RTVSPropertyOp38
 70
     1
102
RTVSPropertyOp39
 70
     1
102
RTVSPropertyOp40
 70
     1
102
RTVSPropertyOp41
 70
     1
102
RTVSPropertyOp42
 70
     1
102
RTVSPropertyOp43
 70
     1
102
RTVSPropertyOp44
 70
     1
102
RTVSPropertyOp45
 70
     1
102
RTVSPropertyOp46
 70
     1
102
RTVSPropertyOp47
 70
     1
102
RTVSPropertyOp48
 70
     1
102
RTVSPropertyOp49
 70
     1
102
RTVSPropertyOp50
 70
     1
102
RTVSPropertyOp51
 70
     0
102
RTVSPropertyOp52
 70
     0
102
RTVSPropertyOp53
 70
     1
102
RTVSPropertyOp54
 70
     1
102
RTVSPropertyOp55
 70
     1
102
RTVSPropertyOp56
 70
     1
102
RTVSPropertyOp57
 70
     1
102
RTVSPropertyOp58
 70
     1
102
RTVSPropertyOp59
 70
     1
102
RTVSPropertyOp60
 70
     1
102
RTVSPropertyOp61
 70
     1
102
RTVSPropertyOp62
 70
     1
  0
XRECORD
  5
C6D
102
{ACAD_REACTORS
330
C6C
102
}
330
C6C
100
AcDbXrecord
280
     1
102
RTVSPost2010Prop28
280
     0
102
RTVSPost2010PropOp28
 70
     1
102
RTVSPost2010Prop29
280
     1
102
RTVSPost2010PropOp29
 70
     1
102
RTVSPost2010Prop30
280
     1
102
RTVSPost2010PropOp30
 70
     1
102
RTVSPost2010Prop31
280
     0
102
RTVSPost2010PropOp31
 70
     1
102
RTVSPost2010Prop32
280
     0
102
RTVSPost2010PropOp32
 70
     1
102
RTVSPost2010Prop33
280
     0
102
RTVSPost2010PropOp33
 70
     1
102
RTVSPost2010Prop34
280
     0
102
RTVSPost2010PropOp34
 70
     1
102
RTVSPost2010Prop35
280
     0
102
RTVSPost2010PropOp35
 70
     1
102
RTVSPost2010Prop36
280
     0
102
RTVSPost2010PropOp36
 70
     1
102
RTVSPost2010Prop37
 90
       50
102
RTVSPost2010PropOp37
 70
     1
102
RTVSPost2010Prop38
140
0.0
102
RTVSPost2010PropOp38
 70
     1
102
RTVSPost2010Prop39
140
1.0
102
RTVSPost2010PropOp39
 70
     1
102
RTVSPost2010Prop40
 90
        0
102
RTVSPost2010PropOp40
 70
     1
102
RTVSPost2010Prop41ColorIndex
 90
       18
102
RTVSPost2010Prop41ColorRGB
 90
        0
102
RTVSPost2010PropOp41
 70
     1
102
RTVSPost2010Prop42
 90
       50
102
RTVSPost2010PropOp42
 70
     1
102
RTVSPost2010Prop43
 90
        3
102
RTVSPost2010PropOp43
 70
     1
102
RTVSPost2010Prop44ColorIndex
 90
        5
102
RTVSPost2010Prop44ColorRGB
 90
      255
102
RTVSPost2010PropOp44
 70
     1
102
RTVSPost2010Prop45
280
     0
102
RTVSPost2010PropOp45
 70
     1
102
RTVSPost2010Prop46
 90
       50
102
RTVSPost2010PropOp46
 70
     1
102
RTVSPost2010Prop47
 90
       50
102
RTVSPost2010PropOp47
 70
     1
102
RTVSPost2010Prop48
 90
       50
102
RTVSPost2010PropOp48
 70
     1
102
RTVSPost2010Prop49
280
     0
102
RTVSPost2010PropOp49
 70
     1
102
RTVSPost2010Prop50
 90
       50
102
RTVSPost2010PropOp50
 70
     1
102
RTVSPost2010Prop51ColorIndex
 90
      256
102
RTVSPost2010Prop51ColorRGB
 90
-16777216
102
RTVSPost2010PropOp51
 70
     0
102
RTVSPost2010Prop52
140
1.0
102
RTVSPost2010PropOp52
 70
     0
102
RTVSPost2010Prop53
 90
        2
102
RTVSPost2010PropOp53
 70
     1
102
RTVSPost2010Prop54
  1
strokes_ogs.tif
102
RTVSPost2010PropOp54
 70
     1
102
RTVSPost2010Prop55
280
     0
102
RTVSPost2010PropOp55
 70
     1
102
RTVSPost2010Prop56
140
1.0
102
RTVSPost2010PropOp56
 70
     1
102
RTVSPost2010Prop57
140
1.0
102
RTVSPost2010PropOp57
 70
     1
102
RTVSPropertyOp0
 70
     1
102
RTVSPropertyOp1
 70
     1
102
RTVSPropertyOp2
 70
     1
102
RTVSPropertyOp3
 70
     1
102
RTVSPropertyOp4
 70
     1
102
RTVSPropertyOp5
 70
     1
102
RTVSPropertyOp6
 70
     1
102
RTVSPropertyOp7
 70
     1
102
RTVSPropertyOp8
 70
     1
102
RTVSPropertyOp9
 70
     1
102
RTVSPropertyOp10
 70
     1
102
RTVSPropertyOp11
 70
     1
102
RTVSPropertyOp12
 70
     1
102
RTVSPropertyOp13
 70
     1
102
RTVSPropertyOp14
 70
     1
102
RTVSPropertyOp15
 70
     1
102
RTVSPropertyOp16
 70
     1
102
RTVSPropertyOp17
 70
     1
102
RTVSPropertyOp18
 70
     1
102
RTVSPropertyOp19
 70
     1
102
RTVSPropertyOp20
 70
     1
102
RTVSPropertyOp21
 70
     1
102
RTVSPropertyOp22
 70
     1
102
RTVSPropertyOp23
 70
     1
102
RTVSPropertyOp24
 70
     1
102
RTVSPropertyOp25
 70
     1
102
RTVSPropertyOp26
 70
     1
102
RTVSPropertyOp27
 70
     1
102
RTVSPropertyOp28
 70
     1
102
RTVSPropertyOp29
 70
     1
102
RTVSPropertyOp30
 70
     1
102
RTVSPropertyOp31
 70
     1
102
RTVSPropertyOp32
 70
     1
102
RTVSPropertyOp33
 70
     1
102
RTVSPropertyOp34
 70
     1
102
RTVSPropertyOp35
 70
     1
102
RTVSPropertyOp36
 70
     1
102
RTVSPropertyOp37
 70
     1
102
RTVSPropertyOp38
 70
     1
102
RTVSPropertyOp39
 70
     1
102
RTVSPropertyOp40
 70
     1
102
RTVSPropertyOp41
 70
     1
102
RTVSPropertyOp42
 70
     1
102
RTVSPropertyOp43
 70
     1
102
RTVSPropertyOp44
 70
     1
102
RTVSPropertyOp45
 70
     1
102
RTVSPropertyOp46
 70
     1
102
RTVSPropertyOp47
 70
     1
102
RTVSPropertyOp48
 70
     1
102
RTVSPropertyOp49
 70
     1
102
RTVSPropertyOp50
 70
     1
102
RTVSPropertyOp51
 70
     0
102
RTVSPropertyOp52
 70
     0
102
RTVSPropertyOp53
 70
     1
102
RTVSPropertyOp54
 70
     1
102
RTVSPropertyOp55
 70
     1
102
RTVSPropertyOp56
 70
     1
102
RTVSPropertyOp57
 70
     1
102
RTVSPropertyOp58
 70
     1
102
RTVSPropertyOp59
 70
     1
102
RTVSPropertyOp60
 70
     1
102
RTVSPropertyOp61
 70
     1
102
RTVSPropertyOp62
 70
     1
  0
XRECORD
  5
C61
102
{ACAD_REACTORS
330
C60
102
}
330
C60
100
AcDbXrecord
280
     1
102
RTVSPost2010Prop28
280
     0
102
RTVSPost2010PropOp28
 70
     1
102
RTVSPost2010Prop29
280
     1
102
RTVSPost2010PropOp29
 70
     1
102
RTVSPost2010Prop30
280
     1
102
RTVSPost2010PropOp30
 70
     1
102
RTVSPost2010Prop31
280
     0
102
RTVSPost2010PropOp31
 70
     1
102
RTVSPost2010Prop32
280
     0
102
RTVSPost2010PropOp32
 70
     1
102
RTVSPost2010Prop33
280
     0
102
RTVSPost2010PropOp33
 70
     1
102
RTVSPost2010Prop34
280
     0
102
RTVSPost2010PropOp34
 70
     1
102
RTVSPost2010Prop35
280
     0
102
RTVSPost2010PropOp35
 70
     1
102
RTVSPost2010Prop36
280
     0
102
RTVSPost2010PropOp36
 70
     1
102
RTVSPost2010Prop37
 90
       50
102
RTVSPost2010PropOp37
 70
     1
102
RTVSPost2010Prop38
140
0.0
102
RTVSPost2010PropOp38
 70
     1
102
RTVSPost2010Prop39
140
1.0
102
RTVSPost2010PropOp39
 70
     1
102
RTVSPost2010Prop40
 90
        0
102
RTVSPost2010PropOp40
 70
     1
102
RTVSPost2010Prop41ColorIndex
 90
       18
102
RTVSPost2010Prop41ColorRGB
 90
        0
102
RTVSPost2010PropOp41
 70
     1
102
RTVSPost2010Prop42
 90
       50
102
RTVSPost2010PropOp42
 70
     1
102
RTVSPost2010Prop43
 90
        3
102
RTVSPost2010PropOp43
 70
     1
102
RTVSPost2010Prop44ColorIndex
 90
        5
102
RTVSPost2010Prop44ColorRGB
 90
      255
102
RTVSPost2010PropOp44
 70
     1
102
RTVSPost2010Prop45
280
     0
102
RTVSPost2010PropOp45
 70
     1
102
RTVSPost2010Prop46
 90
       50
102
RTVSPost2010PropOp46
 70
     1
102
RTVSPost2010Prop47
 90
       50
102
RTVSPost2010PropOp47
 70
     1
102
RTVSPost2010Prop48
 90
       50
102
RTVSPost2010PropOp48
 70
     1
102
RTVSPost2010Prop49
280
     0
102
RTVSPost2010PropOp49
 70
     1
102
RTVSPost2010Prop50
 90
       50
102
RTVSPost2010PropOp50
 70
     1
102
RTVSPost2010Prop51ColorIndex
 90
      256
102
RTVSPost2010Prop51ColorRGB
 90
-16777216
102
RTVSPost2010PropOp51
 70
     0
102
RTVSPost2010Prop52
140
1.0
102
RTVSPost2010PropOp52
 70
     0
102
RTVSPost2010Prop53
 90
        2
102
RTVSPost2010PropOp53
 70
     1
102
RTVSPost2010Prop54
  1
strokes_ogs.tif
102
RTVSPost2010PropOp54
 70
     1
102
RTVSPost2010Prop55
280
     0
102
RTVSPost2010PropOp55
 70
     1
102
RTVSPost2010Prop56
140
1.0
102
RTVSPost2010PropOp56
 70
     1
102
RTVSPost2010Prop57
140
1.0
102
RTVSPost2010PropOp57
 70
     1
102
RTVSPropertyOp0
 70
     1
102
RTVSPropertyOp1
 70
     1
102
RTVSPropertyOp2
 70
     1
102
RTVSPropertyOp3
 70
     1
102
RTVSPropertyOp4
 70
     1
102
RTVSPropertyOp5
 70
     1
102
RTVSPropertyOp6
 70
     1
102
RTVSPropertyOp7
 70
     1
102
RTVSPropertyOp8
 70
     1
102
RTVSPropertyOp9
 70
     1
102
RTVSPropertyOp10
 70
     1
102
RTVSPropertyOp11
 70
     1
102
RTVSPropertyOp12
 70
     1
102
RTVSPropertyOp13
 70
     1
102
RTVSPropertyOp14
 70
     1
102
RTVSPropertyOp15
 70
     1
102
RTVSPropertyOp16
 70
     1
102
RTVSPropertyOp17
 70
     1
102
RTVSPropertyOp18
 70
     1
102
RTVSPropertyOp19
 70
     1
102
RTVSPropertyOp20
 70
     1
102
RTVSPropertyOp21
 70
     1
102
RTVSPropertyOp22
 70
     1
102
RTVSPropertyOp23
 70
     1
102
RTVSPropertyOp24
 70
     1
102
RTVSPropertyOp25
 70
     1
102
RTVSPropertyOp26
 70
     1
102
RTVSPropertyOp27
 70
     1
102
RTVSPropertyOp28
 70
     1
102
RTVSPropertyOp29
 70
     1
102
RTVSPropertyOp30
 70
     1
102
RTVSPropertyOp31
 70
     1
102
RTVSPropertyOp32
 70
     1
102
RTVSPropertyOp33
 70
     1
102
RTVSPropertyOp34
 70
     1
102
RTVSPropertyOp35
 70
     1
102
RTVSPropertyOp36
 70
     1
102
RTVSPropertyOp37
 70
     1
102
RTVSPropertyOp38
 70
     1
102
RTVSPropertyOp39
 70
     1
102
RTVSPropertyOp40
 70
     1
102
RTVSPropertyOp41
 70
     1
102
RTVSPropertyOp42
 70
     1
102
RTVSPropertyOp43
 70
     1
102
RTVSPropertyOp44
 70
     1
102
RTVSPropertyOp45
 70
     1
102
RTVSPropertyOp46
 70
     1
102
RTVSPropertyOp47
 70
     1
102
RTVSPropertyOp48
 70
     1
102
RTVSPropertyOp49
 70
     1
102
RTVSPropertyOp50
 70
     1
102
RTVSPropertyOp51
 70
     0
102
RTVSPropertyOp52
 70
     0
102
RTVSPropertyOp53
 70
     1
102
RTVSPropertyOp54
 70
     1
102
RTVSPropertyOp55
 70
     1
102
RTVSPropertyOp56
 70
     1
102
RTVSPropertyOp57
 70
     1
102
RTVSPropertyOp58
 70
     1
102
RTVSPropertyOp59
 70
     1
102
RTVSPropertyOp60
 70
     1
102
RTVSPropertyOp61
 70
     1
102
RTVSPropertyOp62
 70
     1
  0
XRECORD
  5
C81
102
{ACAD_REACTORS
330
C80
102
}
330
C80
100
AcDbXrecord
280
     1
102
RTVSPost2010Prop28
280
     0
102
RTVSPost2010PropOp28
 70
     1
102
RTVSPost2010Prop29
280
     1
102
RTVSPost2010PropOp29
 70
     1
102
RTVSPost2010Prop30
280
     1
102
RTVSPost2010PropOp30
 70
     1
102
RTVSPost2010Prop31
280
     0
102
RTVSPost2010PropOp31
 70
     1
102
RTVSPost2010Prop32
280
     0
102
RTVSPost2010PropOp32
 70
     1
102
RTVSPost2010Prop33
280
     0
102
RTVSPost2010PropOp33
 70
     1
102
RTVSPost2010Prop34
280
     0
102
RTVSPost2010PropOp34
 70
     1
102
RTVSPost2010Prop35
280
     0
102
RTVSPost2010PropOp35
 70
     1
102
RTVSPost2010Prop36
280
     0
102
RTVSPost2010PropOp36
 70
     1
102
RTVSPost2010Prop37
 90
       50
102
RTVSPost2010PropOp37
 70
     1
102
RTVSPost2010Prop38
140
0.0
102
RTVSPost2010PropOp38
 70
     1
102
RTVSPost2010Prop39
140
1.0
102
RTVSPost2010PropOp39
 70
     1
102
RTVSPost2010Prop40
 90
        0
102
RTVSPost2010PropOp40
 70
     1
102
RTVSPost2010Prop41ColorIndex
 90
       18
102
RTVSPost2010Prop41ColorRGB
 90
        0
102
RTVSPost2010PropOp41
 70
     1
102
RTVSPost2010Prop42
 90
       50
102
RTVSPost2010PropOp42
 70
     1
102
RTVSPost2010Prop43
 90
        3
102
RTVSPost2010PropOp43
 70
     1
102
RTVSPost2010Prop44ColorIndex
 90
        5
102
RTVSPost2010Prop44ColorRGB
 90
      255
102
RTVSPost2010PropOp44
 70
     1
102
RTVSPost2010Prop45
280
     0
102
RTVSPost2010PropOp45
 70
     1
102
RTVSPost2010Prop46
 90
       50
102
RTVSPost2010PropOp46
 70
     1
102
RTVSPost2010Prop47
 90
       50
102
RTVSPost2010PropOp47
 70
     1
102
RTVSPost2010Prop48
 90
       50
102
RTVSPost2010PropOp48
 70
     1
102
RTVSPost2010Prop49
280
     0
102
RTVSPost2010PropOp49
 70
     1
102
RTVSPost2010Prop50
 90
       50
102
RTVSPost2010PropOp50
 70
     1
102
RTVSPost2010Prop51ColorIndex
 90
      256
102
RTVSPost2010Prop51ColorRGB
 90
-16777216
102
RTVSPost2010PropOp51
 70
     0
102
RTVSPost2010Prop52
140
1.0
102
RTVSPost2010PropOp52
 70
     0
102
RTVSPost2010Prop53
 90
        2
102
RTVSPost2010PropOp53
 70
     1
102
RTVSPost2010Prop54
  1
strokes_ogs.tif
102
RTVSPost2010PropOp54
 70
     1
102
RTVSPost2010Prop55
280
     0
102
RTVSPost2010PropOp55
 70
     1
102
RTVSPost2010Prop56
140
1.0
102
RTVSPost2010PropOp56
 70
     1
102
RTVSPost2010Prop57
140
1.0
102
RTVSPost2010PropOp57
 70
     1
102
RTVSPropertyOp0
 70
     1
102
RTVSPropertyOp1
 70
     1
102
RTVSPropertyOp2
 70
     1
102
RTVSPropertyOp3
 70
     1
102
RTVSPropertyOp4
 70
     1
102
RTVSPropertyOp5
 70
     1
102
RTVSPropertyOp6
 70
     1
102
RTVSPropertyOp7
 70
     1
102
RTVSPropertyOp8
 70
     1
102
RTVSPropertyOp9
 70
     1
102
RTVSPropertyOp10
 70
     1
102
RTVSPropertyOp11
 70
     1
102
RTVSPropertyOp12
 70
     1
102
RTVSPropertyOp13
 70
     1
102
RTVSPropertyOp14
 70
     1
102
RTVSPropertyOp15
 70
     1
102
RTVSPropertyOp16
 70
     1
102
RTVSPropertyOp17
 70
     1
102
RTVSPropertyOp18
 70
     1
102
RTVSPropertyOp19
 70
     1
102
RTVSPropertyOp20
 70
     1
102
RTVSPropertyOp21
 70
     1
102
RTVSPropertyOp22
 70
     1
102
RTVSPropertyOp23
 70
     1
102
RTVSPropertyOp24
 70
     1
102
RTVSPropertyOp25
 70
     1
102
RTVSPropertyOp26
 70
     1
102
RTVSPropertyOp27
 70
     1
102
RTVSPropertyOp28
 70
     1
102
RTVSPropertyOp29
 70
     1
102
RTVSPropertyOp30
 70
     1
102
RTVSPropertyOp31
 70
     1
102
RTVSPropertyOp32
 70
     1
102
RTVSPropertyOp33
 70
     1
102
RTVSPropertyOp34
 70
     1
102
RTVSPropertyOp35
 70
     1
102
RTVSPropertyOp36
 70
     1
102
RTVSPropertyOp37
 70
     1
102
RTVSPropertyOp38
 70
     1
102
RTVSPropertyOp39
 70
     1
102
RTVSPropertyOp40
 70
     1
102
RTVSPropertyOp41
 70
     1
102
RTVSPropertyOp42
 70
     1
102
RTVSPropertyOp43
 70
     1
102
RTVSPropertyOp44
 70
     1
102
RTVSPropertyOp45
 70
     1
102
RTVSPropertyOp46
 70
     1
102
RTVSPropertyOp47
 70
     1
102
RTVSPropertyOp48
 70
     1
102
RTVSPropertyOp49
 70
     1
102
RTVSPropertyOp50
 70
     1
102
RTVSPropertyOp51
 70
     0
102
RTVSPropertyOp52
 70
     0
102
RTVSPropertyOp53
 70
     1
102
RTVSPropertyOp54
 70
     1
102
RTVSPropertyOp55
 70
     1
102
RTVSPropertyOp56
 70
     1
102
RTVSPropertyOp57
 70
     1
102
RTVSPropertyOp58
 70
     1
102
RTVSPropertyOp59
 70
     1
102
RTVSPropertyOp60
 70
     1
102
RTVSPropertyOp61
 70
     1
102
RTVSPropertyOp62
 70
     1
  0
ENDSEC
  0
EOF
