  0
SECTION
  2
HEADER
  9
$ACADVER
  1
AC1015
  9
$ACADMAINTVER
 70
    18
  9
$DWGCODEPAGE
  3
ANSI_1252
  9
$INSBASE
 10
0.0
 20
0.0
 30
0.0
  9
$EXTMIN
 10
1.000000000000000E+20
 20
1.000000000000000E+20
 30
1.000000000000000E+20
  9
$EXTMAX
 10
-1.000000000000000E+20
 20
-1.000000000000000E+20
 30
-1.000000000000000E+20
  9
$LIMMIN
 10
0.0
 20
0.0
  9
$LIMMAX
 10
420.0
 20
297.0
  9
$ORTHOMODE
 70
     0
  9
$REGENMODE
 70
     1
  9
$FILLMODE
 70
     1
  9
$QTEXTMODE
 70
     0
  9
$MIRRTEXT
 70
     0
  9
$LTSCALE
 40
1.0
  9
$ATTMODE
 70
     1
  9
$TEXTSIZE
 40
2.5
  9
$TRACEWID
 40
1.0
  9
$TEXTSTYLE
  7
Standard
  9
$CLAYER
  8
0
  9
$CELTYPE
  6
ByLayer
  9
$CECOLOR
 62
   256
  9
$CELTSCALE
 40
1.0
  9
$DISPSILH
 70
     0
  9
$DIMSCALE
 40
1.0
  9
$DIMASZ
 40
2.5
  9
$DIMEXO
 40
0.625
  9
$DIMDLI
 40
3.75
  9
$DIMRND
 40
0.0
  9
$DIMDLE
 40
0.0
  9
$DIMEXE
 40
1.25
  9
$DIMTP
 40
0.0
  9
$DIMTM
 40
0.0
  9
$DIMTXT
 40
2.5
  9
$DIMCEN
 40
2.5
  9
$DIMTSZ
 40
0.0
  9
$DIMTOL
 70
     0
  9
$DIMLIM
 70
     0
  9
$DIMTIH
 70
     0
  9
$DIMTOH
 70
     0
  9
$DIMSE1
 70
     0
  9
$DIMSE2
 70
     0
  9
$DIMTAD
 70
     1
  9
$DIMZIN
 70
     8
  9
$DIMBLK
  1

  9
$DIMASO
 70
     1
  9
$DIMSHO
 70
     1
  9
$DIMPOST
  1

  9
$DIMAPOST
  1

  9
$DIMALT
 70
     0
  9
$DIMALTD
 70
     3
  9
$DIMALTF
 40
0.03937007874016
  9
$DIMLFAC
 40
1.0
  9
$DIMTOFL
 70
     1
  9
$DIMTVP
 40
0.0
  9
$DIMTIX
 70
     0
  9
$DIMSOXD
 70
     0
  9
$DIMSAH
 70
     0
  9
$DIMBLK1
  1

  9
$DIMBLK2
  1

  9
$DIMSTYLE
  2
ISO-25
  9
$DIMCLRD
 70
     0
  9
$DIMCLRE
 70
     0
  9
$DIMCLRT
 70
     0
  9
$DIMTFAC
 40
1.0
  9
$DIMGAP
 40
0.625
  9
$DIMJUST
 70
     0
  9
$DIMSD1
 70
     0
  9
$DIMSD2
 70
     0
  9
$DIMTOLJ
 70
     0
  9
$DIMTZIN
 70
     8
  9
$DIMALTZ
 70
     0
  9
$DIMALTTZ
 70
     0
  9
$DIMUPT
 70
     0
  9
$DIMDEC
 70
     2
  9
$DIMTDEC
 70
     2
  9
$DIMALTU
 70
     2
  9
$DIMALTTD
 70
     3
  9
$DIMTXSTY
  7
Standard
  9
$DIMAUNIT
 70
     0
  9
$DIMADEC
 70
     0
  9
$DIMALTRND
 40
0.0
  9
$DIMAZIN
 70
     0
  9
$DIMDSEP
 70
    44
  9
$DIMATFIT
 70
     3
  9
$DIMFRAC
 70
     0
  9
$DIMLDRBLK
  1

  9
$DIMLUNIT
 70
     2
  9
$DIMLWD
 70
    -2
  9
$DIMLWE
 70
    -2
  9
$DIMTMOVE
 70
     0
  9
$LUNITS
 70
     2
  9
$LUPREC
 70
     4
  9
$SKETCHINC
 40
1.0
  9
$FILLETRAD
 40
0.0
  9
$AUNITS
 70
     0
  9
$AUPREC
 70
     0
  9
$MENU
  1
.
  9
$ELEVATION
 40
0.0
  9
$PELEVATION
 40
0.0
  9
$THICKNESS
 40
0.0
  9
$LIMCHECK
 70
     0
  9
$CHAMFERA
 40
0.0
  9
$CHAMFERB
 40
0.0
  9
$CHAMFERC
 40
0.0
  9
$CHAMFERD
 40
0.0
  9
$SKPOLY
 70
     0
  9
$TDCREATE
 40
2460441.436643518
  9
$TDUCREATE
 40
2460441.144976852
  9
$TDUPDATE
 40
2460441.438668982
  9
$TDUUPDATE
 40
2460441.147002315
  9
$TDINDWG
 40
0.0020370370
  9
$TDUSRTIMER
 40
0.0020370370
  9
$USRTIMER
 70
     1
  9
$ANGBASE
 50
0.0
  9
$ANGDIR
 70
     0
  9
$PDMODE
 70
     0
  9
$PDSIZE
 40
0.0
  9
$PLINEWID
 40
0.0
  9
$SPLFRAME
 70
     0
  9
$SPLINETYPE
 70
     6
  9
$SPLINESEGS
 70
     8
  9
$HANDSEED
  5
14AC
  9
$SURFTAB1
 70
     6
  9
$SURFTAB2
 70
     6
  9
$SURFTYPE
 70
     6
  9
$SURFU
 70
     6
  9
$SURFV
 70
     6
  9
$UCSBASE
  2

  9
$UCSNAME
  2

  9
$UCSORG
 10
0.0
 20
0.0
 30
0.0
  9
$UCSXDIR
 10
1.0
 20
0.0
 30
0.0
  9
$UCSYDIR
 10
0.0
 20
1.0
 30
0.0
  9
$UCSORTHOREF
  2

  9
$UCSORTHOVIEW
 70
     0
  9
$UCSORGTOP
 10
0.0
 20
0.0
 30
0.0
  9
$UCSORGBOTTOM
 10
0.0
 20
0.0
 30
0.0
  9
$UCSORGLEFT
 10
0.0
 20
0.0
 30
0.0
  9
$UCSORGRIGHT
 10
0.0
 20
0.0
 30
0.0
  9
$UCSORGFRONT
 10
0.0
 20
0.0
 30
0.0
  9
$UCSORGBACK
 10
0.0
 20
0.0
 30
0.0
  9
$PUCSBASE
  2

  9
$PUCSNAME
  2

  9
$PUCSORG
 10
0.0
 20
0.0
 30
0.0
  9
$PUCSXDIR
 10
1.0
 20
0.0
 30
0.0
  9
$PUCSYDIR
 10
0.0
 20
1.0
 30
0.0
  9
$PUCSORTHOREF
  2

  9
$PUCSORTHOVIEW
 70
     0
  9
$PUCSORGTOP
 10
0.0
 20
0.0
 30
0.0
  9
$PUCSORGBOTTOM
 10
0.0
 20
0.0
 30
0.0
  9
$PUCSORGLEFT
 10
0.0
 20
0.0
 30
0.0
  9
$PUCSORGRIGHT
 10
0.0
 20
0.0
 30
0.0
  9
$PUCSORGFRONT
 10
0.0
 20
0.0
 30
0.0
  9
$PUCSORGBACK
 10
0.0
 20
0.0
 30
0.0
  9
$USERI1
 70
     0
  9
$USERI2
 70
     0
  9
$USERI3
 70
     0
  9
$USERI4
 70
     0
  9
$USERI5
 70
     0
  9
$USERR1
 40
0.0
  9
$USERR2
 40
0.0
  9
$USERR3
 40
0.0
  9
$USERR4
 40
0.0
  9
$USERR5
 40
0.0
  9
$WORLDVIEW
 70
     1
  9
$SHADEDGE
 70
     3
  9
$SHADEDIF
 70
    70
  9
$TILEMODE
 70
     1
  9
$MAXACTVP
 70
    48
  9
$PINSBASE
 10
0.0
 20
0.0
 30
0.0
  9
$PLIMCHECK
 70
     0
  9
$PEXTMIN
 10
0.0
 20
0.0
 30
0.0
  9
$PEXTMAX
 10
0.0
 20
0.0
 30
0.0
  9
$PLIMMIN
 10
0.0
 20
0.0
  9
$PLIMMAX
 10
12.0
 20
9.0
  9
$UNITMODE
 70
     0
  9
$VISRETAIN
 70
     1
  9
$PLINEGEN
 70
     0
  9
$PSLTSCALE
 70
     1
  9
$TREEDEPTH
 70
  3020
  9
$CMLSTYLE
  2
Standard
  9
$CMLJUST
 70
     0
  9
$CMLSCALE
 40
20.0
  9
$PROXYGRAPHICS
 70
     1
  9
$MEASUREMENT
 70
     1
  9
$CELWEIGHT
370
    -1
  9
$ENDCAPS
280
     0
  9
$JOINSTYLE
280
     0
  9
$LWDISPLAY
290
     0
  9
$INSUNITS
 70
     4
  9
$HYPERLINKBASE
  1

  9
$STYLESHEET
  1

  9
$XEDIT
290
     1
  9
$CEPSNTYPE
380
     0
  9
$PSTYLEMODE
290
     1
  9
$FINGERPRINTGUID
  2
{4E780CCD-D5CE-4C47-A721-F5BC7D8E577B}
  9
$VERSIONGUID
  2
{D4385D88-92C4-9A48-8351-562CCB75B750}
  9
$EXTNAMES
290
     1
  9
$PSVPSCALE
 40
0.0
  9
$OLESTARTUP
290
     0
  0
ENDSEC
  0
SECTION
  2
CLASSES
  0
CLASS
  1
ACDBDICTIONARYWDFLT
  2
AcDbDictionaryWithDefault
  3
ObjectDBX Classes
 90
        0
280
     0
281
     0
  0
CLASS
  1
ACDBPLACEHOLDER
  2
AcDbPlaceHolder
  3
ObjectDBX Classes
 90
        0
280
     0
281
     0
  0
CLASS
  1
LAYOUT
  2
AcDbLayout
  3
ObjectDBX Classes
 90
        0
280
     0
281
     0
  0
CLASS
  1
DICTIONARYVAR
  2
AcDbDictionaryVar
  3
ObjectDBX Classes
 90
        0
280
     0
281
     0
  0
CLASS
  1
TABLESTYLE
  2
AcDbTableStyle
  3
ObjectDBX Classes
 90
     4095
280
     0
281
     0
  0
CLASS
  1
MATERIAL
  2
AcDbMaterial
  3
ObjectDBX Classes
 90
     1153
280
     0
281
     0
  0
CLASS
  1
VISUALSTYLE
  2
AcDbVisualStyle
  3
ObjectDBX Classes
 90
     4095
280
     0
281
     0
  0
CLASS
  1
SCALE
  2
AcDbScale
  3
ObjectDBX Classes
 90
     1153
280
     0
281
     0
  0
CLASS
  1
MLEADERSTYLE
  2
AcDbMLeaderStyle
  3
ACDB_MLEADERSTYLE_CLASS
 90
     4095
280
     0
281
     0
  0
CLASS
  1
CELLSTYLEMAP
  2
AcDbCellStyleMap
  3
ObjectDBX Classes
 90
     1152
280
     0
281
     0
  0
CLASS
  1
EXACXREFPANELOBJECT
  2
ExAcXREFPanelObject
  3
EXAC_ESW
 90
    33793
280
     0
281
     0
  0
CLASS
  1
NPOCOLLECTION
  2
AcDbImpNonPersistentObjectsCollection
  3
ObjectDBX Classes
 90
    33921
280
     0
281
     0
  0
CLASS
  1
LAYER_INDEX
  2
AcDbLayerIndex
  3
ObjectDBX Classes
 90
    32768
280
     0
281
     0
  0
CLASS
  1
SPATIAL_INDEX
  2
AcDbSpatialIndex
  3
ObjectDBX Classes
 90
    32768
280
     0
281
     0
  0
CLASS
  1
IDBUFFER
  2
AcDbIdBuffer
  3
ObjectDBX Classes
 90
    32768
280
     0
281
     0
  0
CLASS
  1
ACDBSECTIONVIEWSTYLE
  2
AcDbSectionViewStyle
  3
ObjectDBX Classes
 90
     1025
280
     0
281
     0
  0
CLASS
  1
ACDBDETAILVIEWSTYLE
  2
AcDbDetailViewStyle
  3
ObjectDBX Classes
 90
     1025
280
     0
281
     0
  0
CLASS
  1
RAPIDRTRENDERSETTINGS
  2
AcDbRapidRTRenderSettings
  3
ObjectDBX Classes
 90
     1024
280
     0
281
     0
  0
CLASS
  1
MENTALRAYRENDERSETTINGS
  2
AcDbMentalRayRenderSettings
  3
SCENEOE
 90
     1024
280
     0
281
     0
  0
CLASS
  1
XRECORD
  2
AcDbXrecord
  3
ObjectDBX Classes
 90
        0
280
     0
281
     0
  0
ENDSEC
  0
SECTION
  2
TABLES
  0
TABLE
  2
VPORT
  5
8
102
{ACAD_XDICTIONARY
360
13FC
102
}
330
0
100
AcDbSymbolTable
 70
     1
  0
VPORT
  5
EA
330
8
100
AcDbSymbolTableRecord
100
AcDbViewportTableRecord
  2
*Active
 70
     0
 10
0.0
 20
0.0
 11
1.0
 21
1.0
 12
3255.159199532692
 22
1440.684066268786
 13
0.0
 23
0.0
 14
10.0
 24
10.0
 15
10.0
 25
10.0
 16
0.0
 26
0.0
 36
1.0
 17
0.0
 27
0.0
 37
0.0
 40
2564.250134757009
 41
1.993968636911942
 42
50.0
 43
0.0
 44
0.0
 50
0.0
 51
0.0
 71
     0
 72
  1000
 73
     1
 74
     3
 75
     0
 76
     1
 77
     0
 78
     0
281
     0
 65
     1
110
0.0
120
0.0
130
0.0
111
1.0
121
0.0
131
0.0
112
0.0
122
1.0
132
0.0
 79
     0
146
0.0
1001
ACAD_NAV_VCDISPLAY
1070
     3
  0
ENDTAB
  0
TABLE
  2
LTYPE
  5
5
330
0
100
AcDbSymbolTable
 70
     1
  0
LTYPE
  5
14
330
5
100
AcDbSymbolTableRecord
100
AcDbLinetypeTableRecord
  2
ByBlock
 70
     0
  3

 72
    65
 73
     0
 40
0.0
  0
LTYPE
  5
15
330
5
100
AcDbSymbolTableRecord
100
AcDbLinetypeTableRecord
  2
ByLayer
 70
     0
  3

 72
    65
 73
     0
 40
0.0
  0
LTYPE
  5
16
330
5
100
AcDbSymbolTableRecord
100
AcDbLinetypeTableRecord
  2
Continuous
 70
     0
  3
Solid line
 72
    65
 73
     0
 40
0.0
  0
ENDTAB
  0
TABLE
  2
LAYER
  5
2
102
{ACAD_XDICTIONARY
360
1FF
102
}
330
0
100
AcDbSymbolTable
 70
     1
  0
LAYER
  5
10
102
{ACAD_XDICTIONARY
360
13C
102
}
330
2
100
AcDbSymbolTableRecord
100
AcDbLayerTableRecord
  2
0
 70
     0
 62
     7
  6
Continuous
370
    -3
390
F
  0
ENDTAB
  0
TABLE
  2
STYLE
  5
3
330
0
100
AcDbSymbolTable
 70
     2
  0
STYLE
  5
11
330
3
100
AcDbSymbolTableRecord
100
AcDbTextStyleTableRecord
  2
Standard
 70
     0
 40
0.0
 41
1.0
 50
0.0
 71
     0
 42
2.5
  3
arial.ttf
  4

1001
ACAD
1000
Arial
1071
       34
  0
STYLE
  5
132
330
3
100
AcDbSymbolTableRecord
100
AcDbTextStyleTableRecord
  2
Annotative
 70
     0
 40
0.0
 41
1.0
 50
0.0
 71
     0
 42
2.5
  3
arial.ttf
  4

1001
AcadAnnotative
1000
AnnotativeData
1002
{
1070
     1
1070
     1
1002
}
1001
ACAD
1000
Arial
1071
       34
  0
ENDTAB
  0
TABLE
  2
VIEW
  5
6
330
0
100
AcDbSymbolTable
 70
     0
  0
ENDTAB
  0
TABLE
  2
UCS
  5
7
330
0
100
AcDbSymbolTable
 70
     0
  0
ENDTAB
  0
TABLE
  2
APPID
  5
9
330
0
100
AcDbSymbolTable
 70
     8
  0
APPID
  5
12
330
9
100
AcDbSymbolTableRecord
100
AcDbRegAppTableRecord
  2
ACAD
 70
     0
  0
APPID
  5
9E
330
9
100
AcDbSymbolTableRecord
100
AcDbRegAppTableRecord
  2
ACAD_PSEXT
 70
     0
  0
APPID
  5
133
330
9
100
AcDbSymbolTableRecord
100
AcDbRegAppTableRecord
  2
AcadAnnoPO
 70
     0
  0
APPID
  5
134
330
9
100
AcDbSymbolTableRecord
100
AcDbRegAppTableRecord
  2
AcadAnnotative
 70
     0
  0
APPID
  5
135
330
9
100
AcDbSymbolTableRecord
100
AcDbRegAppTableRecord
  2
ACAD_DSTYLE_DIMJAG
 70
     0
  0
APPID
  5
136
330
9
100
AcDbSymbolTableRecord
100
AcDbRegAppTableRecord
  2
ACAD_DSTYLE_DIMTALN
 70
     0
  0
APPID
  5
165
330
9
100
AcDbSymbolTableRecord
100
AcDbRegAppTableRecord
  2
ACAD_MLEADERVER
 70
     0
  0
APPID
  5
217
330
9
100
AcDbSymbolTableRecord
100
AcDbRegAppTableRecord
  2
ACAD_NAV_VCDISPLAY
 70
     0
  0
ENDTAB
  0
TABLE
  2
DIMSTYLE
  5
A
330
0
100
AcDbSymbolTable
 70
     3
100
AcDbDimStyleTable
 71
     0
  0
DIMSTYLE
105
1B0
330
A
100
AcDbSymbolTableRecord
100
AcDbDimStyleTableRecord
  2
Standard
 70
     0
340
11
  0
DIMSTYLE
105
137
330
A
100
AcDbSymbolTableRecord
100
AcDbDimStyleTableRecord
  2
Annotative
 70
     0
 40
0.0
 41
2.5
 42
0.625
 43
3.75
 44
1.25
 73
     0
 74
     0
 77
     1
 78
     8
140
2.5
141
2.5
143
0.03937007874016
147
0.625
171
     3
172
     1
271
     2
272
     2
274
     3
278
    44
283
     0
284
     8
340
11
1001
AcadAnnotative
1000
AnnotativeData
1002
{
1070
     1
1070
     1
1002
}
1001
ACAD_DSTYLE_DIMJAG
1070
   388
1040
1.5
1001
ACAD_DSTYLE_DIMTALN
1070
   392
1070
     0
  0
DIMSTYLE
105
27
330
A
100
AcDbSymbolTableRecord
100
AcDbDimStyleTableRecord
  2
ISO-25
 70
     0
 41
2.5
 42
0.625
 43
3.75
 44
1.25
 73
     0
 74
     0
 77
     1
 78
     8
140
2.5
141
2.5
143
0.03937007874016
147
0.625
171
     3
172
     1
271
     2
272
     2
274
     3
278
    44
283
     0
284
     8
340
11
  0
ENDTAB
  0
TABLE
  2
BLOCK_RECORD
  5
1
330
0
100
AcDbSymbolTable
 70
     7
  0
BLOCK_RECORD
  5
1F
102
{ACAD_XDICTIONARY
360
1CE
102
}
330
1
100
AcDbSymbolTableRecord
100
AcDbBlockTableRecord
  2
*Model_Space
340
22
  0
BLOCK_RECORD
  5
D2
102
{ACAD_XDICTIONARY
360
13AF
102
}
330
1
100
AcDbSymbolTableRecord
100
AcDbBlockTableRecord
  2
*Paper_Space
340
D3
  0
BLOCK_RECORD
  5
D6
102
{ACAD_XDICTIONARY
360
13B1
102
}
330
1
100
AcDbSymbolTableRecord
100
AcDbBlockTableRecord
  2
*Paper_Space0
340
D7
  0
BLOCK_RECORD
  5
1226
330
1
100
AcDbSymbolTableRecord
100
AcDbBlockTableRecord
  2
AA60280-Front
340
0
102
{BLKREFS
331
13A5
102
}
  0
BLOCK_RECORD
  5
1272
330
1
100
AcDbSymbolTableRecord
100
AcDbBlockTableRecord
  2
AA60280-Left
340
0
102
{BLKREFS
331
13A6
102
}
  0
BLOCK_RECORD
  5
128C
330
1
100
AcDbSymbolTableRecord
100
AcDbBlockTableRecord
  2
AA60280-Right
340
0
102
{BLKREFS
331
13A7
102
}
  0
BLOCK_RECORD
  5
12A6
330
1
100
AcDbSymbolTableRecord
100
AcDbBlockTableRecord
  2
AA60280-Top
340
0
102
{BLKREFS
331
13A8
102
}
  0
BLOCK_RECORD
  5
12F2
330
1
100
AcDbSymbolTableRecord
100
AcDbBlockTableRecord
  2
AA60280-Bottom
340
0
102
{BLKREFS
331
13A9
102
}
  0
BLOCK_RECORD
  5
133B
330
1
100
AcDbSymbolTableRecord
100
AcDbBlockTableRecord
  2
AA60280-ISO
340
0
102
{BLKREFS
331
13AA
102
}
  0
ENDTAB
  0
ENDSEC
  0
SECTION
  2
BLOCKS
  0
BLOCK
  5
20
330
1F
100
AcDbEntity
  8
0
100
AcDbBlockBegin
  2
*Model_Space
 70
     0
 10
0.0
 20
0.0
 30
0.0
  3
*Model_Space
  1

  0
ENDBLK
  5
21
330
1F
100
AcDbEntity
  8
0
100
AcDbBlockEnd
  0
BLOCK
  5
D4
330
D2
100
AcDbEntity
 67
     1
  8
0
100
AcDbBlockBegin
  2
*Paper_Space
 70
     0
 10
0.0
 20
0.0
 30
0.0
  3
*Paper_Space
  1

  0
ENDBLK
  5
D5
330
D2
100
AcDbEntity
 67
     1
  8
0
100
AcDbBlockEnd
  0
BLOCK
  5
D8
330
D6
100
AcDbEntity
 67
     1
  8
0
100
AcDbBlockBegin
  2
*Paper_Space0
 70
     0
 10
0.0
 20
0.0
 30
0.0
  3
*Paper_Space0
  1

  0
ENDBLK
  5
D9
330
D6
100
AcDbEntity
 67
     1
  8
0
100
AcDbBlockEnd
  0
BLOCK
  5
1227
330
1226
100
AcDbEntity
  8
0
100
AcDbBlockBegin
  2
AA60280-Front
 70
     0
 10
0.0
 20
0.0
 30
0.0
  3
AA60280-Front
  1

  0
LINE
  5
1229
330
1226
100
AcDbEntity
  8
0
 62
     0
370
     0
100
AcDbLine
 10
-20.0
 20
0.0
 30
0.0
 11
-13.0
 21
0.0
 31
0.0
210
0.0
220
1.0
230
-0.0000000000000002
  0
LINE
  5
122A
330
1226
100
AcDbEntity
  8
0
 62
     0
370
     0
100
AcDbLine
 10
-13.00000000000001
 20
-0.0000000000000071
 30
0.0
 11
-13.00000000000001
 21
1.999999999999995
 31
-0.0000000000000004
210
0.0
220
1.0
230
-0.0000000000000002
  0
LINE
  5
122B
330
1226
100
AcDbEntity
  8
0
 62
     0
370
     0
100
AcDbLine
 10
-13.00000000000001
 20
1.999999999999995
 30
-0.0000000000000004
 11
-20.00000000000001
 21
1.999999999999995
 31
-0.0000000000000004
210
0.0
220
1.0
230
-0.0000000000000002
  0
LINE
  5
122C
330
1226
100
AcDbEntity
  8
0
 62
     0
370
     0
100
AcDbLine
 10
-20.00000000000001
 20
1.999999999999995
 30
-0.0000000000000004
 11
-20.00000000000001
 21
-0.0000000000000071
 31
0.0
210
0.0
220
1.0
230
-0.0000000000000002
  0
LINE
  5
122D
330
1226
100
AcDbEntity
  8
0
 62
     0
370
     0
100
AcDbLine
 10
-20.0
 20
3.999999999999995
 30
-0.0000000000000009
 11
-20.0
 21
1.999999999999993
 31
-0.0000000000000004
210
0.0
220
1.0
230
-0.0000000000000002
  0
LINE
  5
122E
330
1226
100
AcDbEntity
  8
0
 62
     0
370
     0
100
AcDbLine
 10
-20.0
 20
76.00000000000001
 30
-0.0000000000000169
 11
-20.0
 21
3.999999999999986
 31
-0.0000000000000009
210
0.0
220
1.0
230
-0.0000000000000002
  0
LINE
  5
122F
330
1226
100
AcDbEntity
  8
0
 62
     0
370
     0
100
AcDbLine
 10
-13.00000000000001
 20
1.999999999999995
 30
-0.0000000000000004
 11
12.99999999999998
 21
1.999999999999995
 31
-0.0000000000000004
210
0.0
220
1.0
230
-0.0000000000000002
  0
LINE
  5
1230
330
1226
100
AcDbEntity
  8
0
 62
     0
370
     0
100
AcDbLine
 10
19.99999999999999
 20
1.999999999999995
 30
-0.0000000000000004
 11
12.99999999999999
 21
1.999999999999995
 31
-0.0000000000000004
210
0.0
220
1.0
230
-0.0000000000000002
  0
LINE
  5
1231
330
1226
100
AcDbEntity
  8
0
 62
     0
370
     0
100
AcDbLine
 10
12.99999999999998
 20
1.999999999999995
 30
-0.0000000000000004
 11
12.99999999999998
 21
-0.0000000000000071
 31
0.0
210
0.0
220
1.0
230
-0.0000000000000002
  0
LINE
  5
1232
330
1226
100
AcDbEntity
  8
0
 62
     0
370
     0
100
AcDbLine
 10
12.99999999999998
 20
0.0
 30
0.0
 11
19.99999999999998
 21
0.0
 31
0.0
210
0.0
220
1.0
230
-0.0000000000000002
  0
LINE
  5
1233
330
1226
100
AcDbEntity
  8
0
 62
     0
370
     0
100
AcDbLine
 10
19.99999999999999
 20
-0.0000000000000071
 30
0.0
 11
19.99999999999999
 21
1.999999999999995
 31
-0.0000000000000004
210
0.0
220
1.0
230
-0.0000000000000002
  0
LINE
  5
1234
330
1226
100
AcDbEntity
  8
0
 62
     0
370
     0
100
AcDbLine
 10
20.0
 20
3.999999999999986
 30
-0.0000000000000009
 11
20.0
 21
76.00000000000001
 31
-0.0000000000000169
210
0.0
220
1.0
230
-0.0000000000000002
  0
LINE
  5
1235
330
1226
100
AcDbEntity
  8
0
 62
     0
370
     0
100
AcDbLine
 10
20.0
 20
1.999999999999993
 30
-0.0000000000000004
 11
20.0
 21
3.999999999999995
 31
-0.0000000000000009
210
0.0
220
1.0
230
-0.0000000000000002
  0
LINE
  5
1236
330
1226
100
AcDbEntity
  8
0
 62
     0
370
     0
100
AcDbLine
 10
-20.0
 20
76.00000000000001
 30
-0.0000000000000169
 11
-13.0
 21
83.00000000000002
 31
-0.0000000000000184
210
0.0
220
1.0
230
-0.0000000000000002
  0
LINE
  5
1237
330
1226
100
AcDbEntity
  8
0
 62
     0
370
     0
100
AcDbLine
 10
13.0
 20
83.00000000000002
 30
-0.0000000000000184
 11
20.0
 21
76.00000000000001
 31
-0.0000000000000169
210
0.0
220
1.0
230
-0.0000000000000002
  0
LINE
  5
1238
330
1226
100
AcDbEntity
  8
0
 62
     0
370
     0
100
AcDbLine
 10
-6.633728976975006
 20
3.999999999999993
 30
-0.0000000000000009
 11
-20.0
 21
3.999999999999993
 31
-0.0000000000000009
210
0.0
220
1.0
230
-0.0000000000000002
  0
SPLINE
  5
1239
330
1226
100
AcDbEntity
  8
0
 62
     0
370
     0
100
AcDbSpline
210
0.0
220
0.0000000000000002
230
1.0
 70
     8
 71
     3
 72
    10
 73
     6
 74
     0
 42
0.000000001
 43
0.0000000001
 40
0.0
 40
0.0
 40
0.0
 40
0.0
 40
0.1770427345608435
 40
0.1770427345608435
 40
0.3540854691216871
 40
0.3540854691216871
 40
0.3540854691216871
 40
0.3540854691216871
 10
-5.839584554633581
 20
7.449745633768925
 30
-0.0000000000000017
 10
-5.948013659115005
 20
6.869649746121382
 30
-0.0000000000000015
 10
-6.08794030218367
 20
6.296094906608912
 30
-0.0000000000000014
 10
-6.37006037111861
 20
5.15021527328551
 30
-0.0000000000000011
 10
-6.512230988720606
 20
4.577500085207234
 30
-0.000000000000001
 10
-6.633728976975005
 20
3.999999999999993
 30
-0.0000000000000009
  0
ELLIPSE
  5
123A
330
1226
100
AcDbEntity
  8
0
 62
     0
370
     0
100
AcDbEllipse
 10
-0.0100000000000005
 20
-6.202489571198075
 30
0.0000000000000014
 11
-0.0000000000000006
 21
24.74213724585548
 31
-0.0000000000000055
210
0.0
220
0.0000000000000002
230
1.0
 40
0.2825139934574927
 41
0.8396389453967799
 42
0.9862983662227559
  0
SPLINE
  5
123B
330
1226
100
AcDbEntity
  8
0
 62
     0
370
     0
100
AcDbSpline
210
0.0
220
0.0000000000000002
230
1.0
 70
     8
 71
     3
 72
    20
 73
    16
 74
     0
 42
0.000000001
 43
0.0000000001
 40
0.0000000000000001
 40
0.0000000000000001
 40
0.0000000000000001
 40
0.0000000000000001
 40
0.1005274780580242
 40
0.1005274780580242
 40
0.2613714429508628
 40
0.2613714429508628
 40
0.4704685973115529
 40
0.4704685973115529
 40
0.7422948979804502
 40
0.7422948979804502
 40
1.027975637644412
 40
1.027975637644412
 40
1.339985777380144
 40
1.339985777380144
 40
1.422546017711731
 40
1.422546017711731
 40
1.422546017711731
 40
1.422546017711731
 10
5.213370545584478
 20
10.31861828823458
 30
-0.0000000000000023
 10
5.131054933094713
 20
10.64344211124134
 30
-0.0000000000000024
 10
5.018286882216945
 20
10.96055939452643
 30
-0.0000000000000024
 10
4.651001826939262
 20
11.75066676230752
 30
-0.0000000000000026
 10
4.351784988611683
 20
12.20272256892434
 30
-0.0000000000000027
 10
3.525506196595964
 20
13.11817572647838
 30
-0.0000000000000029
 10
2.956836492559315
 20
13.54346755840723
 30
-0.000000000000003
 10
1.511683154439636
 20
14.23752715833317
 30
-0.0000000000000032
 10
0.5945764359331873
 20
14.41868620781381
 30
-0.0000000000000032
 10
-1.260828333160384
 20
14.31154648349933
 30
-0.0000000000000032
 10
-2.195414564988032
 20
13.9984300803812
 30
-0.0000000000000031
 10
-3.852156675986324
 20
12.89186740969614
 30
-0.0000000000000029
 10
-4.543342375790301
 20
12.05757462423081
 30
-0.0000000000000027
 10
-5.057643713184458
 20
10.84696197563951
 30
-0.0000000000000024
 10
-5.14576717105787
 20
10.58538647349344
 30
-0.0000000000000024
 10
-5.213370545591303
 20
10.31861828820763
 30
-0.0000000000000023
  0
ELLIPSE
  5
123C
330
1226
100
AcDbEntity
  8
0
 62
     0
370
     0
100
AcDbEllipse
 10
0.0099999999999996
 20
-6.202489571198075
 30
0.0000000000000014
 11
0.0000000000000006
 21
24.74213724585548
 31
-0.0000000000000055
210
0.0
220
0.0000000000000002
230
1.0
 40
0.2825139934574927
 41
-0.9862983662227849
 42
-0.8396389453953167
  0
SPLINE
  5
123D
330
1226
100
AcDbEntity
  8
0
 62
     0
370
     0
100
AcDbSpline
210
0.0
220
0.0000000000000002
230
1.0
 70
     8
 71
     3
 72
    10
 73
     6
 74
     0
 42
0.000000001
 43
0.0000000001
 40
0.0000000000000002
 40
0.0000000000000002
 40
0.0000000000000002
 40
0.0000000000000002
 40
0.1770427345608053
 40
0.1770427345608053
 40
0.3540854691216105
 40
0.3540854691216105
 40
0.3540854691216105
 40
0.3540854691216105
 10
6.633728976975005
 20
3.999999999999996
 30
-0.0000000000000009
 10
6.512230988720633
 20
4.57750008520711
 30
-0.000000000000001
 10
6.37006037111867
 20
5.150215273285265
 30
-0.0000000000000011
 10
6.087940302183792
 20
6.296094906608416
 30
-0.0000000000000014
 10
5.948013659115152
 20
6.869649746120757
 30
-0.0000000000000015
 10
5.839584554633723
 20
7.44974563376817
 30
-0.0000000000000017
  0
LINE
  5
123E
330
1226
100
AcDbEntity
  8
0
 62
     0
370
     0
100
AcDbLine
 10
20.0
 20
3.999999999999993
 30
-0.0000000000000009
 11
6.633728976975003
 21
3.999999999999993
 31
-0.0000000000000009
210
0.0
220
1.0
230
-0.0000000000000002
  0
LINE
  5
123F
330
1226
100
AcDbEntity
  8
0
 62
     0
370
     0
100
AcDbLine
 10
-13.0
 20
83.00000000000002
 30
-0.0000000000000184
 11
13.0
 21
83.00000000000002
 31
-0.0000000000000184
210
0.0
220
1.0
230
-0.0000000000000002
  0
CIRCLE
  5
1240
330
1226
100
AcDbEntity
  8
0
 62
     0
370
     0
100
AcDbCircle
 10
12.0
 20
63.00000000000002
 30
0.0
 40
2.5
210
0.0
220
-0.0000000000000002
230
-1.0
  0
CIRCLE
  5
1241
330
1226
100
AcDbEntity
  8
0
 62
     0
370
     0
100
AcDbCircle
 10
12.0
 20
43.00000000000001
 30
0.0
 40
2.5
210
0.0
220
-0.0000000000000002
230
-1.0
  0
CIRCLE
  5
1242
330
1226
100
AcDbEntity
  8
0
 62
     0
370
     0
100
AcDbCircle
 10
-12.0
 20
73.00000000000001
 30
0.0
 40
2.5
210
0.0
220
-0.0000000000000002
230
-1.0
  0
CIRCLE
  5
1243
330
1226
100
AcDbEntity
  8
0
 62
     0
370
     0
100
AcDbCircle
 10
-12.0
 20
53.00000000000002
 30
0.0
 40
2.5
210
0.0
220
-0.0000000000000002
230
-1.0
  0
CIRCLE
  5
1244
330
1226
100
AcDbEntity
  8
0
 62
     0
370
     0
100
AcDbCircle
 10
-12.0
 20
33.00000000000002
 30
0.0
 40
2.5
210
0.0
220
-0.0000000000000002
230
-1.0
  0
ELLIPSE
  5
1245
330
1226
100
AcDbEntity
  8
0
 62
     0
370
     0
100
AcDbEllipse
 10
6.61900123702642
 20
2.999999999999994
 30
-0.0000000000000007
 11
-0.0000000000000009
 21
-1.0
 31
0.0000000000000002
210
0.0
220
-0.0000000000000002
230
-1.0
 40
0.9743580419612397
 41
0.0
 42
1.326782608625737
  0
SPLINE
  5
1246
330
1226
100
AcDbEntity
  8
0
 62
     0
370
     0
100
AcDbSpline
210
0.0
220
0.0000000000000002
230
1.0
 70
     8
 71
     3
 72
    15
 73
    11
 74
     0
 42
0.000000001
 43
0.0000000001
 40
-0.3362174389793653
 40
-0.3362174389793653
 40
-0.3362174389793653
 40
-0.3362174389793653
 40
-0.252163079234524
 40
-0.252163079234524
 40
-0.1681087194896827
 40
-0.1681087194896827
 40
-0.1681087194896827
 40
-0.0840543597448414
 40
-0.0840543597448414
 40
0.0
 40
0.0
 40
0.0
 40
0.0
 10
5.673507497823784
 20
2.758400621846885
 30
-0.0000000000000006
 10
5.61948468593954
 20
2.73389758110566
 30
-0.0000000000000006
 10
5.5605017203049
 20
2.708906674128194
 30
-0.0000000000000006
 10
5.436027850439848
 20
2.658562266478509
 30
-0.0000000000000006
 10
5.370528195120472
 20
2.633205559020828
 30
-0.0000000000000006
 10
5.303809557304022
 20
2.608121146395001
 30
-0.0000000000000006
 10
5.237090919487571
 20
2.583036733769172
 30
-0.0000000000000006
 10
5.169143940903127
 20
2.558221876729094
 30
-0.0000000000000006
 10
5.035835982159273
 20
2.51043713895048
 30
-0.0000000000000006
 10
4.970472041578542
 20
2.487467090770298
 30
-0.0000000000000006
 10
4.909499383737535
 20
2.466293126179137
 30
-0.0000000000000005
  0
ELLIPSE
  5
1247
330
1226
100
AcDbEntity
  8
0
 62
     0
370
     0
100
AcDbEllipse
 10
5.727445858485037
 20
2.999999999999992
 30
-0.0000000000000007
 11
0.0000000000000095
 21
-0.9999999999999998
 31
0.0000000000000002
210
0.0
220
0.0000000000000002
230
1.0
 40
0.9672176127227608
 41
-1.007818434028786
 42
-0.0000000000000102
  0
LINE
  5
1248
330
1226
100
AcDbEntity
  8
0
 62
     0
370
     0
100
AcDbLine
 10
6.633728976975003
 20
3.999999999999995
 30
-0.0000000000000009
 11
5.686128264961411
 21
3.800637985816445
 31
-0.0000000000000008
210
0.0
220
1.0
230
-0.0000000000000002
  0
SPLINE
  5
1249
330
1226
100
AcDbEntity
  8
0
 62
     0
370
     0
100
AcDbSpline
210
0.0
220
0.0000000000000002
230
1.0
 70
     8
 71
     3
 72
    16
 73
    12
 74
     0
 42
0.000000001
 43
0.0000000001
 40
-0.1582918225466278
 40
-0.1582918225466278
 40
-0.1582918225466278
 40
-0.1582918225466278
 40
-0.1382129003529435
 40
-0.1382129003529435
 40
-0.0875997255758093
 40
-0.0875997255758093
 40
-0.0486665142087829
 40
-0.0486665142087829
 40
-0.0187178900803011
 40
-0.0187178900803011
 40
0.0
 40
0.0
 40
0.0
 40
0.0
 10
5.686128264961411
 20
3.800637985816445
 30
-0.0000000000000008
 10
5.69793639212517
 20
3.737332468846103
 30
-0.0000000000000008
 10
5.708128905876376
 20
3.673225952917339
 30
-0.0000000000000008
 10
5.738382664891749
 20
3.449478383145038
 30
-0.0000000000000008
 10
5.74991743884637
 20
3.293134982121763
 30
-0.0000000000000007
 10
5.753319459761934
 20
3.059528713948757
 30
-0.0000000000000007
 10
5.749110166047854
 20
2.972372493975965
 30
-0.0000000000000007
 10
5.73135339753143
 20
2.854809713360782
 30
-0.0000000000000006
 10
5.720167878089803
 20
2.815899325197981
 30
-0.0000000000000006
 10
5.696167210362844
 20
2.77453684581609
 30
-0.0000000000000006
 10
5.685537725140338
 20
2.763857152889651
 30
-0.0000000000000006
 10
5.673507497823782
 20
2.758400621846887
 30
-0.0000000000000006
  0
SPLINE
  5
124A
330
1226
100
AcDbEntity
  8
0
 62
     0
370
     0
100
AcDbSpline
210
0.0
220
0.0000000000000002
230
1.0
 70
     8
 71
     3
 72
    16
 73
    12
 74
     0
 42
0.000000001
 43
0.0000000001
 40
0.0
 40
0.0
 40
0.0
 40
0.0
 40
0.0187178900803011
 40
0.0187178900803011
 40
0.0486665142087829
 40
0.0486665142087829
 40
0.0875997255758093
 40
0.0875997255758093
 40
0.1382129003529435
 40
0.1382129003529435
 40
0.1582918225466278
 40
0.1582918225466278
 40
0.1582918225466278
 40
0.1582918225466278
 10
6.619001237026418
 20
1.999999999999993
 30
-0.0000000000000004
 10
6.633039849537725
 20
1.999999999999993
 30
-0.0000000000000004
 10
6.645443873194705
 20
2.011128975871426
 30
-0.0000000000000004
 10
6.673451330191606
 20
2.069424140464199
 30
-0.0000000000000005
 10
6.686504215149366
 20
2.134369676788796
 30
-0.0000000000000005
 10
6.707225385755343
 20
2.345672697456986
 30
-0.0000000000000005
 10
6.712137399622022
 20
2.510797104028569
 30
-0.0000000000000006
 10
6.708167428637084
 20
2.96674666282992
 30
-0.0000000000000007
 10
6.694706982903727
 20
3.280311778529589
 30
-0.0000000000000007
 10
6.659402512867425
 20
3.737212905577741
 30
-0.0000000000000008
 10
6.647508410843898
 20
3.869008131776935
 30
-0.0000000000000009
 10
6.633728976975005
 20
3.999999999999996
 30
-0.0000000000000009
  0
LINE
  5
124B
330
1226
100
AcDbEntity
  8
0
 62
     0
370
     0
100
AcDbLine
 10
5.839584554633722
 20
7.449745633768172
 30
-0.0000000000000017
 11
5.005595347962231
 21
7.293859848759272
 31
-0.0000000000000016
210
0.0
220
1.0
230
-0.0000000000000002
  0
SPLINE
  5
124C
330
1226
100
AcDbEntity
  8
0
 62
     0
370
     0
100
AcDbSpline
210
0.0
220
0.0000000000000002
230
1.0
 70
     8
 71
     3
 72
    10
 73
     6
 74
     0
 42
0.000000001
 43
0.0000000001
 40
-0.3540854691216105
 40
-0.3540854691216105
 40
-0.3540854691216105
 40
-0.3540854691216105
 40
-0.1770427345608053
 40
-0.1770427345608053
 40
-0.0000000000000002
 40
-0.0000000000000002
 40
-0.0000000000000002
 40
-0.0000000000000002
 10
5.005595347962231
 20
7.293859848758899
 30
-0.0000000000000016
 10
5.098512420329005
 20
6.679095638078122
 30
-0.0000000000000015
 10
5.218420945648199
 20
6.083998241553005
 30
-0.0000000000000014
 10
5.460180489699689
 20
4.924216853066703
 30
-0.0000000000000011
 10
5.582011963152587
 20
4.358824412812018
 30
-0.000000000000001
 10
5.686128264961412
 20
3.800637985816445
 30
-0.0000000000000008
  0
LINE
  5
124D
330
1226
100
AcDbEntity
  8
0
 62
     0
370
     0
100
AcDbLine
 10
5.213370545584478
 20
10.31861828823458
 30
-0.0000000000000023
 11
4.468968464671106
 21
10.1299747562983
 31
-0.0000000000000022
210
0.0
220
1.0
230
-0.0000000000000002
  0
ELLIPSE
  5
124E
330
1226
100
AcDbEntity
  8
0
 62
     0
370
     0
100
AcDbEllipse
 10
0.0099999999999993
 20
-6.202489571198076
 30
0.0000000000000014
 11
0.0000000000000007
 21
24.45962325239799
 31
-0.0000000000000054
210
0.0
220
-0.0000000000000002
230
-1.0
 40
0.2448933876940541
 41
0.8396389453953167
 42
0.9862983662227771
  0
LINE
  5
124F
330
1226
100
AcDbEntity
  8
0
 62
     0
370
     0
100
AcDbLine
 10
-5.213370545591304
 20
10.31861828820763
 30
-0.0000000000000023
 11
-4.468968464676953
 21
10.12997475628583
 31
-0.0000000000000022
210
0.0
220
1.0
230
-0.0000000000000002
  0
SPLINE
  5
1250
330
1226
100
AcDbEntity
  8
0
 62
     0
370
     0
100
AcDbSpline
210
0.0
220
0.0000000000000002
230
1.0
 70
     8
 71
     3
 72
    20
 73
    16
 74
     0
 42
0.000000001
 43
0.0000000001
 40
-1.422546017711731
 40
-1.422546017711731
 40
-1.422546017711731
 40
-1.422546017711731
 40
-1.339985777380144
 40
-1.339985777380144
 40
-1.027975637644412
 40
-1.027975637644412
 40
-0.7422948979804502
 40
-0.7422948979804502
 40
-0.4704685973115529
 40
-0.4704685973115529
 40
-0.2613714429508628
 40
-0.2613714429508628
 40
-0.1005274780580242
 40
-0.1005274780580242
 40
-0.0000000000000001
 40
-0.0000000000000001
 40
-0.0000000000000001
 40
-0.0000000000000001
 10
-4.468968464676954
 20
10.1299747562752
 30
-0.0000000000000022
 10
-4.411036531421551
 20
10.35865187283747
 30
-0.0000000000000023
 10
-4.335514529922718
 20
10.58288062415212
 30
-0.0000000000000023
 10
-3.894733123822109
 20
11.62066094201283
 30
-0.0000000000000026
 10
-3.302290766457827
 20
12.3358966516485
 30
-0.0000000000000027
 10
-1.882095219661372
 20
13.28459797485954
 30
-0.0000000000000029
 10
-1.080896242078345
 20
13.55306938440251
 30
-0.000000000000003
 10
0.5097245410424182
 20
13.64493157169151
 30
-0.000000000000003
 10
1.295954214891818
 20
13.48959986451744
 30
-0.000000000000003
 10
2.534810461049408
 20
12.89453713676741
 30
-0.0000000000000029
 10
3.022278920264911
 20
12.5299170127472
 30
-0.0000000000000028
 10
3.730534964915411
 20
11.74510459586518
 30
-0.0000000000000026
 10
3.986998389222891
 20
11.35757161440195
 30
-0.0000000000000025
 10
4.301785432203429
 20
10.68025919368015
 30
-0.0000000000000024
 10
4.398429048531806
 20
10.40841791156563
 30
-0.0000000000000023
 10
4.468968464671104
 20
10.1299747562983
 30
-0.0000000000000022
  0
LINE
  5
1251
330
1226
100
AcDbEntity
  8
0
 62
     0
370
     0
100
AcDbLine
 10
-5.839584554633585
 20
7.449745633768927
 30
-0.0000000000000017
 11
-5.005595347962114
 21
7.293859848759699
 31
-0.0000000000000016
210
0.0
220
1.0
230
-0.0000000000000002
  0
ELLIPSE
  5
1252
330
1226
100
AcDbEntity
  8
0
 62
     0
370
     0
100
AcDbEllipse
 10
-0.0100000000000007
 20
-6.202489571198076
 30
0.0000000000000014
 11
-0.0000000000000003
 21
24.45962325239799
 31
-0.0000000000000054
210
0.0
220
-0.0000000000000002
230
-1.0
 40
0.2448933876940541
 41
-0.9862983662227559
 42
-0.8396389453964111
  0
LINE
  5
1253
330
1226
100
AcDbEntity
  8
0
 62
     0
370
     0
100
AcDbLine
 10
-6.633728976975006
 20
3.999999999999993
 30
-0.0000000000000009
 11
-5.686128264961413
 21
3.800637985816443
 31
-0.0000000000000008
210
0.0
220
1.0
230
-0.0000000000000002
  0
SPLINE
  5
1254
330
1226
100
AcDbEntity
  8
0
 62
     0
370
     0
100
AcDbSpline
210
0.0
220
0.0000000000000002
230
1.0
 70
     8
 71
     3
 72
    10
 73
     6
 74
     0
 42
0.000000001
 43
0.0000000001
 40
-0.3540854691216871
 40
-0.3540854691216871
 40
-0.3540854691216871
 40
-0.3540854691216871
 40
-0.1770427345608435
 40
-0.1770427345608435
 40
0.0
 40
0.0
 40
0.0
 40
0.0
 10
-5.686128264961415
 20
3.800637985816443
 30
-0.0000000000000008
 10
-5.582011963152567
 20
4.35882441281214
 30
-0.000000000000001
 10
-5.46018048969964
 20
4.924216853066944
 30
-0.0000000000000011
 10
-5.218420945648096
 20
6.083998241553512
 30
-0.0000000000000014
 10
-5.098512420328884
 20
6.679095638078775
 30
-0.0000000000000015
 10
-5.005595347962112
 20
7.2938598487597
 30
-0.0000000000000016
  0
ELLIPSE
  5
1255
330
1226
100
AcDbEntity
  8
0
 62
     0
370
     0
100
AcDbEllipse
 10
-6.619001237026421
 20
2.999999999999996
 30
-0.0000000000000007
 11
0.0000000000000009
 21
-1.000000000000002
 31
0.0000000000000002
210
0.0
220
0.0000000000000002
230
1.0
 40
0.9743580419612396
 41
0.0
 42
1.326782608625738
  0
SPLINE
  5
1256
330
1226
100
AcDbEntity
  8
0
 62
     0
370
     0
100
AcDbSpline
210
0.0
220
0.0000000000000002
230
1.0
 70
     8
 71
     3
 72
    16
 73
    12
 74
     0
 42
0.000000001
 43
0.0000000001
 40
-0.1582917721517041
 40
-0.1582917721517041
 40
-0.1582917721517041
 40
-0.1582917721517041
 40
-0.1377861779390637
 40
-0.1377861779390637
 40
-0.0873292677078573
 40
-0.0873292677078573
 40
-0.0485162598376985
 40
-0.0485162598376985
 40
-0.0186600999375764
 40
-0.0186600999375764
 40
0.0
 40
0.0
 40
0.0
 40
0.0
 10
-5.673507497823785
 20
2.758400621846887
 30
-0.0000000000000006
 10
-5.686686705447124
 20
2.764378294057354
 30
-0.0000000000000006
 10
-5.698184588636062
 20
2.776630261733705
 30
-0.0000000000000006
 10
-5.73216679854542
 20
2.840702292939581
 30
-0.0000000000000006
 10
-5.746184454272714
 20
2.925006048238683
 30
-0.0000000000000006
 10
-5.754003439238629
 20
3.127067672007278
 30
-0.0000000000000007
 10
-5.751736907859648
 20
3.232280434647756
 30
-0.0000000000000007
 10
-5.737566413860589
 20
3.434974607542371
 30
-0.0000000000000008
 10
-5.727991206531762
 20
3.528537112844325
 30
-0.0000000000000008
 10
-5.706680536833035
 20
3.682283847634542
 30
-0.0000000000000008
 10
-5.697102003034898
 20
3.741805780488308
 30
-0.0000000000000008
 10
-5.686128264961415
 20
3.800637985816443
 30
-0.0000000000000008
  0
SPLINE
  5
1257
330
1226
100
AcDbEntity
  8
0
 62
     0
370
     0
100
AcDbSpline
210
0.0
220
0.0000000000000002
230
1.0
 70
     8
 71
     3
 72
    16
 73
    12
 74
     0
 42
0.000000001
 43
0.0000000001
 40
0.0
 40
0.0
 40
0.0
 40
0.0
 40
0.0186600999375764
 40
0.0186600999375764
 40
0.0485162598376985
 40
0.0485162598376985
 40
0.0873292677078573
 40
0.0873292677078573
 40
0.1377861779390637
 40
0.1377861779390637
 40
0.1582917721517041
 40
0.1582917721517041
 40
0.1582917721517041
 40
0.1582917721517041
 10
-6.633728976975006
 20
3.999999999999991
 30
-0.0000000000000009
 10
-6.646534724743561
 20
3.878264314763813
 30
-0.0000000000000009
 10
-6.65771234598713
 20
3.755838944886008
 30
-0.0000000000000008
 10
-6.682580723481972
 20
3.441580059230453
 30
-0.0000000000000008
 10
-6.693754462919116
 20
3.252293872705231
 30
-0.0000000000000007
 10
-6.710290648737719
 20
2.847297020427224
 30
-0.0000000000000006
 10
-6.712935565989653
 20
2.64106382672278
 30
-0.0000000000000006
 10
-6.70381124129654
 20
2.256561814006031
 30
-0.0000000000000005
 10
-6.68745340932095
 20
2.106500297127693
 30
-0.0000000000000005
 10
-6.647798042498509
 20
2.013368381141027
 30
-0.0000000000000004
 10
-6.634380646256326
 20
1.999999999999993
 30
-0.0000000000000004
 10
-6.61900123702642
 20
1.999999999999993
 30
-0.0000000000000004
  0
ELLIPSE
  5
1258
330
1226
100
AcDbEntity
  8
0
 62
     0
370
     0
100
AcDbEllipse
 10
-5.72744585848504
 20
2.999999999999992
 30
-0.0000000000000007
 11
0.0
 21
-0.9999999999999984
 31
0.0000000000000002
210
0.0
220
0.0000000000000002
230
1.0
 40
0.9672176127227597
 41
0.0000000000000019
 42
1.00781843402878
  0
SPLINE
  5
1259
330
1226
100
AcDbEntity
  8
0
 62
     0
370
     0
100
AcDbSpline
210
0.0
220
0.0000000000000002
230
1.0
 70
     8
 71
     3
 72
    10
 73
     6
 74
     0
 42
0.000000001
 43
0.0000000001
 40
-0.3362174389793655
 40
-0.3362174389793655
 40
-0.3362174389793655
 40
-0.3362174389793655
 40
-0.1681087194896828
 40
-0.1681087194896828
 40
-0.0000000000000001
 40
-0.0000000000000001
 40
-0.0000000000000001
 40
-0.0000000000000001
 10
-4.909499383737539
 20
2.466293126179135
 30
-0.0000000000000005
 10
-5.031444699419552
 20
2.508641055361458
 30
-0.0000000000000006
 10
-5.170372281671124
 20
2.557952321143343
 30
-0.0000000000000006
 10
-5.437246832936924
 20
2.658289971646655
 30
-0.0000000000000006
 10
-5.565461874055298
 20
2.709394540364438
 30
-0.0000000000000006
 10
-5.673507497823785
 20
2.758400621846887
 30
-0.0000000000000006
  0
ELLIPSE
  5
125A
330
1226
100
AcDbEntity
  8
0
 62
     0
370
     0
100
AcDbEllipse
 10
-4.405127212166661
 20
2.999999999999994
 30
-0.0000000000000007
 11
0.0000000000000027
 21
-1.0
 31
0.0000000000000002
210
0.0
220
0.0000000000000002
230
1.0
 40
0.9079209315302046
 41
0.0000000000000009
 42
0.7650072174595567
  0
ELLIPSE
  5
125B
330
1226
100
AcDbEntity
  8
0
 62
     0
370
     0
100
AcDbEllipse
 10
-0.0099999999999992
 20
2.999999999999993
 30
-0.0000000000000007
 11
-5.99
 21
0.0000000000000005
 31
0.0
210
0.0
220
-0.0000000000000002
230
-1.0
 40
0.1548766268418439
 41
-0.8908213531991775
 42
-0.612963940917009
  0
ELLIPSE
  5
125C
330
1226
100
AcDbEntity
  8
0
 62
     0
370
     0
100
AcDbEllipse
 10
4.40512721226346
 20
3.000000000000002
 30
-0.0000000000000007
 11
-0.0000000000000036
 21
-1.000000000000008
 31
0.0000000000000002
210
0.0
220
-0.0000000000000002
230
-1.0
 40
0.907920931592673
 41
0.0000000000000018
 42
0.7650072174146474
  0
SPLINE
  5
125D
330
1226
100
AcDbEntity
  8
0
 62
     0
370
     0
100
AcDbSpline
210
0.0
220
0.0000000000000002
230
1.0
 70
     8
 71
     3
 72
    18
 73
    14
 74
     0
 42
0.000000001
 43
0.0000000001
 40
-1.104473507680125
 40
-1.104473507680125
 40
-1.104473507680125
 40
-1.104473507680125
 40
-0.9239432375870533
 40
-0.9239432375870533
 40
-0.6590823849107775
 40
-0.6590823849107775
 40
-0.4177282721265497
 40
-0.4177282721265497
 40
-0.2320712622925281
 40
-0.2320712622925281
 40
-0.0892581778048194
 40
-0.0892581778048194
 40
-0.0000000000000014
 40
-0.0000000000000014
 40
-0.0000000000000014
 40
-0.0000000000000014
 10
3.776353648277268
 20
2.278622640939987
 30
-0.0000000000000005
 10
3.560211696621959
 20
2.278551269253771
 30
-0.0000000000000005
 10
3.25597057782395
 20
2.278473176766868
 30
-0.0000000000000005
 10
2.338933486513335
 20
2.278275993693536
 30
-0.0000000000000005
 10
1.647595643440059
 20
2.278150127405251
 30
-0.0000000000000005
 10
0.2356219963981892
 20
2.278029125285647
 30
-0.0000000000000005
 10
-0.4751392378420782
 20
2.278039204758139
 30
-0.0000000000000005
 10
-1.649014539529877
 20
2.278162212327961
 30
-0.0000000000000005
 10
-2.131031349099223
 20
2.278242957833667
 30
-0.0000000000000005
 10
-2.872618515943671
 20
2.278387745159163
 30
-0.0000000000000005
 10
-3.157872263059257
 20
2.278451799333862
 30
-0.0000000000000005
 10
-3.541250091726644
 20
2.278550541132355
 30
-0.0000000000000005
 10
-3.669488263547328
 20
2.27858735319206
 30
-0.0000000000000005
 10
-3.776353648194317
 20
2.278622640939956
 30
-0.0000000000000005
  0
ELLIPSE
  5
125E
330
1226
100
AcDbEntity
  8
0
 62
     0
370
     0
100
AcDbEllipse
 10
0.0100000000000008
 20
2.999999999999993
 30
-0.0000000000000007
 11
-5.99
 21
0.0000000000000005
 31
0.0
210
0.0
220
-0.0000000000000002
230
-1.0
 40
0.1548766268418439
 41
-2.528628712672783
 42
-2.250771300408424
  0
ELLIPSE
  5
125F
330
1226
100
AcDbEntity
  8
0
 62
     0
370
     0
100
AcDbEllipse
 10
-0.0100000000000005
 20
-0.7306110480089992
 30
0.0000000000000002
 11
5.990000000000002
 21
-0.0000000000005786
 31
0.0
210
0.0
220
-0.0000000000000002
230
-1.0
 40
0.9277109947826451
 41
-2.528628712672951
 42
-1.570796326795007
  0
LINE
  5
1260
330
1226
100
AcDbEntity
  8
0
 62
     0
370
     0
100
AcDbLine
 10
-0.0100000000000018
 20
4.82637781073905
 30
-0.0000000000000011
 11
-0.0100000000000011
 21
8.052362817364816
 31
-0.0000000000000018
210
0.0
220
1.0
230
-0.0000000000000002
  0
ELLIPSE
  5
1261
330
1226
100
AcDbEntity
  8
0
 62
     0
370
     0
100
AcDbEllipse
 10
-0.0099999999999993
 20
6.360103996554427
 30
-0.0000000000000014
 11
-5.990000000000008
 21
0.0000000000000028
 31
0.0
210
0.0
220
0.0000000000000002
230
1.0
 40
0.2825139934574933
 41
-1.570796326794896
 42
-0.5844979605721421
  0
ELLIPSE
  5
1262
330
1226
100
AcDbEntity
  8
0
 62
     0
370
     0
100
AcDbEllipse
 10
-0.010000000000002
 20
-2.042427739829672
 30
0.0000000000000005
 11
-5.990000000000009
 21
-0.0000000000000003
 31
0.0
210
0.0
220
0.0000000000000002
230
1.0
 40
0.9277109947826451
 41
-1.570796326794896
 42
-0.8908213531991783
  0
LINE
  5
1263
330
1226
100
AcDbEntity
  8
0
 62
     0
370
     0
100
AcDbLine
 10
-0.0100000000000025
 20
3.514561118918379
 30
-0.0000000000000008
 11
-0.0100000000000018
 21
4.82637781073905
 31
-0.0000000000000011
210
0.0
220
1.0
230
-0.0000000000000002
  0
ELLIPSE
  5
1264
330
1226
100
AcDbEntity
  8
0
 62
     0
370
     0
100
AcDbEllipse
 10
0.0099999999999993
 20
-2.042427739829658
 30
0.0000000000000005
 11
5.989999999999994
 21
0.0000000000000003
 31
0.0
210
0.0
220
-0.0000000000000002
230
-1.0
 40
0.9277109947826446
 41
-1.570796326794896
 42
-0.8908213531813675
  0
ELLIPSE
  5
1265
330
1226
100
AcDbEntity
  8
0
 62
     0
370
     0
100
AcDbEllipse
 10
-0.0000000000000025
 20
3.51456111891838
 30
-0.0000000000000008
 11
-0.0100000000000011
 21
0.0
 31
0.0
210
0.0
220
-0.0000000000000002
230
-1.0
 40
0.4023874088557841
 41
-3.141592653589793
 42
0.0000000000000002
  0
ELLIPSE
  5
1266
330
1226
100
AcDbEntity
  8
0
 62
     0
370
     0
100
AcDbEllipse
 10
0.0099999999999989
 20
-0.7306110480089957
 30
0.0000000000000002
 11
5.990000000000003
 21
-0.0000000000000006
 31
0.0
210
0.0
220
-0.0000000000000002
230
-1.0
 40
0.9277109947826451
 41
-1.570796326794896
 42
-0.6129639409169524
  0
LINE
  5
1267
330
1226
100
AcDbEntity
  8
0
 62
     0
370
     0
100
AcDbLine
 10
0.0099999999999982
 20
4.826377810739051
 30
-0.0000000000000011
 11
0.0099999999999975
 21
3.514561118918379
 31
-0.0000000000000008
210
0.0
220
1.0
230
-0.0000000000000002
  0
LINE
  5
1268
330
1226
100
AcDbEntity
  8
0
 62
     0
370
     0
100
AcDbLine
 10
-13.00000000000001
 20
-0.0000000000000067
 30
0.0
 11
12.99999999999998
 21
-0.0000000000000067
 31
0.0
210
0.0
220
1.0
230
-0.0000000000000002
  0
ELLIPSE
  5
1269
330
1226
100
AcDbEntity
  8
0
 62
     0
370
     0
100
AcDbEllipse
 10
0.0100000000000025
 20
9.000000000000007
 30
-0.000000000000002
 11
5.989999999999995
 21
-0.0000000000000025
 31
0.0
210
0.0
220
-0.0000000000000002
230
-1.0
 40
0.2825139934574921
 41
-1.570796326794897
 42
-0.7311573813995801
  0
LINE
  5
126A
330
1226
100
AcDbEntity
  8
0
 62
     0
370
     0
100
AcDbLine
 10
0.0099999999999991
 20
10.69225882081038
 30
-0.0000000000000024
 11
0.0099999999999989
 21
8.052362817364814
 31
-0.0000000000000018
210
0.0
220
1.0
230
-0.0000000000000002
  0
ELLIPSE
  5
126B
330
1226
100
AcDbEntity
  8
0
 62
     0
370
     0
100
AcDbEllipse
 10
0.0100000000000016
 20
6.360103996554432
 30
-0.0000000000000014
 11
5.989999999999998
 21
0.0000000000000017
 31
0.0
210
0.0
220
-0.0000000000000002
230
-1.0
 40
0.2825139934574929
 41
-1.570796326794896
 42
-0.5844979605721037
  0
ELLIPSE
  5
126C
330
1226
100
AcDbEntity
  8
0
 62
     0
370
     0
100
AcDbEllipse
 10
-0.0100000000000002
 20
9.000000000000008
 30
-0.000000000000002
 11
-5.989999999999998
 21
-0.000000000000003
 31
0.0
210
0.0
220
0.0000000000000002
230
1.0
 40
0.2825139934574917
 41
-1.570796326794896
 42
-0.7311573813981171
  0
ARC
  5
126D
330
1226
100
AcDbEntity
  8
0
 62
     0
370
     0
100
AcDbCircle
 10
0.0000000000000009
 20
10.69225882081038
 30
0.0
 40
0.0100000000000011
210
0.0
220
-0.0000000000000002
230
-1.0
100
AcDbArc
 50
0.0
 51
180.0
  0
LINE
  5
126E
330
1226
100
AcDbEntity
  8
0
 62
     0
370
     0
100
AcDbLine
 10
-0.0100000000000011
 20
8.052362817364814
 30
-0.0000000000000018
 11
-0.010000000000001
 21
10.69225882081038
 31
-0.0000000000000024
210
0.0
220
1.0
230
-0.0000000000000002
  0
LINE
  5
126F
330
1226
100
AcDbEntity
  8
0
 62
     0
370
     0
100
AcDbLine
 10
0.0099999999999989
 20
8.052362817364816
 30
-0.0000000000000018
 11
0.0099999999999982
 21
4.82637781073905
 31
-0.0000000000000011
210
0.0
220
1.0
230
-0.0000000000000002
  0
LINE
  5
1270
330
1226
100
AcDbEntity
  8
0
 62
     0
370
     0
100
AcDbLine
 10
-0.0100000000000011
 20
8.052362817364814
 30
-0.0000000000000018
 11
0.0099999999999989
 21
8.052362817364814
 31
-0.0000000000000018
210
0.0
220
1.0
230
-0.0000000000000002
  0
LINE
  5
1271
330
1226
100
AcDbEntity
  8
0
 62
     0
370
     0
100
AcDbLine
 10
-0.0100000000000018
 20
4.826377810739051
 30
-0.0000000000000011
 11
0.0099999999999982
 21
4.826377810739051
 31
-0.0000000000000011
210
0.0
220
1.0
230
-0.0000000000000002
  0
ENDBLK
  5
1228
330
1226
100
AcDbEntity
  8
0
100
AcDbBlockEnd
  0
BLOCK
  5
1273
330
1272
100
AcDbEntity
  8
0
100
AcDbBlockBegin
  2
AA60280-Left
 70
     0
 10
0.0
 20
0.0
 30
0.0
  3
AA60280-Left
  1

  0
LINE
  5
1275
330
1272
100
AcDbEntity
  8
0
100
AcDbLine
 10
55.0
 20
0.0
 30
0.0
 11
62.0
 21
0.0
 31
0.0
  0
LINE
  5
1276
330
1272
100
AcDbEntity
  8
0
100
AcDbLine
 10
0.0
 20
4.000000000000005
 30
0.0
 11
0.0
 21
76.00000000000001
 31
0.0
  0
LINE
  5
1277
330
1272
100
AcDbEntity
  8
0
100
AcDbLine
 10
55.0
 20
0.0
 30
0.0
 11
4.000000000000003
 21
0.0
 31
0.0
  0
LINE
  5
1278
330
1272
100
AcDbEntity
  8
0
100
AcDbLine
 10
0.0
 20
83.0
 30
0.0
 11
0.0
 21
76.00000000000001
 31
0.0
  0
LINE
  5
1279
330
1272
100
AcDbEntity
  8
0
100
AcDbLine
 10
62.0
 20
0.0
 30
0.0
 11
62.0
 21
1.999999999999998
 31
0.0
  0
LINE
  5
127A
330
1272
100
AcDbEntity
  8
0
100
AcDbLine
 10
62.0
 20
1.999999999999998
 30
0.0
 11
55.0
 21
1.999999999999999
 31
0.0
  0
LINE
  5
127B
330
1272
100
AcDbEntity
  8
0
100
AcDbLine
 10
55.0
 20
1.999999999999999
 30
0.0
 11
55.0
 21
0.0
 31
0.0
  0
LINE
  5
127C
330
1272
100
AcDbEntity
  8
0
100
AcDbLine
 10
0.0
 20
76.00000000000001
 30
0.0
 11
2.000000000000006
 21
76.00000000000001
 31
0.0
  0
LINE
  5
127D
330
1272
100
AcDbEntity
  8
0
100
AcDbLine
 10
2.000000000000006
 20
76.00000000000001
 30
0.0
 11
2.000000000000007
 21
83.0
 31
0.0
  0
LINE
  5
127E
330
1272
100
AcDbEntity
  8
0
100
AcDbLine
 10
2.000000000000007
 20
83.0
 30
0.0
 11
0.0
 21
83.0
 31
0.0
  0
LINE
  5
127F
330
1272
100
AcDbEntity
  8
0
100
AcDbLine
 10
4.000000000000007
 20
1.999999999999997
 30
0.0
 11
55.0
 21
1.999999999999999
 31
0.0
  0
LINE
  5
1280
330
1272
100
AcDbEntity
  8
0
100
AcDbLine
 10
2.000000000000006
 20
76.00000000000001
 30
0.0
 11
2.000000000000006
 21
4.000000000000003
 31
0.0
  0
ARC
  5
1281
330
1272
100
AcDbEntity
  8
0
100
AcDbCircle
 10
4.000000000000007
 20
3.999999999999998
 30
0.0
 40
2.0
100
AcDbArc
 50
180.0
 51
270.0
  0
ARC
  5
1282
330
1272
100
AcDbEntity
  8
0
100
AcDbCircle
 10
3.999999999999995
 20
4.000000000000005
 30
0.0
 40
4.0
100
AcDbArc
 50
180.0
 51
270.0000000000001
  0
ARC
  5
1283
330
1272
100
AcDbEntity
  8
0
100
AcDbCircle
 10
9.842474617765383
 20
9.464932784652276
 30
0.0
 40
5.0
100
AcDbArc
 50
196.4103051574364
 51
248.0807665989529
  0
LINE
  5
1284
330
1272
100
AcDbEntity
  8
0
100
AcDbLine
 10
11.23606234791208
 20
3.51456111891838
 30
0.0
 11
7.975978500977332
 21
4.82637781073905
 31
0.0
  0
LINE
  5
1285
330
1272
100
AcDbEntity
  8
0
100
AcDbLine
 10
11.23606234791208
 20
3.51456111891838
 30
0.0
 11
11.24606234791208
 21
3.510537244829821
 31
0.0
  0
LINE
  5
1286
330
1272
100
AcDbEntity
  8
0
100
AcDbLine
 10
4.265734005010256
 20
10.70225882081038
 30
0.0
 11
4.26867911955354
 21
10.69225882081038
 31
0.0
  0
LINE
  5
1287
330
1272
100
AcDbEntity
  8
0
100
AcDbLine
 10
5.046158730804068
 20
8.052362817364812
 30
0.0
 11
4.268679119553541
 21
10.69225882081038
 31
0.0
  0
ARC
  5
1288
330
1272
100
AcDbEntity
  8
0
100
AcDbCircle
 10
9.009999999999999
 20
-2.046451613918224
 30
0.0
 40
5.990000000000001
100
AcDbArc
 50
46.21596172775739
 51
68.08076659895282
  0
ARC
  5
1289
330
1272
100
AcDbEntity
  8
0
100
AcDbCircle
 10
-1.480252427569397
 20
9.009999999999999
 30
0.0
 40
5.990000000000001
100
AcDbArc
 50
16.41030515743651
 51
50.13717749307261
  0
ARC
  5
128A
330
1272
100
AcDbEntity
  8
0
100
AcDbCircle
 10
3.000000000000011
 20
14.37539264036272
 30
0.0
 40
1.0
100
AcDbArc
 50
180.0
 51
230.1371774930726
  0
ARC
  5
128B
330
1272
100
AcDbEntity
  8
0
100
AcDbCircle
 10
13.84667510883067
 20
2.999999999999992
 30
0.0
 40
1.0
100
AcDbArc
 50
226.2159617303284
 51
270.0
  0
ENDBLK
  5
1274
330
1272
100
AcDbEntity
  8
0
100
AcDbBlockEnd
  0
BLOCK
  5
128D
330
128C
100
AcDbEntity
  8
0
100
AcDbBlockBegin
  2
AA60280-Right
 70
     0
 10
0.0
 20
0.0
 30
0.0
  3
AA60280-Right
  1

  0
LINE
  5
128F
330
128C
100
AcDbEntity
  8
0
100
AcDbLine
 10
-55.0
 20
1.99999999999999
 30
0.0
 11
-62.0
 21
1.999999999999992
 31
0.0
  0
LINE
  5
1290
330
128C
100
AcDbEntity
  8
0
100
AcDbLine
 10
-62.0
 20
1.999999999999992
 30
0.0
 11
-62.0
 21
0.0
 31
0.0
  0
LINE
  5
1291
330
128C
100
AcDbEntity
  8
0
100
AcDbLine
 10
-55.0
 20
0.0
 30
0.0
 11
-55.0
 21
1.99999999999999
 31
0.0
  0
LINE
  5
1292
330
128C
100
AcDbEntity
  8
0
100
AcDbLine
 10
-2.000000000000015
 20
76.0
 30
0.0
 11
0.0
 21
76.0
 31
0.0
  0
LINE
  5
1293
330
128C
100
AcDbEntity
  8
0
100
AcDbLine
 10
0.0
 20
83.0
 30
0.0
 11
-2.000000000000013
 21
83.0
 31
0.0
  0
LINE
  5
1294
330
128C
100
AcDbEntity
  8
0
100
AcDbLine
 10
-2.000000000000013
 20
83.0
 30
0.0
 11
-2.000000000000015
 21
76.0
 31
0.0
  0
LINE
  5
1295
330
128C
100
AcDbEntity
  8
0
100
AcDbLine
 10
-55.0
 20
1.99999999999999
 30
0.0
 11
-4.000000000000021
 21
1.999999999999988
 31
0.0
  0
LINE
  5
1296
330
128C
100
AcDbEntity
  8
0
100
AcDbLine
 10
-2.000000000000015
 20
3.999999999999989
 30
0.0
 11
-2.000000000000015
 21
76.0
 31
0.0
  0
LINE
  5
1297
330
128C
100
AcDbEntity
  8
0
100
AcDbLine
 10
-62.0
 20
0.0
 30
0.0
 11
-55.0
 21
0.0
 31
0.0
  0
LINE
  5
1298
330
128C
100
AcDbEntity
  8
0
100
AcDbLine
 10
-4.000000000000007
 20
0.0
 30
0.0
 11
-55.0
 21
0.0
 31
0.0
  0
LINE
  5
1299
330
128C
100
AcDbEntity
  8
0
100
AcDbLine
 10
0.0
 20
76.0
 30
0.0
 11
0.0
 21
3.999999999999994
 31
0.0
  0
LINE
  5
129A
330
128C
100
AcDbEntity
  8
0
100
AcDbLine
 10
0.0
 20
76.0
 30
0.0
 11
0.0
 21
83.0
 31
0.0
  0
ARC
  5
129B
330
128C
100
AcDbEntity
  8
0
100
AcDbCircle
 10
-4.000000000000004
 20
3.999999999999995
 30
0.0
 40
4.0
100
AcDbArc
 50
269.9999999999999
 51
0.0
  0
ARC
  5
129C
330
128C
100
AcDbEntity
  8
0
100
AcDbCircle
 10
-4.000000000000016
 20
3.999999999999987
 30
0.0
 40
2.0
100
AcDbArc
 50
270.0
 51
0.0
  0
LINE
  5
129D
330
128C
100
AcDbEntity
  8
0
100
AcDbLine
 10
-11.24606234791208
 20
3.510537244829821
 30
0.0
 11
-11.23606234791208
 21
3.51456111891838
 31
0.0
  0
LINE
  5
129E
330
128C
100
AcDbEntity
  8
0
100
AcDbLine
 10
-7.975978500977332
 20
4.82637781073905
 30
0.0
 11
-11.23606234791208
 21
3.514561118918378
 31
0.0
  0
LINE
  5
129F
330
128C
100
AcDbEntity
  8
0
100
AcDbLine
 10
-4.26867911955354
 20
10.69225882081038
 30
0.0
 11
-5.046158730804068
 21
8.052362817364812
 31
0.0
  0
LINE
  5
12A0
330
128C
100
AcDbEntity
  8
0
100
AcDbLine
 10
-4.26867911955354
 20
10.69225882081038
 30
0.0
 11
-4.265734005010256
 21
10.70225882081038
 31
0.0
  0
ARC
  5
12A1
330
128C
100
AcDbEntity
  8
0
100
AcDbCircle
 10
-9.842474617765383
 20
9.464932784652276
 30
0.0
 40
5.0
100
AcDbArc
 50
291.9192334010471
 51
343.5896948425636
  0
ARC
  5
12A2
330
128C
100
AcDbEntity
  8
0
100
AcDbCircle
 10
-9.009999999999999
 20
-2.046451613918224
 30
0.0
 40
5.990000000000001
100
AcDbArc
 50
111.9192334010472
 51
133.7840382722426
  0
ARC
  5
12A3
330
128C
100
AcDbEntity
  8
0
100
AcDbCircle
 10
1.480252427569397
 20
9.009999999999999
 30
0.0
 40
5.990000000000001
100
AcDbArc
 50
129.8628225069274
 51
163.5896948425635
  0
ARC
  5
12A4
330
128C
100
AcDbEntity
  8
0
100
AcDbCircle
 10
-3.000000000000011
 20
14.37539264036272
 30
0.0
 40
1.0
100
AcDbArc
 50
309.8628225069274
 51
0.0
  0
ARC
  5
12A5
330
128C
100
AcDbEntity
  8
0
100
AcDbCircle
 10
-13.84667510883067
 20
2.999999999999992
 30
0.0
 40
1.0
100
AcDbArc
 50
270.0
 51
313.7840382696716
  0
ENDBLK
  5
128E
330
128C
100
AcDbEntity
  8
0
100
AcDbBlockEnd
  0
BLOCK
  5
12A7
330
12A6
100
AcDbEntity
  8
0
100
AcDbBlockBegin
  2
AA60280-Top
 70
     0
 10
0.0
 20
0.0
 30
0.0
  3
AA60280-Top
  1

  0
LINE
  5
12A9
330
12A6
100
AcDbEntity
  8
0
 62
     0
370
     0
100
AcDbLine
 10
-13.00000000000001
 20
-62.00000000000001
 30
-0.0000000000000029
 11
-20.00000000000001
 21
-55.0
 31
-0.0000000000000044
  0
LINE
  5
12AA
330
12A6
100
AcDbEntity
  8
0
 62
     0
370
     0
100
AcDbLine
 10
-20.0
 20
-4.000000000000007
 30
-0.0000000000000044
 11
-20.00000000000001
 21
-55.0
 31
-0.0000000000000044
  0
LINE
  5
12AB
330
12A6
100
AcDbEntity
  8
0
 62
     0
370
     0
100
AcDbLine
 10
-20.0
 20
-2.000000000000007
 30
-0.0000000000000044
 11
-20.0
 21
-4.000000000000007
 31
-0.0000000000000044
  0
LINE
  5
12AC
330
12A6
100
AcDbEntity
  8
0
 62
     0
370
     0
100
AcDbLine
 10
-19.99999999999998
 20
-0.0000000000000053
 30
0.0
 11
-19.99999999999998
 21
-2.000000000000006
 31
0.0
  0
LINE
  5
12AD
330
12A6
100
AcDbEntity
  8
0
 62
     0
370
     0
100
AcDbLine
 10
-13.00000000000001
 20
-62.0
 30
-0.0000000000000029
 11
12.99999999999998
 21
-62.0
 31
0.0000000000000029
  0
LINE
  5
12AE
330
12A6
100
AcDbEntity
  8
0
 62
     0
370
     0
100
AcDbLine
 10
19.99999999999999
 20
-55.0
 30
0.0000000000000044
 11
12.99999999999999
 21
-62.00000000000001
 31
0.0000000000000029
  0
LINE
  5
12AF
330
12A6
100
AcDbEntity
  8
0
 62
     0
370
     0
100
AcDbLine
 10
19.99999999999999
 20
-55.0
 30
0.0000000000000044
 11
20.0
 21
-4.000000000000014
 31
0.0000000000000044
  0
LINE
  5
12B0
330
12A6
100
AcDbEntity
  8
0
 62
     0
370
     0
100
AcDbLine
 10
6.619001237026419
 20
-4.000000000000014
 30
0.0000000000000016
 11
20.0
 21
-4.000000000000016
 31
0.0000000000000045
  0
SPLINE
  5
12B1
330
12A6
100
AcDbEntity
  8
0
 62
     0
370
     0
100
AcDbSpline
210
-0.0000000000000002
220
0.0
230
1.0
 70
     8
 71
     3
 72
    15
 73
    11
 74
     0
 42
0.000000001
 43
0.0000000001
 40
0.0
 40
0.0
 40
0.0
 40
0.0
 40
0.0840543597448414
 40
0.0840543597448414
 40
0.1681087194896827
 40
0.1681087194896827
 40
0.1681087194896827
 40
0.252163079234524
 40
0.252163079234524
 40
0.3362174389793653
 40
0.3362174389793653
 40
0.3362174389793653
 40
0.3362174389793653
 10
5.727445858485036
 20
-7.241067066120145
 30
0.0000000000000013
 10
5.798597591090819
 20
-6.970070875549078
 30
0.0000000000000013
 10
5.874873708730101
 20
-6.700497527672765
 30
0.0000000000000013
 10
6.030436752406151
 20
-6.162228768837519
 30
0.0000000000000013
 10
6.109727133091506
 20
-5.89352657330494
 30
0.0000000000000014
 10
6.187584107772138
 20
-5.624411440114719
 30
0.0000000000000014
 10
6.265441082452772
 20
-5.355296306924497
 30
0.0000000000000014
 10
6.341875571715283
 20
-5.085763619006053
 30
0.0000000000000014
 10
6.487129720355802
 20
-4.544616365275767
 30
0.0000000000000014
 10
6.555959591772518
 20
-4.272996804597642
 30
0.0000000000000015
 10
6.619001237026418
 20
-4.000000000000012
 30
0.0000000000000015
  0
ELLIPSE
  5
12B2
330
12A6
100
AcDbEntity
  8
0
 62
     0
370
     0
100
AcDbEllipse
 10
0.0100000000000013
 20
3.531276150434589
 30
0.0
 11
-0.0000000000000047
 21
-18.7249251073415
 31
0.0
210
-0.0000000000000002
220
0.0
230
1.0
 40
0.3732992233576104
 41
0.6799749736135289
 42
0.9578323858779171
  0
SPLINE
  5
12B3
330
12A6
100
AcDbEntity
  8
0
 62
     0
370
     0
100
AcDbSpline
210
-0.0000000000000002
220
0.0
230
1.0
 70
     8
 71
     3
 72
    18
 73
    14
 74
     0
 42
0.000000001
 43
0.0000000001
 40
0.0000000000000014
 40
0.0000000000000014
 40
0.0000000000000014
 40
0.0000000000000014
 40
0.0892581778048194
 40
0.0892581778048194
 40
0.2320712622925281
 40
0.2320712622925281
 40
0.4177282721265497
 40
0.4177282721265497
 40
0.6590823849107775
 40
0.6590823849107775
 40
0.9239432375870533
 40
0.9239432375870533
 40
1.104473507680125
 40
1.104473507680125
 40
1.104473507680125
 40
1.104473507680125
 10
-4.405127212166656
 20
-11.02900943257259
 30
-0.000000000000001
 10
-4.280421195692124
 20
-11.29914065903672
 30
-0.000000000000001
 10
-4.130783663501346
 20
-11.55777175804775
 30
-0.0000000000000009
 10
-3.683458644627817
 20
-12.18895737741276
 30
-0.0000000000000008
 10
-3.350648548968597
 20
-12.53647539910291
 30
-0.0000000000000007
 10
-2.485511054679328
 20
-13.20764295794527
 30
-0.0000000000000006
 10
-1.923249590869565
 20
-13.4921444032919
 30
-0.0000000000000004
 10
-0.5541085477651403
 20
-13.88161042141289
 30
-0.0000000000000001
 10
0.274773677186761
 20
-13.90523356659755
 30
0.0000000000000001
 10
1.921575576069674
 20
-13.53671496997896
 30
0.0000000000000004
 10
2.728023082163617
 20
-13.10339385828743
 30
0.0000000000000006
 10
3.797906403855345
 20
-12.07407652177976
 30
0.0000000000000008
 10
4.152901462335131
 20
-11.57536680234923
 30
0.0000000000000009
 10
4.405127212263455
 20
-11.02900943236289
 30
0.000000000000001
  0
ELLIPSE
  5
12B4
330
12A6
100
AcDbEntity
  8
0
 62
     0
370
     0
100
AcDbEllipse
 10
-0.0099999999999988
 20
3.531276150434589
 30
0.0
 11
-0.0000000000000036
 21
-18.7249251073415
 31
0.0
210
-0.0000000000000002
220
0.0
230
1.0
 40
0.3732992233576104
 41
-0.9578323858779169
 42
-0.6799749735957189
  0
SPLINE
  5
12B5
330
12A6
100
AcDbEntity
  8
0
 62
     0
370
     0
100
AcDbSpline
210
-0.0000000000000002
220
0.0
230
1.0
 70
     8
 71
     3
 72
    10
 73
     6
 74
     0
 42
0.000000001
 43
0.0000000001
 40
0.0000000000000001
 40
0.0000000000000001
 40
0.0000000000000001
 40
0.0000000000000001
 40
0.1681087194896828
 40
0.1681087194896828
 40
0.3362174389793655
 40
0.3362174389793655
 40
0.3362174389793655
 40
0.3362174389793655
 10
-6.61900123702642
 20
-4.000000000000008
 30
-0.0000000000000015
 10
-6.492917946518621
 20
-4.545993609195272
 30
-0.0000000000000014
 10
-6.343298057133407
 20
-5.086181173734278
 30
-0.0000000000000014
 10
-6.031870158410877
 20
-6.162641706495155
 30
-0.0000000000000013
 10
-5.869749323696606
 20
-6.699074684978008
 30
-0.0000000000000013
 10
-5.727445858485041
 20
-7.241067066120145
 30
-0.0000000000000013
  0
LINE
  5
12B6
330
12A6
100
AcDbEntity
  8
0
 62
     0
370
     0
100
AcDbLine
 10
-20.0
 20
-4.000000000000007
 30
-0.0000000000000044
 11
-6.61900123702642
 21
-4.00000000000001
 31
-0.0000000000000015
  0
CIRCLE
  5
12B7
330
12A6
100
AcDbEntity
  8
0
 62
     0
370
     0
100
AcDbCircle
 10
-12.0
 20
-12.0
 30
-0.0000000000000027
 40
2.5
  0
CIRCLE
  5
12B8
330
12A6
100
AcDbEntity
  8
0
 62
     0
370
     0
100
AcDbCircle
 10
-12.00000000000001
 20
-52.0
 30
-0.0000000000000027
 40
2.5
  0
CIRCLE
  5
12B9
330
12A6
100
AcDbEntity
  8
0
 62
     0
370
     0
100
AcDbCircle
 10
-0.0000000000000089
 20
-32.0
 30
0.0
 40
2.5
  0
CIRCLE
  5
12BA
330
12A6
100
AcDbEntity
  8
0
 62
     0
370
     0
100
AcDbCircle
 10
11.99999999999998
 20
-52.0
 30
0.0000000000000027
 40
2.5
  0
CIRCLE
  5
12BB
330
12A6
100
AcDbEntity
  8
0
 62
     0
370
     0
100
AcDbCircle
 10
11.99999999999999
 20
-12.0
 30
0.0000000000000027
 40
2.5
  0
LINE
  5
12BC
330
12A6
100
AcDbEntity
  8
0
 62
     0
370
     0
100
AcDbLine
 10
20.00000000000001
 20
-2.000000000000015
 30
0.0
 11
20.00000000000002
 21
-0.000000000000016
 31
0.0
  0
LINE
  5
12BD
330
12A6
100
AcDbEntity
  8
0
 62
     0
370
     0
100
AcDbLine
 10
20.0
 20
-4.000000000000016
 30
0.0000000000000044
 11
20.0
 21
-2.000000000000016
 31
0.0000000000000044
  0
LINE
  5
12BE
330
12A6
100
AcDbEntity
  8
0
 62
     0
370
     0
100
AcDbLine
 10
-19.99999999999998
 20
-2.000000000000006
 30
0.0
 11
-12.99999999999998
 21
-2.000000000000007
 31
0.0000000000000018
  0
LINE
  5
12BF
330
12A6
100
AcDbEntity
  8
0
 62
     0
370
     0
100
AcDbLine
 10
-12.99999999999998
 20
-2.000000000000007
 30
0.0
 11
-12.99999999999998
 21
-0.0000000000000089
 31
0.0
  0
LINE
  5
12C0
330
12A6
100
AcDbEntity
  8
0
 62
     0
370
     0
100
AcDbLine
 10
-12.99999999999998
 20
0.0000000000000029
 30
0.0
 11
-19.99999999999999
 21
0.0000000000000044
 31
-0.0000000000000018
  0
LINE
  5
12C1
330
12A6
100
AcDbEntity
  8
0
 62
     0
370
     0
100
AcDbLine
 10
-12.99999999999998
 20
-0.0000000000000082
 30
0.0
 11
13.00000000000001
 21
-0.000000000000014
 31
0.0000000000000058
  0
LINE
  5
12C2
330
12A6
100
AcDbEntity
  8
0
 62
     0
370
     0
100
AcDbLine
 10
20.00000000000003
 20
-0.0000000000000039
 30
0.0
 11
13.00000000000002
 21
-0.0000000000000023
 31
-0.0000000000000018
  0
LINE
  5
12C3
330
12A6
100
AcDbEntity
  8
0
 62
     0
370
     0
100
AcDbLine
 10
13.00000000000001
 20
-0.0000000000000142
 30
0.0
 11
13.00000000000001
 21
-2.000000000000014
 31
0.0
  0
LINE
  5
12C4
330
12A6
100
AcDbEntity
  8
0
 62
     0
370
     0
100
AcDbLine
 10
13.00000000000001
 20
-2.000000000000013
 30
0.0
 11
20.00000000000001
 21
-2.000000000000015
 31
0.0000000000000018
  0
LINE
  5
12C5
330
12A6
100
AcDbEntity
  8
0
 62
     0
370
     0
100
AcDbLine
 10
-12.99999999999998
 20
-2.000000000000007
 30
0.0
 11
13.00000000000001
 21
-2.000000000000013
 31
0.0000000000000058
  0
LINE
  5
12C6
330
12A6
100
AcDbEntity
  8
0
 62
     0
370
     0
100
AcDbLine
 10
6.619001237026419
 20
-4.000000000000012
 30
0.0000000000000016
 11
5.673507497823786
 21
-3.781662349548579
 31
0.0000000000000013
  0
SPLINE
  5
12C7
330
12A6
100
AcDbEntity
  8
0
 62
     0
370
     0
100
AcDbSpline
210
-0.0000000000000002
220
0.0
230
1.0
 70
     8
 71
     3
 72
    15
 73
    11
 74
     0
 42
0.000000001
 43
0.0000000001
 40
-0.3362174389793653
 40
-0.3362174389793653
 40
-0.3362174389793653
 40
-0.3362174389793653
 40
-0.252163079234524
 40
-0.252163079234524
 40
-0.1681087194896827
 40
-0.1681087194896827
 40
-0.1681087194896827
 40
-0.0840543597448414
 40
-0.0840543597448414
 40
0.0
 40
0.0
 40
0.0
 40
0.0
 10
5.673507497823785
 20
-3.781662349548578
 30
0.0000000000000013
 10
5.619484685939541
 20
-4.042717415858785
 30
0.0000000000000012
 10
5.560501720304901
 20
-4.305018806446244
 30
0.0000000000000012
 10
5.436027850439849
 20
-4.833490067022651
 30
0.0000000000000012
 10
5.370528195120473
 20
-5.099667561786293
 30
0.0000000000000012
 10
5.303809557304023
 20
-5.368729004186644
 30
0.0000000000000012
 10
5.237090919487572
 20
-5.637790446586995
 30
0.0000000000000012
 10
5.169143940903127
 20
-5.909746273417963
 30
0.0000000000000011
 10
5.035835982159274
 20
-6.461573844642598
 30
0.0000000000000011
 10
4.970472041578543
 20
-6.741462232666895
 30
0.0000000000000011
 10
4.909499383737536
 20
-7.026310140074668
 30
0.0000000000000011
  0
LINE
  5
12C8
330
12A6
100
AcDbEntity
  8
0
 62
     0
370
     0
100
AcDbLine
 10
4.909499383737536
 20
-7.026310140075692
 30
0.0000000000000009
 11
5.727445858485037
 21
-7.241067066120142
 31
0.0000000000000013
  0
ELLIPSE
  5
12C9
330
12A6
100
AcDbEntity
  8
0
 62
     0
370
     0
100
AcDbEllipse
 10
6.633728976975004
 20
-3.000000000000014
 30
0.0000000000000013
 11
0.0
 21
1.0
 31
0.0
210
-0.0000000000000002
220
0.0
230
1.0
 40
0.9785774377690273
 41
0.0
 42
1.318513616175984
  0
SPLINE
  5
12CA
330
12A6
100
AcDbEntity
  8
0
 62
     0
370
     0
100
AcDbSpline
210
-0.0000000000000002
220
0.0
230
1.0
 70
     8
 71
     3
 72
    16
 73
    12
 74
     0
 42
0.000000001
 43
0.0000000001
 40
-0.1582918225466278
 40
-0.1582918225466278
 40
-0.1582918225466278
 40
-0.1582918225466278
 40
-0.1382129003529435
 40
-0.1382129003529435
 40
-0.0875997255758093
 40
-0.0875997255758093
 40
-0.0486665142087829
 40
-0.0486665142087829
 40
-0.0187178900803011
 40
-0.0187178900803011
 40
0.0
 40
0.0
 40
0.0
 40
0.0
 10
5.686128264961412
 20
-2.750384940574481
 30
0.0000000000000013
 10
5.69793639212517
 20
-2.756119072431379
 30
0.0000000000000013
 10
5.708128905876377
 20
-2.767860752284974
 30
0.0000000000000013
 10
5.73838266489175
 20
-2.830263841092975
 30
0.0000000000000013
 10
5.749917438846371
 20
-2.913793956079259
 30
0.0000000000000013
 10
5.753319459761935
 20
-3.114272253169232
 30
0.0000000000000013
 10
5.749110166047855
 20
-3.218722901918074
 30
0.0000000000000013
 10
5.731353397531431
 20
-3.419750950754266
 30
0.0000000000000013
 10
5.720167878089804
 20
-3.512481235181721
 30
0.0000000000000013
 10
5.696167210362845
 20
-3.664661026924222
 30
0.0000000000000013
 10
5.685537725140339
 20
-3.723528541249597
 30
0.0000000000000013
 10
5.673507497823783
 20
-3.781662349548578
 30
0.0000000000000013
  0
SPLINE
  5
12CB
330
12A6
100
AcDbEntity
  8
0
 62
     0
370
     0
100
AcDbSpline
210
-0.0000000000000002
220
0.0
230
1.0
 70
     8
 71
     3
 72
    16
 73
    12
 74
     0
 42
0.000000001
 43
0.0000000001
 40
0.0
 40
0.0
 40
0.0
 40
0.0
 40
0.0187178900803011
 40
0.0187178900803011
 40
0.0486665142087829
 40
0.0486665142087829
 40
0.0875997255758093
 40
0.0875997255758093
 40
0.1382129003529435
 40
0.1382129003529435
 40
0.1582918225466278
 40
0.1582918225466278
 40
0.1582918225466278
 40
0.1582918225466278
 10
6.619001237026418
 20
-4.00000000000001
 30
0.0000000000000015
 10
6.633039849537725
 20
-3.878413821811424
 30
0.0000000000000015
 10
6.645443873194706
 20
-3.756068374844316
 30
0.0000000000000015
 10
6.673451330191607
 20
-3.441824439084744
 30
0.0000000000000015
 10
6.686504215149366
 20
-3.252359291747014
 30
0.0000000000000015
 10
6.707225385755344
 20
-2.846731137881022
 30
0.0000000000000015
 10
6.712137399622023
 20
-2.639984697937359
 30
0.0000000000000015
 10
6.708167428637085
 20
-2.254652590279247
 30
0.0000000000000015
 10
6.694706982903728
 20
-2.104387124154667
 30
0.0000000000000015
 10
6.659402512867426
 20
-2.012926927945897
 30
0.0000000000000015
 10
6.647508410843899
 20
-2.000000000000013
 30
0.0000000000000015
 10
6.633728976975006
 20
-2.000000000000013
 30
0.0000000000000015
  0
ELLIPSE
  5
12CC
330
12A6
100
AcDbEntity
  8
0
 62
     0
370
     0
100
AcDbEllipse
 10
5.839584554633725
 20
-3.000000000000012
 30
0.0000000000000009
 11
-0.0000000000000009
 21
1.0
 31
0.0
210
-0.0000000000000002
220
0.0
230
1.0
 40
0.9829760409313388
 41
0.0
 42
1.013017532009633
  0
SPLINE
  5
12CD
330
12A6
100
AcDbEntity
  8
0
 62
     0
370
     0
100
AcDbSpline
210
-0.0000000000000002
220
0.0
230
1.0
 70
     8
 71
     3
 72
    10
 73
     6
 74
     0
 42
0.000000001
 43
0.0000000001
 40
-0.3540854691216105
 40
-0.3540854691216105
 40
-0.3540854691216105
 40
-0.3540854691216105
 40
-0.1770427345608053
 40
-0.1770427345608053
 40
-0.0000000000000002
 40
-0.0000000000000002
 40
-0.0000000000000002
 40
-0.0000000000000002
 10
5.005595347962233
 20
-2.470697038372646
 30
0.0000000000000011
 10
5.098512420329007
 20
-2.50534858472293
 30
0.0000000000000011
 10
5.218420945648201
 20
-2.550810834141564
 30
0.0000000000000012
 10
5.46018048969969
 20
-2.648058060342341
 30
0.0000000000000012
 10
5.582011963152588
 20
-2.699825135895478
 30
0.0000000000000012
 10
5.686128264961413
 20
-2.750384940574477
 30
0.0000000000000013
  0
ELLIPSE
  5
12CE
330
12A6
100
AcDbEntity
  8
0
 62
     0
370
     0
100
AcDbEllipse
 10
5.213370545584485
 20
-3.000000000000015
 30
0.0000000000000018
 11
-0.0000000000000044
 21
1.000000000000003
 31
0.0
210
-0.0000000000000002
220
0.0
230
1.0
 40
0.969358316596613
 41
0.0000000000000019
 42
0.8756076086149347
  0
ELLIPSE
  5
12CF
330
12A6
100
AcDbEntity
  8
0
 62
     0
370
     0
100
AcDbEllipse
 10
0.009999999999998
 20
-3.00000000000001
 30
0.0
 11
5.99
 21
-0.0000000000000013
 31
0.0000000000000013
210
0.0000000000000002
220
0.0
230
-1.0
 40
0.1601441030704947
 41
-0.7311573813995789
 42
-0.5844979605721186
  0
ELLIPSE
  5
12D0
330
12A6
100
AcDbEntity
  8
0
 62
     0
370
     0
100
AcDbEllipse
 10
-5.213370545591304
 20
-3.000000000000014
 30
-0.0000000000000018
 11
0.0000000000000027
 21
1.000000000000004
 31
0.0
210
0.0000000000000002
220
0.0
230
-1.0
 40
0.9693583166011778
 41
0.0000000000000014
 42
0.8756076086108638
  0
SPLINE
  5
12D1
330
12A6
100
AcDbEntity
  8
0
 62
     0
370
     0
100
AcDbSpline
210
-0.0000000000000002
220
0.0
230
1.0
 70
     8
 71
     3
 72
    20
 73
    16
 74
     0
 42
0.000000001
 43
0.0000000001
 40
-1.422546017711731
 40
-1.422546017711731
 40
-1.422546017711731
 40
-1.422546017711731
 40
-1.339985777380144
 40
-1.339985777380144
 40
-1.027975637644412
 40
-1.027975637644412
 40
-0.7422948979804502
 40
-0.7422948979804502
 40
-0.4704685973115529
 40
-0.4704685973115529
 40
-0.2613714429508628
 40
-0.2613714429508628
 40
-0.1005274780580242
 40
-0.1005274780580242
 40
-0.0000000000000001
 40
-0.0000000000000001
 40
-0.0000000000000001
 40
-0.0000000000000001
 10
-4.468968464676952
 20
-2.359469626176534
 30
-0.000000000000001
 10
-4.411036531421548
 20
-2.359448070175004
 30
-0.000000000000001
 10
-4.335514529922716
 20
-2.359426088672856
 30
-0.000000000000001
 10
-3.894733123822106
 20
-2.359320137996644
 30
-0.0000000000000009
 10
-3.302290766457824
 20
-2.359232339648438
 30
-0.0000000000000007
 10
-1.882095219661369
 20
-2.359101227200437
 30
-0.0000000000000004
 10
-1.080896242078342
 20
-2.359057075845334
 30
-0.0000000000000002
 10
0.5097245410424211
 20
-2.359042340139302
 30
0.0000000000000001
 10
1.295954214891821
 20
-2.359068712471165
 30
0.0000000000000003
 10
2.534810461049411
 20
-2.359155989968066
 30
0.0000000000000006
 10
3.022278920264914
 20
-2.359206406353651
 30
0.0000000000000007
 10
3.730534964915413
 20
-2.359302233397583
 30
0.0000000000000008
 10
3.986998389222893
 20
-2.359346105020147
 30
0.0000000000000009
 10
4.301785432203431
 20
-2.359416496537243
 30
0.000000000000001
 10
4.398429048531808
 20
-2.359443379033088
 30
0.000000000000001
 10
4.468968464671107
 20
-2.359469626176532
 30
0.000000000000001
  0
ELLIPSE
  5
12D2
330
12A6
100
AcDbEntity
  8
0
 62
     0
370
     0
100
AcDbEllipse
 10
-5.839584554633582
 20
-3.000000000000007
 30
-0.0000000000000009
 11
-0.0000000000000018
 21
0.9999999999999973
 31
0.0
210
0.0000000000000002
220
0.0
230
-1.0
 40
0.9829760409312681
 41
0.0
 42
1.013017532009714
  0
ELLIPSE
  5
12D3
330
12A6
100
AcDbEntity
  8
0
 62
     0
370
     0
100
AcDbEllipse
 10
-0.0100000000000021
 20
-3.00000000000001
 30
0.0
 11
5.99
 21
-0.0000000000000013
 31
0.0000000000000013
210
0.0000000000000002
220
0.0
230
-1.0
 40
0.1601441030704947
 41
-2.557094693017651
 42
-2.410435272191306
  0
ELLIPSE
  5
12D4
330
12A6
100
AcDbEntity
  8
0
 62
     0
370
     0
100
AcDbEllipse
 10
-6.633728976975005
 20
-3.000000000000009
 30
-0.0000000000000013
 11
0.0
 21
1.0
 31
0.0
210
0.0000000000000002
220
0.0
230
-1.0
 40
0.9785774377690275
 41
0.0000000000000001
 42
1.318513616175985
  0
SPLINE
  5
12D5
330
12A6
100
AcDbEntity
  8
0
 62
     0
370
     0
100
AcDbSpline
210
-0.0000000000000002
220
0.0
230
1.0
 70
     8
 71
     3
 72
    10
 73
     6
 74
     0
 42
0.000000001
 43
0.0000000001
 40
-0.3540854691216871
 40
-0.3540854691216871
 40
-0.3540854691216871
 40
-0.3540854691216871
 40
-0.1770427345608435
 40
-0.1770427345608435
 40
0.0
 40
0.0
 40
0.0
 40
0.0
 10
-5.686128264961414
 20
-2.750384940574477
 30
-0.0000000000000013
 10
-5.582011963152566
 20
-2.699825135895466
 30
-0.0000000000000012
 10
-5.460180489699639
 20
-2.648058060342319
 30
-0.0000000000000012
 10
-5.218420945648094
 20
-2.550810834141523
 30
-0.0000000000000012
 10
-5.098512420328882
 20
-2.50534858472288
 30
-0.0000000000000011
 10
-5.00559534796211
 20
-2.470697038372598
 30
-0.0000000000000011
  0
LINE
  5
12D6
330
12A6
100
AcDbEntity
  8
0
 62
     0
370
     0
100
AcDbLine
 10
-6.61900123702642
 20
-4.000000000000009
 30
-0.0000000000000016
 11
-5.673507497823783
 21
-3.781662349548577
 31
-0.0000000000000013
  0
SPLINE
  5
12D7
330
12A6
100
AcDbEntity
  8
0
 62
     0
370
     0
100
AcDbSpline
210
-0.0000000000000002
220
0.0
230
1.0
 70
     8
 71
     3
 72
    16
 73
    12
 74
     0
 42
0.000000001
 43
0.0000000001
 40
-0.1582917721517041
 40
-0.1582917721517041
 40
-0.1582917721517041
 40
-0.1582917721517041
 40
-0.1377861779390637
 40
-0.1377861779390637
 40
-0.0873292677078573
 40
-0.0873292677078573
 40
-0.0485162598376985
 40
-0.0485162598376985
 40
-0.0186600999375764
 40
-0.0186600999375764
 40
0.0
 40
0.0
 40
0.0
 40
0.0
 10
-5.673507497823784
 20
-3.781662349548576
 30
-0.0000000000000013
 10
-5.686686705447123
 20
-3.717976310262083
 30
-0.0000000000000013
 10
-5.698184588636062
 20
-3.653405984731297
 30
-0.0000000000000013
 10
-5.732166798545419
 20
-3.43181780045213
 30
-0.0000000000000013
 10
-5.746184454272714
 20
-3.277833999500121
 30
-0.0000000000000013
 10
-5.754003439238628
 20
-3.047520212981091
 30
-0.0000000000000013
 10
-5.751736907859648
 20
-2.961506753830679
 30
-0.0000000000000013
 10
-5.737566413860588
 20
-2.845449746582472
 30
-0.0000000000000013
 10
-5.727991206531761
 20
-2.80702320479003
 30
-0.0000000000000013
 10
-5.706680536833034
 20
-2.766227585403067
 30
-0.0000000000000013
 10
-5.697102003034897
 20
-2.755713885647963
 30
-0.0000000000000013
 10
-5.686128264961414
 20
-2.750384940574477
 30
-0.0000000000000013
  0
SPLINE
  5
12D8
330
12A6
100
AcDbEntity
  8
0
 62
     0
370
     0
100
AcDbSpline
210
-0.0000000000000002
220
0.0
230
1.0
 70
     8
 71
     3
 72
    16
 73
    12
 74
     0
 42
0.000000001
 43
0.0000000001
 40
0.0
 40
0.0
 40
0.0
 40
0.0
 40
0.0186600999375764
 40
0.0186600999375764
 40
0.0485162598376985
 40
0.0485162598376985
 40
0.0873292677078573
 40
0.0873292677078573
 40
0.1377861779390637
 40
0.1377861779390637
 40
0.1582917721517041
 40
0.1582917721517041
 40
0.1582917721517041
 40
0.1582917721517041
 10
-6.633728976975005
 20
-2.00000000000001
 30
-0.0000000000000015
 10
-6.64653472474356
 20
-2.00000000000001
 30
-0.0000000000000015
 10
-6.657712345987129
 20
-2.011156598392031
 30
-0.0000000000000015
 10
-6.682580723481971
 20
-2.069493415200799
 30
-0.0000000000000015
 10
-6.693754462919115
 20
-2.134430154433482
 30
-0.0000000000000015
 10
-6.710290648737718
 20
-2.345343630723483
 30
-0.0000000000000015
 10
-6.712935565989652
 20
-2.509968823128088
 30
-0.0000000000000015
 10
-6.703811241296539
 20
-2.963908778068777
 30
-0.0000000000000015
 10
-6.687453409320949
 20
-3.27568539876962
 30
-0.0000000000000015
 10
-6.647798042498508
 20
-3.732683984951659
 30
-0.0000000000000015
 10
-6.634380646256326
 20
-3.866801395824807
 30
-0.0000000000000015
 10
-6.61900123702642
 20
-4.000000000000007
 30
-0.0000000000000015
  0
LINE
  5
12D9
330
12A6
100
AcDbEntity
  8
0
 62
     0
370
     0
100
AcDbLine
 10
-5.72744585848504
 20
-7.241067066120149
 30
-0.0000000000000013
 11
-4.909499383737538
 21
-7.026310140075691
 31
-0.0000000000000009
  0
SPLINE
  5
12DA
330
12A6
100
AcDbEntity
  8
0
 62
     0
370
     0
100
AcDbSpline
210
-0.0000000000000002
220
0.0
230
1.0
 70
     8
 71
     3
 72
    10
 73
     6
 74
     0
 42
0.000000001
 43
0.0000000001
 40
-0.3362174389793655
 40
-0.3362174389793655
 40
-0.3362174389793655
 40
-0.3362174389793655
 40
-0.1681087194896828
 40
-0.1681087194896828
 40
-0.0000000000000001
 40
-0.0000000000000001
 40
-0.0000000000000001
 40
-0.0000000000000001
 10
-4.909499383737538
 20
-7.026310140074668
 30
-0.0000000000000011
 10
-5.031444699419552
 20
-6.456614325259123
 30
-0.0000000000000011
 10
-5.170372281671123
 20
-5.90685188898734
 30
-0.0000000000000011
 10
-5.437246832936923
 20
-4.830606119385944
 30
-0.0000000000000012
 10
-5.565461874055297
 20
-4.303772482168991
 30
-0.0000000000000012
 10
-5.673507497823784
 20
-3.781662349548576
 30
-0.0000000000000013
  0
LINE
  5
12DB
330
12A6
100
AcDbEntity
  8
0
 62
     0
370
     0
100
AcDbLine
 10
-4.405127212166658
 20
-11.02900943257258
 30
-0.0000000000000009
 11
-3.77635364819432
 21
-10.73873626625319
 31
-0.0000000000000009
  0
ELLIPSE
  5
12DC
330
12A6
100
AcDbEntity
  8
0
 62
     0
370
     0
100
AcDbEllipse
 10
-0.0099999999999986
 20
3.531276150434591
 30
0.0
 11
-0.0000000000000038
 21
-18.35162588398389
 31
0.0
210
0.0000000000000002
220
0.0
230
-1.0
 40
0.3264015972136661
 41
0.6799749735957191
 42
0.9578323858778874
  0
LINE
  5
12DD
330
12A6
100
AcDbEntity
  8
0
 62
     0
370
     0
100
AcDbLine
 10
4.405127212263456
 20
-11.02900943236289
 30
0.0000000000000009
 11
3.776353648277266
 21
-10.73873626615078
 31
0.0000000000000009
  0
SPLINE
  5
12DE
330
12A6
100
AcDbEntity
  8
0
 62
     0
370
     0
100
AcDbSpline
210
-0.0000000000000002
220
0.0
230
1.0
 70
     8
 71
     3
 72
    18
 73
    14
 74
     0
 42
0.000000001
 43
0.0000000001
 40
-1.104473507680125
 40
-1.104473507680125
 40
-1.104473507680125
 40
-1.104473507680125
 40
-0.9239432375870533
 40
-0.9239432375870533
 40
-0.6590823849107775
 40
-0.6590823849107775
 40
-0.4177282721265497
 40
-0.4177282721265497
 40
-0.2320712622925281
 40
-0.2320712622925281
 40
-0.0892581778048194
 40
-0.0892581778048194
 40
-0.0000000000000014
 40
-0.0000000000000014
 40
-0.0000000000000014
 40
-0.0000000000000014
 10
3.776353648277268
 20
-10.73873626607342
 30
0.0000000000000008
 10
3.56021169662196
 20
-11.20710829276009
 30
0.0000000000000008
 10
3.25597057782395
 20
-11.63466591634835
 30
0.0000000000000007
 10
2.338933486513335
 20
-12.51721758669587
 30
0.0000000000000005
 10
1.647595643440059
 20
-12.88885992181248
 30
0.0000000000000004
 10
0.2356219963981897
 20
-13.20495839965975
 30
0.0000000000000001
 10
-0.4751392378420778
 20
-13.1846897682739
 30
-0.0000000000000001
 10
-1.649014539529877
 20
-12.85063565493097
 30
-0.0000000000000004
 10
-2.131031349099223
 20
-12.60663475170414
 30
-0.0000000000000005
 10
-2.872618515943671
 20
-12.03112562090737
 30
-0.0000000000000006
 10
-3.157872263059256
 20
-11.73316486905909
 30
-0.0000000000000007
 10
-3.541250091726643
 20
-11.19203223168188
 30
-0.0000000000000008
 10
-3.669488263547328
 20
-10.9703098057728
 30
-0.0000000000000008
 10
-3.776353648194317
 20
-10.73873626625319
 30
-0.0000000000000008
  0
ELLIPSE
  5
12DF
330
12A6
100
AcDbEntity
  8
0
 62
     0
370
     0
100
AcDbEllipse
 10
0.0100000000000015
 20
3.531276150434591
 30
0.0
 11
-0.0000000000000048
 21
-18.35162588398389
 31
0.0
210
0.0000000000000002
220
0.0
230
-1.0
 40
0.3264015972136661
 41
-0.9578323858778878
 42
-0.6799749736135289
  0
ELLIPSE
  5
12E0
330
12A6
100
AcDbEntity
  8
0
 62
     0
370
     0
100
AcDbEllipse
 10
-0.0100000000000006
 20
-5.739916153065245
 30
0.0
 11
5.990000000000002
 21
0.0000000000002303
 31
0.0000000000000012
210
-0.0000000000000002
220
0.0000000000000001
230
1.0
 40
0.37329922335761
 41
-2.528628712673341
 42
-1.570796326795397
  0
LINE
  5
12E1
330
12A6
100
AcDbEntity
  8
0
 62
     0
370
     0
100
AcDbLine
 10
-0.0100000000000007
 20
-7.975978500977332
 30
0.0
 11
-0.0099999999999993
 21
-5.046158730804068
 31
0.0
  0
ELLIPSE
  5
12E2
330
12A6
100
AcDbEntity
  8
0
 62
     0
370
     0
100
AcDbEllipse
 10
-0.0099999999999979
 20
0.6998277017755928
 30
0.0
 11
-5.990000000000008
 21
0.0000000000000027
 31
-0.0000000000000013
210
0.0000000000000002
220
0.0
230
-1.0
 40
0.9592631773922626
 41
-1.570796326794896
 42
-0.5844979605721421
  0
ELLIPSE
  5
12E3
330
12A6
100
AcDbEntity
  8
0
 62
     0
370
     0
100
AcDbEllipse
 10
-0.0100000000000025
 20
-8.999999999999998
 30
0.0
 11
-5.990000000000009
 21
0.0000000000000036
 31
-0.0000000000000013
210
0.0000000000000002
220
0.0
230
-1.0
 40
0.3732992233576103
 41
-1.570796326794896
 42
-0.8908213531991783
  0
LINE
  5
12E4
330
12A6
100
AcDbEntity
  8
0
 62
     0
370
     0
100
AcDbLine
 10
-0.0100000000000017
 20
-11.23606234791208
 30
0.0
 11
-0.0100000000000007
 21
-7.975978500977335
 31
0.0
  0
ELLIPSE
  5
12E5
330
12A6
100
AcDbEntity
  8
0
 62
     0
370
     0
100
AcDbEllipse
 10
0.0099999999999989
 20
-8.999999999999992
 30
0.0
 11
5.989999999999994
 21
-0.0000000000000041
 31
0.0000000000000013
210
-0.0000000000000002
220
0.0
230
1.0
 40
0.373299223357612
 41
-1.570796326794896
 42
-0.8908213531813675
  0
ARC
  5
12E6
330
12A6
100
AcDbEntity
  8
0
 62
     0
370
     0
100
AcDbCircle
 10
-0.0000000000000017
 20
-11.23606234791208
 30
0.0
 40
0.0100000000000011
100
AcDbArc
 50
180.0
 51
0.0
  0
ELLIPSE
  5
12E7
330
12A6
100
AcDbEntity
  8
0
 62
     0
370
     0
100
AcDbEllipse
 10
0.0099999999999987
 20
-5.739916153065244
 30
0.0
 11
5.990000000000003
 21
-0.0000000000000032
 31
0.0000000000000013
210
-0.0000000000000002
220
0.0
230
1.0
 40
0.3732992233576103
 41
-1.570796326794896
 42
-0.6129639409169524
  0
LINE
  5
12E8
330
12A6
100
AcDbEntity
  8
0
 62
     0
370
     0
100
AcDbLine
 10
0.0099999999999993
 20
-7.975978500977332
 30
0.0
 11
0.0099999999999983
 21
-11.23606234791208
 31
0.0
  0
ELLIPSE
  5
12E9
330
12A6
100
AcDbEntity
  8
0
 62
     0
370
     0
100
AcDbEllipse
 10
0.0100000000000045
 20
1.477307313026111
 30
0.0
 11
5.989999999999995
 21
-0.0000000000000031
 31
0.0000000000000013
210
-0.0000000000000002
220
0.0
230
1.0
 40
0.9592631773922629
 41
-1.570796326794896
 42
-0.7311573813995792
  0
LINE
  5
12EA
330
12A6
100
AcDbEntity
  8
0
 62
     0
370
     0
100
AcDbLine
 10
0.0100000000000015
 20
-4.268679119553541
 30
0.0
 11
0.0100000000000007
 21
-5.046158730804069
 31
0.0
  0
ELLIPSE
  5
12EB
330
12A6
100
AcDbEntity
  8
0
 62
     0
370
     0
100
AcDbEllipse
 10
0.010000000000003
 20
0.6998277017755821
 30
0.0
 11
5.989999999999998
 21
-0.0000000000000023
 31
0.0000000000000013
210
-0.0000000000000002
220
0.0
230
1.0
 40
0.9592631773922624
 41
-1.570796326794896
 42
-0.5844979605721037
  0
ELLIPSE
  5
12EC
330
12A6
100
AcDbEntity
  8
0
 62
     0
370
     0
100
AcDbEllipse
 10
-0.0099999999999982
 20
1.477307313026111
 30
0.0
 11
-5.989999999999998
 21
-0.0000000000000001
 31
-0.0000000000000013
210
0.0000000000000002
220
0.0
230
-1.0
 40
0.9592631773922628
 41
-1.570796326794896
 42
-0.7311573813981171
  0
ELLIPSE
  5
12ED
330
12A6
100
AcDbEntity
  8
0
 62
     0
370
     0
100
AcDbEllipse
 10
0.0000000000000014
 20
-4.26867911955354
 30
0.0
 11
0.0100000000000011
 21
0.0
 31
0.0
210
0.0000000000000002
220
0.0
230
-1.0
 40
0.2945114543284161
 41
-3.141592653589793
 42
0.0000000000000002
  0
LINE
  5
12EE
330
12A6
100
AcDbEntity
  8
0
 62
     0
370
     0
100
AcDbLine
 10
-0.0099999999999993
 20
-5.046158730804069
 30
0.0
 11
-0.0099999999999986
 21
-4.268679119553541
 31
0.0
  0
LINE
  5
12EF
330
12A6
100
AcDbEntity
  8
0
 62
     0
370
     0
100
AcDbLine
 10
0.0100000000000007
 20
-5.046158730804068
 30
0.0
 11
0.0099999999999993
 21
-7.975978500977332
 31
0.0
  0
LINE
  5
12F0
330
12A6
100
AcDbEntity
  8
0
 62
     0
370
     0
100
AcDbLine
 10
-0.0099999999999993
 20
-5.046158730804068
 30
0.0
 11
0.0100000000000007
 21
-5.046158730804068
 31
0.0
  0
LINE
  5
12F1
330
12A6
100
AcDbEntity
  8
0
 62
     0
370
     0
100
AcDbLine
 10
-0.0100000000000007
 20
-7.975978500977332
 30
0.0
 11
0.0099999999999993
 21
-7.975978500977332
 31
0.0
  0
ENDBLK
  5
12A8
330
12A6
100
AcDbEntity
  8
0
100
AcDbBlockEnd
  0
BLOCK
  5
12F3
330
12F2
100
AcDbEntity
  8
0
100
AcDbBlockBegin
  2
AA60280-Bottom
 70
     0
 10
0.0
 20
0.0
 30
0.0
  3
AA60280-Bottom
  1

  0
LINE
  5
12F5
330
12F2
100
AcDbEntity
  8
0
 62
     0
370
     0
100
AcDbLine
 10
20.00000000000001
 20
54.99999999999998
 30
-0.0000000000000044
 11
13.0
 21
61.99999999999999
 31
-0.0000000000000029
  0
LINE
  5
12F6
330
12F2
100
AcDbEntity
  8
0
 62
     0
370
     0
100
AcDbLine
 10
20.0
 20
-0.0000000000000056
 30
-0.0000000000000044
 11
20.0
 21
3.999999999999996
 31
-0.0000000000000044
  0
LINE
  5
12F7
330
12F2
100
AcDbEntity
  8
0
 62
     0
370
     0
100
AcDbLine
 10
20.00000000000002
 20
55.0
 30
-0.0000000000000044
 11
20.0
 21
3.999999999999997
 31
-0.0000000000000044
  0
LINE
  5
12F8
330
12F2
100
AcDbEntity
  8
0
 62
     0
370
     0
100
AcDbLine
 10
-12.99999999999997
 20
62.0
 30
0.0000000000000029
 11
-19.99999999999997
 21
55.0
 31
0.0000000000000044
  0
LINE
  5
12F9
330
12F2
100
AcDbEntity
  8
0
 62
     0
370
     0
100
AcDbLine
 10
-20.0
 20
4.000000000000002
 30
0.0000000000000044
 11
-19.99999999999998
 21
55.0
 31
0.0000000000000044
  0
LINE
  5
12FA
330
12F2
100
AcDbEntity
  8
0
 62
     0
370
     0
100
AcDbLine
 10
-20.0
 20
4.00000000000001
 30
0.0000000000000044
 11
-20.0
 21
0.0000000000000069
 31
0.0000000000000044
  0
LINE
  5
12FB
330
12F2
100
AcDbEntity
  8
0
 62
     0
370
     0
100
AcDbLine
 10
-6.633728976975006
 20
0.0000000000000023
 30
0.0000000000000013
 11
-20.0
 21
0.0000000000000069
 31
0.0000000000000043
  0
SPLINE
  5
12FC
330
12F2
100
AcDbEntity
  8
0
 62
     0
370
     0
100
AcDbSpline
210
0.0
220
0.0
230
1.0
 70
    24
 71
     3
 72
    15
 73
    11
 74
     0
 42
0.000000001
 43
0.0000000001
 40
0.0000000000000002
 40
0.0000000000000002
 40
0.0000000000000002
 40
0.0000000000000002
 40
0.0885213672804028
 40
0.0885213672804028
 40
0.1770427345608053
 40
0.1770427345608053
 40
0.1770427345608053
 40
0.2655641018412079
 40
0.2655641018412079
 40
0.3540854691216105
 40
0.3540854691216105
 40
0.3540854691216105
 40
0.3540854691216105
 10
-6.633728976975007
 20
0.0000000000000128
 30
0.0000000000000015
 10
-6.57297998284782
 20
0.0000000000000128
 30
0.0000000000000015
 10
-6.507182000218716
 20
0.0000000000000117
 30
0.0000000000000014
 10
-6.370462047561667
 20
0.0000000000000116
 30
0.0000000000000014
 10
-6.299530353884953
 20
0.0000000000000127
 30
0.0000000000000014
 10
-6.229000336651233
 20
0.0000000000000127
 30
0.0000000000000014
 10
-6.158470319417514
 20
0.0000000000000127
 30
0.0000000000000014
 10
-6.088340344893075
 20
0.0000000000000115
 30
0.0000000000000014
 10
-5.955993293293644
 20
0.0000000000000115
 30
0.0000000000000013
 10
-5.89379910687444
 20
0.0000000000000114
 30
0.0000000000000013
 10
-5.839584554633725
 20
0.0000000000000114
 30
0.0000000000000013
  0
SPLINE
  5
12FD
330
12F2
100
AcDbEntity
  8
0
 62
     0
370
     0
100
AcDbSpline
210
0.0
220
0.0
230
1.0
 70
    24
 71
     3
 72
    15
 73
    11
 74
     0
 42
0.000000001
 43
0.0000000001
 40
-0.9862983662227849
 40
-0.9862983662227849
 40
-0.9862983662227849
 40
-0.9862983662227849
 40
-0.9496335110159177
 40
-0.9496335110159177
 40
-0.9129686558090508
 40
-0.9129686558090508
 40
-0.9129686558090508
 40
-0.8763038006021838
 40
-0.8763038006021838
 40
-0.8396389453953167
 40
-0.8396389453953167
 40
-0.8396389453953167
 40
-0.8396389453953167
 10
-5.839584554633698
 20
0.0000000000000109
 30
0.0000000000000013
 10
-5.79244641424532
 20
0.0000000000000109
 30
0.0000000000000013
 10
-5.744001999278731
 20
0.0000000000000125
 30
0.0000000000000013
 10
-5.64456573144902
 20
0.0000000000000125
 30
0.0000000000000013
 10
-5.593573881580683
 20
0.0000000000000119
 30
0.0000000000000012
 10
-5.541342583316758
 20
0.0000000000000119
 30
0.0000000000000012
 10
-5.489111285052834
 20
0.0000000000000119
 30
0.0000000000000012
 10
-5.43564054153949
 20
0.0000000000000113
 30
0.0000000000000012
 10
-5.326292030863418
 20
0.0000000000000113
 30
0.0000000000000012
 10
-5.270414266994009
 20
0.0000000000000118
 30
0.0000000000000012
 10
-5.21337054558448
 20
0.0000000000000118
 30
0.0000000000000012
  0
SPLINE
  5
12FE
330
12F2
100
AcDbEntity
  8
0
 62
     0
370
     0
100
AcDbSpline
210
0.0
220
0.0
230
1.0
 70
    24
 71
     3
 72
    19
 73
    15
 74
     0
 42
0.000000001
 43
0.0000000001
 40
0.0000000000000001
 40
0.0000000000000001
 40
0.0000000000000001
 40
0.0000000000000001
 40
0.2920284009765963
 40
0.2920284009765963
 40
0.5500250827484545
 40
0.5500250827484545
 40
0.7112730088558658
 40
0.7112730088558658
 40
0.7112730088558658
 40
0.872520934963277
 40
0.872520934963277
 40
1.130517616735135
 40
1.130517616735135
 40
1.422546017711731
 40
1.422546017711731
 40
1.422546017711731
 40
1.422546017711731
 10
-5.213370545584481
 20
0.0000000000000123
 30
0.0000000000000012
 10
-4.974246903420493
 20
0.0000000000000122
 30
0.0000000000000011
 10
-4.473124882496406
 20
0.0000000000000588
 30
0.000000000000001
 10
-3.169033835652681
 20
0.0000000000000582
 30
0.0000000000000007
 10
-2.410164907943468
 20
0.0000000000000108
 30
0.0000000000000005
 10
-1.074947806170434
 20
0.0000000000000104
 30
0.0000000000000002
 10
-0.537541994474179
 20
0.0000000000000107
 30
0.0000000000000001
 10
-0.0000011238657151
 20
0.0000000000000105
 30
0.0
 10
0.5375397467427487
 20
0.0000000000000104
 30
-0.0000000000000001
 10
1.074945930352559
 20
0.0000000000000096
 30
-0.0000000000000002
 10
2.410166454407223
 20
0.0000000000000091
 30
-0.0000000000000005
 10
3.169046524180971
 20
-0.0000000000000082
 30
-0.0000000000000007
 10
4.473115511651585
 20
-0.0000000000000088
 30
-0.000000000000001
 10
4.974246903432191
 20
0.0000000000000115
 30
-0.0000000000000011
 10
5.213370545591302
 20
0.0000000000000115
 30
-0.0000000000000012
  0
SPLINE
  5
12FF
330
12F2
100
AcDbEntity
  8
0
 62
     0
370
     0
100
AcDbSpline
210
0.0
220
0.0
230
1.0
 70
    24
 71
     3
 72
    15
 73
    11
 74
     0
 42
0.000000001
 43
0.0000000001
 40
0.8396389453964111
 40
0.8396389453964111
 40
0.8396389453964111
 40
0.8396389453964111
 40
0.8763038006029974
 40
0.8763038006029974
 40
0.9129686558095835
 40
0.9129686558095835
 40
0.9129686558095835
 40
0.9496335110161698
 40
0.9496335110161698
 40
0.9862983662227559
 40
0.9862983662227559
 40
0.9862983662227559
 40
0.9862983662227559
 10
5.213370545589584
 20
0.0000000000000082
 30
-0.0000000000000012
 10
5.270414266998606
 20
0.0000000000000082
 30
-0.0000000000000012
 10
5.326292030867526
 20
0.000000000000007
 30
-0.0000000000000012
 10
5.435640541542653
 20
0.000000000000007
 30
-0.0000000000000012
 10
5.489111285055543
 20
0.0000000000000081
 30
-0.0000000000000012
 10
5.541342583319031
 20
0.0000000000000081
 30
-0.0000000000000012
 10
5.593573881582519
 20
0.0000000000000081
 30
-0.0000000000000012
 10
5.644565731450438
 20
0.0000000000000075
 30
-0.0000000000000013
 10
5.744001999279353
 20
0.0000000000000075
 30
-0.0000000000000013
 10
5.792446414245564
 20
0.0000000000000074
 30
-0.0000000000000013
 10
5.839584554633582
 20
0.0000000000000074
 30
-0.0000000000000013
  0
SPLINE
  5
1300
330
12F2
100
AcDbEntity
  8
0
 62
     0
370
     0
100
AcDbSpline
210
0.0
220
0.0
230
1.0
 70
    24
 71
     3
 72
    15
 73
    11
 74
     0
 42
0.000000001
 43
0.0000000001
 40
0.0
 40
0.0
 40
0.0
 40
0.0
 40
0.0885213672804218
 40
0.0885213672804218
 40
0.1770427345608435
 40
0.1770427345608435
 40
0.1770427345608435
 40
0.2655641018412653
 40
0.2655641018412653
 40
0.3540854691216871
 40
0.3540854691216871
 40
0.3540854691216871
 40
0.3540854691216871
 10
5.839584554633579
 20
0.0000000000000096
 30
-0.0000000000000013
 10
5.893799106874292
 20
0.0000000000000097
 30
-0.0000000000000013
 10
5.955993293293501
 20
0.0000000000000102
 30
-0.0000000000000013
 10
6.08834034489295
 20
0.00000000000001
 30
-0.0000000000000014
 10
6.158470319417403
 20
0.000000000000009
 30
-0.0000000000000014
 10
6.229000336651139
 20
0.000000000000009
 30
-0.0000000000000014
 10
6.299530353884873
 20
0.0000000000000089
 30
-0.0000000000000014
 10
6.370462047561606
 20
0.000000000000009
 30
-0.0000000000000014
 10
6.507182000218686
 20
0.0000000000000088
 30
-0.0000000000000014
 10
6.572979982847804
 20
0.0000000000000093
 30
-0.0000000000000015
 10
6.633728976975004
 20
0.0000000000000094
 30
-0.0000000000000015
  0
LINE
  5
1301
330
12F2
100
AcDbEntity
  8
0
 62
     0
370
     0
100
AcDbLine
 10
20.0
 20
-0.0000000000000069
 30
-0.0000000000000044
 11
6.633728976975005
 21
-0.0000000000000023
 31
-0.0000000000000015
  0
SPLINE
  5
1302
330
12F2
100
AcDbEntity
  8
0
 62
     0
370
     0
100
AcDbSpline
210
0.0
220
0.0
230
1.0
 70
    24
 71
     3
 72
    11
 73
     7
 74
     0
 42
0.000000001
 43
0.0000000001
 40
-1.0
 40
-1.0
 40
-1.0
 40
-1.0
 40
-0.75
 40
-0.5
 40
-0.25
 40
0.0
 40
0.0
 40
0.0
 40
0.0
 10
-6.619001237026418
 20
4.000000000000014
 30
0.0000000000000015
 10
-6.295810910864217
 20
3.925367441859124
 30
0.0000000000000014
 10
-5.649506354747598
 20
3.776119898054588
 30
0.0000000000000013
 10
-4.785681796730138
 20
3.576641660833434
 30
0.0000000000000011
 10
-4.121732450532498
 20
3.423319503047586
 30
0.0000000000000009
 10
-3.860602601244401
 20
3.363018228282528
 30
0.0000000000000009
 10
-3.782520019418513
 20
3.344987048645713
 30
0.0000000000000008
  0
SPLINE
  5
1303
330
12F2
100
AcDbEntity
  8
0
 62
     0
370
     0
100
AcDbSpline
210
0.0000000000000002
220
0.0
230
1.0
 70
     8
 71
     3
 72
    15
 73
    11
 74
     0
 42
0.000000001
 43
0.0000000001
 40
0.0
 40
0.0
 40
0.0
 40
0.0
 40
0.0840543597448414
 40
0.0840543597448414
 40
0.1681087194896827
 40
0.1681087194896827
 40
0.1681087194896827
 40
0.252163079234524
 40
0.252163079234524
 40
0.3362174389793653
 40
0.3362174389793653
 40
0.3362174389793653
 40
0.3362174389793653
 10
-5.727445858485035
 20
7.241067066120146
 30
0.0000000000000013
 10
-5.798597591090818
 20
6.970070875549077
 30
0.0000000000000013
 10
-5.874873708730102
 20
6.700497527672765
 30
0.0000000000000013
 10
-6.030436752406152
 20
6.162228768837519
 30
0.0000000000000013
 10
-6.109727133091506
 20
5.89352657330494
 30
0.0000000000000014
 10
-6.187584107772139
 20
5.624411440114719
 30
0.0000000000000014
 10
-6.265441082452773
 20
5.355296306924497
 30
0.0000000000000014
 10
-6.341875571715282
 20
5.085763619006054
 30
0.0000000000000014
 10
-6.487129720355801
 20
4.544616365275768
 30
0.0000000000000014
 10
-6.555959591772519
 20
4.272996804597644
 30
0.0000000000000015
 10
-6.619001237026418
 20
4.000000000000014
 30
0.0000000000000015
  0
SPLINE
  5
1304
330
12F2
100
AcDbEntity
  8
0
 62
     0
370
     0
100
AcDbSpline
210
0.0
220
0.0
230
1.0
 70
    24
 71
     3
 72
    11
 73
     7
 74
     0
 42
0.000000001
 43
0.0000000001
 40
0.0
 40
0.0
 40
0.0
 40
0.0
 40
0.25
 40
0.5
 40
0.75
 40
1.0
 40
1.0
 40
1.0
 40
1.0
 10
-3.27360643424253
 20
6.596796287983714
 30
0.0000000000000007
 10
-3.40366809614327
 20
6.630944784943483
 30
0.0000000000000008
 10
-3.715980875694765
 20
6.712944444544564
 30
0.0000000000000008
 10
-4.31147296134098
 20
6.869294589384138
 30
0.000000000000001
 10
-4.996379992861996
 20
7.049121183492013
 30
0.0000000000000011
 10
-5.483750923530166
 20
7.17708344770561
 30
0.0000000000000012
 10
-5.727445858485035
 20
7.241067066120146
 30
0.0000000000000013
  0
SPLINE
  5
1305
330
12F2
100
AcDbEntity
  8
0
 62
     0
370
     0
100
AcDbSpline
210
0.0000000000000002
220
0.0
230
1.0
 70
     8
 71
     3
 72
    15
 73
    11
 74
     0
 42
0.000000001
 43
0.0000000001
 40
-0.3362174389793653
 40
-0.3362174389793653
 40
-0.3362174389793653
 40
-0.3362174389793653
 40
-0.252163079234524
 40
-0.252163079234524
 40
-0.1681087194896827
 40
-0.1681087194896827
 40
-0.1681087194896827
 40
-0.0840543597448414
 40
-0.0840543597448414
 40
0.0
 40
0.0
 40
0.0
 40
0.0
 10
-3.782520019418513
 20
3.344987048645713
 30
0.0000000000000008
 10
-3.746534874273583
 20
3.582158638381072
 30
0.0000000000000008
 10
-3.707245720203097
 20
3.825823688787198
 30
0.0000000000000008
 10
-3.62433240788898
 20
4.328942963055847
 30
0.0000000000000008
 10
-3.580702420455874
 20
4.588410071509878
 30
0.0000000000000008
 10
-3.536260456367787
 20
4.85736413233049
 30
0.0000000000000008
 10
-3.491818492279701
 20
5.126318193151102
 30
0.0000000000000008
 10
-3.446558317897074
 20
5.40478128257885
 30
0.0000000000000008
 10
-3.357760529017611
 20
5.983726478582261
 30
0.0000000000000007
 10
-3.314220942553986
 20
6.284244946902534
 30
0.0000000000000007
 10
-3.27360643424253
 20
6.596796287983714
 30
0.0000000000000007
  0
ELLIPSE
  5
1306
330
12F2
100
AcDbEntity
  8
0
 62
     0
370
     0
100
AcDbEllipse
 10
0.0100000000000024
 20
3.00000000000001
 30
0.0
 11
-3.99
 21
0.0000000000000013
 31
0.0000000000000009
210
-0.0000000000000002
220
0.0
230
-1.0
 40
0.7212505093174909
 41
-2.557094693019121
 42
-2.410435272191306
  0
ELLIPSE
  5
1307
330
12F2
100
AcDbEntity
  8
0
 62
     0
370
     0
100
AcDbEllipse
 10
0.0099999999999976
 20
-1.477307313026109
 30
0.0
 11
3.990000000000001
 21
-0.0000000000000026
 31
-0.0000000000000009
210
-0.0000000000000002
220
0.0
230
-1.0
 40
0.9592631773922619
 41
-1.570796326794896
 42
-0.7311573813978019
  0
LINE
  5
1308
330
12F2
100
AcDbEntity
  8
0
 62
     0
370
     0
100
AcDbLine
 10
0.0099999999999994
 20
3.127632376019543
 30
0.0
 11
0.0099999999999986
 21
2.350152764769016
 31
0.0
  0
ELLIPSE
  5
1309
330
12F2
100
AcDbEntity
  8
0
 62
     0
370
     0
100
AcDbEllipse
 10
0.0099999999999965
 20
-0.6998277017755919
 30
0.0
 11
3.990000000000006
 21
-0.0000000000000031
 31
-0.0000000000000009
210
-0.0000000000000002
220
0.0
230
-1.0
 40
0.9592631773922628
 41
-1.570796326794896
 42
-0.584497960572142
  0
SPLINE
  5
130A
330
12F2
100
AcDbEntity
  8
0
 62
     0
370
     0
100
AcDbSpline
210
0.0000000000000002
220
0.0
230
1.0
 70
     8
 71
     3
 72
    11
 73
     7
 74
     0
 42
0.000000001
 43
0.0000000001
 40
-1.0
 40
-1.0
 40
-1.0
 40
-1.0
 40
-0.75
 40
-0.5
 40
-0.25
 40
0.0
 40
0.0
 40
0.0
 40
0.0
 10
5.839584554633582
 20
0.0000000000000074
 30
-0.0000000000000013
 10
5.590641563881364
 20
0.0000000000000075
 30
-0.0000000000000012
 10
5.092775334255597
 20
0.0644814919009367
 30
-0.0000000000000011
 10
4.393604057264665
 20
0.3484761680460739
 30
-0.000000000000001
 10
3.786682135011341
 20
0.801630361220808
 30
-0.0000000000000008
 10
3.469383196900702
 20
1.19722176614955
 30
-0.0000000000000008
 10
3.337616934619169
 20
1.412091115117778
 30
-0.0000000000000007
  0
SPLINE
  5
130B
330
12F2
100
AcDbEntity
  8
0
 62
     0
370
     0
100
AcDbSpline
210
0.0000000000000002
220
0.0
230
1.0
 70
     8
 71
     3
 72
    11
 73
     7
 74
     0
 42
0.000000001
 43
0.0000000001
 40
-1.0
 40
-1.0
 40
-1.0
 40
-1.0
 40
-0.75
 40
-0.5
 40
-0.25
 40
0.0
 40
0.0
 40
0.0
 40
0.0
 10
5.213370545591302
 20
0.0000000000000115
 30
-0.0000000000000012
 10
5.001176166219482
 20
0.0000000000000116
 30
-0.0000000000000011
 10
4.576796776042939
 20
0.0481097688242428
 30
-0.000000000000001
 10
3.970602296576037
 20
0.2611588382065044
 30
-0.0000000000000009
 10
3.423722149448352
 20
0.6049261931771478
 30
-0.0000000000000008
 10
3.116081247990525
 20
0.9103069200595136
 30
-0.0000000000000007
 10
2.980164302848253
 20
1.078408878529578
 30
-0.0000000000000007
  0
SPLINE
  5
130C
330
12F2
100
AcDbEntity
  8
0
 62
     0
370
     0
100
AcDbSpline
210
0.0000000000000002
220
0.0
230
1.0
 70
     8
 71
     3
 72
    11
 73
     7
 74
     0
 42
0.000000001
 43
0.0000000001
 40
-1.0
 40
-1.0
 40
-1.0
 40
-1.0
 40
-0.75
 40
-0.5
 40
-0.25
 40
0.0
 40
0.0
 40
0.0
 40
0.0
 10
6.633728976975004
 20
0.0000000000000094
 30
-0.0000000000000015
 10
6.311162057929736
 20
0.0000000000000095
 30
-0.0000000000000014
 10
5.666102275326915
 20
0.1096429890729966
 30
-0.0000000000000013
 10
4.802643930145988
 20
0.5853210950588468
 30
-0.0000000000000011
 10
4.136358812080713
 20
1.32101444881259
 30
-0.0000000000000009
 10
3.871444401600427
 20
1.931960756628156
 30
-0.0000000000000009
 10
3.790926840934231
 20
2.251154821723411
 30
-0.0000000000000008
  0
SPLINE
  5
130D
330
12F2
100
AcDbEntity
  8
0
 62
     0
370
     0
100
AcDbSpline
210
0.0000000000000002
220
0.0
230
1.0
 70
     8
 71
     3
 72
    15
 73
    11
 74
     0
 42
0.000000001
 43
0.0000000001
 40
-0.3540854691216871
 40
-0.3540854691216871
 40
-0.3540854691216871
 40
-0.3540854691216871
 40
-0.2655641018412653
 40
-0.2655641018412653
 40
-0.1770427345608435
 40
-0.1770427345608435
 40
-0.1770427345608435
 40
-0.0885213672804218
 40
-0.0885213672804218
 40
0.0
 40
0.0
 40
0.0
 40
0.0
 10
3.790926840934231
 20
2.251154821723411
 30
-0.0000000000000008
 10
3.756250376475357
 20
2.175315114704894
 30
-0.0000000000000008
 10
3.718691871369465
 20
2.098713808119879
 30
-0.0000000000000008
 10
3.640650009981517
 20
1.946680174522619
 30
-0.0000000000000008
 10
3.600161103290508
 20
1.871238761376336
 30
-0.0000000000000008
 10
3.559901479719319
 20
1.79830334172574
 30
-0.0000000000000008
 10
3.519641856148132
 20
1.725367922075143
 30
-0.0000000000000008
 10
3.479610583136319
 20
1.654938317974182
 30
-0.0000000000000008
 10
3.404064841236205
 20
1.52427772854438
 30
-0.0000000000000008
 10
3.368563438687901
 20
1.464068434643201
 30
-0.0000000000000007
 10
3.337616934619168
 20
1.412091115117777
 30
-0.0000000000000007
  0
SPLINE
  5
130E
330
12F2
100
AcDbEntity
  8
0
 62
     0
370
     0
100
AcDbSpline
210
0.0000000000000002
220
0.0
230
1.0
 70
     8
 71
     3
 72
    11
 73
     7
 74
     0
 42
0.000000001
 43
0.0000000001
 40
-1.0
 40
-1.0
 40
-1.0
 40
-1.0
 40
-0.75
 40
-0.5
 40
-0.25
 40
0.0
 40
0.0
 40
0.0
 40
0.0
 10
-5.21337054558448
 20
0.0000000000000118
 30
0.0000000000000012
 10
-5.00117616621294
 20
0.0000000000000117
 30
0.0000000000000011
 10
-4.576796776036955
 20
0.0481097688242441
 30
0.000000000000001
 10
-3.970602296570846
 20
0.2611588382065026
 30
0.0000000000000009
 10
-3.423722149443879
 20
0.604926193177144
 30
0.0000000000000008
 10
-3.116081247986455
 20
0.9103069200595076
 30
0.0000000000000007
 10
-2.980164302844361
 20
1.078408878529572
 30
0.0000000000000007
  0
SPLINE
  5
130F
330
12F2
100
AcDbEntity
  8
0
 62
     0
370
     0
100
AcDbSpline
210
0.0000000000000002
220
0.0
230
1.0
 70
     8
 71
     3
 72
    19
 73
    15
 74
     0
 42
0.000000001
 43
0.0000000001
 40
-1.422546017711731
 40
-1.422546017711731
 40
-1.422546017711731
 40
-1.422546017711731
 40
-1.130517616735135
 40
-1.130517616735135
 40
-0.872520934963277
 40
-0.872520934963277
 40
-0.7112730088558658
 40
-0.7112730088558658
 40
-0.7112730088558658
 40
-0.5500250827484545
 40
-0.5500250827484545
 40
-0.2920284009765963
 40
-0.2920284009765963
 40
-0.0000000000000001
 40
-0.0000000000000001
 40
-0.0000000000000001
 40
-0.0000000000000001
 10
2.980164302848253
 20
1.078408878529578
 30
-0.0000000000000007
 10
2.843668833289623
 20
1.078180137747111
 30
-0.0000000000000006
 10
2.557399809834695
 20
1.077932502928695
 30
-0.0000000000000006
 10
1.812079451170716
 20
1.077515436955951
 30
-0.0000000000000004
 10
1.378230307436087
 20
1.077342559200231
 30
-0.0000000000000003
 10
0.6147321633101388
 20
1.07717906173817
 30
-0.0000000000000001
 10
0.3074048020582205
 20
1.07714488082509
 30
-0.0000000000000001
 10
-0.0000006427091579
 20
1.077144880871509
 30
0.0
 10
-0.3074060874765363
 20
1.077144880917928
 30
0.0000000000000001
 10
-0.6147332359508631
 20
1.077179061945474
 30
0.0000000000000001
 10
-1.378229423111968
 20
1.077342559046691
 30
0.0000000000000003
 10
-1.812072198959174
 20
1.077515433075172
 30
0.0000000000000004
 10
-2.557405165912815
 20
1.077932505725118
 30
0.0000000000000006
 10
-2.843668833282942
 20
1.078180137747105
 30
0.0000000000000006
 10
-2.980164302844361
 20
1.078408878529573
 30
0.0000000000000007
  0
ELLIPSE
  5
1310
330
12F2
100
AcDbEntity
  8
0
 62
     0
370
     0
100
AcDbEllipse
 10
0.0099999999999981
 20
-3.531276150434591
 30
0.0
 11
0.0000000000000064
 21
17.60502743726867
 31
0.0
210
-0.0000000000000002
220
0.0
230
-1.0
 40
0.2266398058291823
 41
0.6799749735961566
 42
0.9578323858779169
  0
ELLIPSE
  5
1311
330
12F2
100
AcDbEntity
  8
0
 62
     0
370
     0
100
AcDbEllipse
 10
0.010000000000002
 20
5.73991615306525
 30
0.0
 11
-3.990000000000001
 21
-0.0000000000001505
 31
0.000000000000001
210
0.0000000000000002
220
0.0000000000000001
230
1.0
 40
0.3732992233576092
 41
-2.528628712673341
 42
-1.570796326795397
  0
LINE
  5
1312
330
12F2
100
AcDbEntity
  8
0
 62
     0
370
     0
100
AcDbLine
 10
0.0100000000000033
 20
10.48946390119686
 30
0.0
 11
0.0100000000000019
 21
7.229380054262114
 31
0.0
  0
ELLIPSE
  5
1313
330
12F2
100
AcDbEntity
  8
0
 62
     0
370
     0
100
AcDbEllipse
 10
0.0100000000000074
 20
8.999999999999989
 30
0.0
 11
3.989999999999997
 21
0.0000000000000043
 31
-0.0000000000000009
210
-0.0000000000000002
220
0.0
230
-1.0
 40
0.3732992233576133
 41
-1.570796326794896
 42
-0.8908213531991766
  0
SPLINE
  5
1314
330
12F2
100
AcDbEntity
  8
0
 62
     0
370
     0
100
AcDbSpline
210
0.0000000000000002
220
0.0
230
1.0
 70
     8
 71
     3
 72
    21
 73
    17
 74
     0
 42
0.000000001
 43
0.0000000001
 40
-1.104473507680125
 40
-1.104473507680125
 40
-1.104473507680125
 40
-1.104473507680125
 40
-0.9790696728996975
 40
-0.9790696728996975
 40
-0.789366153317638
 40
-0.789366153317638
 40
-0.643440369023746
 40
-0.643440369023746
 40
-0.5522367538400636
 40
-0.5522367538400636
 40
-0.5522367538400636
 40
-0.4069003860607701
 40
-0.4069003860607701
 40
-0.1743621976139003
 40
-0.1743621976139003
 40
-0.0000000000000014
 40
-0.0000000000000014
 40
-0.0000000000000014
 40
-0.0000000000000014
 10
-2.518806520304888
 20
10.15818993349449
 30
0.0000000000000006
 10
-2.418795944618971
 20
10.37519689868263
 30
0.0000000000000005
 10
-2.290582073458169
 20
10.5792103204494
 30
0.0000000000000005
 10
-1.908156911124537
 20
11.04223581257416
 30
0.0000000000000004
 10
-1.622771400346063
 20
11.27537357460635
 30
0.0000000000000004
 10
-1.057868982989995
 20
11.57618802498229
 30
0.0000000000000002
 10
-0.7924190299479063
 20
11.66975282076295
 30
0.0000000000000002
 10
-0.3480201572638956
 20
11.75441844058352
 30
0.0000000000000001
 10
-0.1740125577365717
 20
11.77084802550794
 30
0.0
 10
-0.0000136458532398
 20
11.77084888183114
 30
0.0
 10
0.2772601201015691
 20
11.77085024641415
 30
-0.0000000000000001
 10
0.5545134968608895
 20
11.72894102420608
 30
-0.0000000000000001
 10
1.243101138949672
 20
11.51597065485928
 30
-0.0000000000000003
 10
1.634274598680064
 20
11.28153688624102
 30
-0.0000000000000004
 10
2.185898442603925
 20
10.7363760892067
 30
-0.0000000000000005
 10
2.379751252972027
 20
10.45991763925553
 30
-0.0000000000000005
 10
2.518806520249638
 20
10.1581899336144
 30
-0.0000000000000006
  0
ARC
  5
1315
330
12F2
100
AcDbEntity
  8
0
 62
     0
370
     0
100
AcDbCircle
 10
0.0000000000000032
 20
10.48946390119686
 30
0.0
 40
0.0100000000000011
100
AcDbArc
 50
0.0
 51
180.0
  0
ELLIPSE
  5
1316
330
12F2
100
AcDbEntity
  8
0
 62
     0
370
     0
100
AcDbEllipse
 10
-0.0099999999999996
 20
9.000000000000003
 30
0.0
 11
-3.98999999999999
 21
0.0000000000000031
 31
0.0000000000000009
210
0.0000000000000002
220
0.0
230
1.0
 40
0.3732992233576104
 41
-1.570796326794896
 42
-0.8908213531813663
  0
LINE
  5
1317
330
12F2
100
AcDbEntity
  8
0
 62
     0
370
     0
100
AcDbLine
 10
-0.0099999999999982
 20
7.229380054262111
 30
0.0
 11
-0.0099999999999968
 21
10.48946390119686
 31
0.0
  0
LINE
  5
1318
330
12F2
100
AcDbEntity
  8
0
 62
     0
370
     0
100
AcDbLine
 10
0.0100000000000019
 20
7.229380054262111
 30
0.0
 11
-0.0099999999999982
 21
7.229380054262111
 31
0.0
  0
LINE
  5
1319
330
12F2
100
AcDbEntity
  8
0
 62
     0
370
     0
100
AcDbLine
 10
0.0099999999999994
 20
3.127632376019541
 30
0.0
 11
0.0100000000000019
 21
7.229380054262112
 31
0.0
  0
SPLINE
  5
131A
330
12F2
100
AcDbEntity
  8
0
 62
     0
370
     0
100
AcDbSpline
210
0.0000000000000002
220
0.0
230
1.0
 70
     8
 71
     3
 72
    15
 73
    11
 74
     0
 42
0.000000001
 43
0.0000000001
 40
-0.3362174389793655
 40
-0.3362174389793655
 40
-0.3362174389793655
 40
-0.3362174389793655
 40
-0.2521630792345241
 40
-0.2521630792345241
 40
-0.1681087194896828
 40
-0.1681087194896828
 40
-0.1681087194896828
 40
-0.0840543597448415
 40
-0.0840543597448415
 40
-0.0000000000000001
 40
-0.0000000000000001
 40
-0.0000000000000001
 40
-0.0000000000000001
 10
3.273606434242535
 20
6.596796287983716
 30
-0.0000000000000007
 10
3.31422094255399
 20
6.284244946902535
 30
-0.0000000000000007
 10
3.357760529017614
 20
5.983726478582261
 30
-0.0000000000000007
 10
3.446558317897076
 20
5.404781282578849
 30
-0.0000000000000008
 10
3.491818492279703
 20
5.126318193151097
 30
-0.0000000000000008
 10
3.53626045636779
 20
4.857364132330488
 30
-0.0000000000000008
 10
3.580702420455876
 20
4.588410071509879
 30
-0.0000000000000008
 10
3.624332407888981
 20
4.328942963055853
 30
-0.0000000000000008
 10
3.707245720203098
 20
3.825823688787202
 30
-0.0000000000000008
 10
3.746534874273584
 20
3.582158638381072
 30
-0.0000000000000008
 10
3.782520019418514
 20
3.344987048645711
 30
-0.0000000000000008
  0
SPLINE
  5
131B
330
12F2
100
AcDbEntity
  8
0
 62
     0
370
     0
100
AcDbSpline
210
0.0000000000000002
220
0.0
230
1.0
 70
     8
 71
     3
 72
    15
 73
    11
 74
     0
 42
0.000000001
 43
0.0000000001
 40
-0.1582917721517041
 40
-0.1582917721517041
 40
-0.1582917721517041
 40
-0.1582917721517041
 40
-0.1126831669184673
 40
-0.1126831669184673
 40
-0.0791458860758521
 40
-0.0791458860758521
 40
-0.0791458860758521
 40
-0.0501383906737815
 40
-0.0501383906737815
 40
0.0
 40
0.0
 40
0.0
 40
0.0
 10
3.782520019418514
 20
3.344987048645711
 30
-0.0000000000000008
 10
3.802045862981632
 20
3.216295741715102
 30
-0.0000000000000008
 10
3.815995775828966
 20
3.07900008721626
 30
-0.0000000000000008
 10
3.830833227061622
 20
2.850698277819138
 30
-0.0000000000000009
 10
3.834225475591918
 20
2.757107728049663
 30
-0.0000000000000009
 10
3.834801419061004
 20
2.67178334486846
 30
-0.0000000000000009
 10
3.835299571478601
 20
2.597983484217018
 30
-0.0000000000000009
 10
3.833690412432772
 20
2.530355007189694
 30
-0.0000000000000009
 10
3.823465916583174
 20
2.36951159762192
 30
-0.0000000000000008
 10
3.810567546626414
 20
2.294110336034819
 30
-0.0000000000000008
 10
3.790926840934231
 20
2.251154821723413
 30
-0.0000000000000008
  0
LINE
  5
131C
330
12F2
100
AcDbEntity
  8
0
 62
     0
370
     0
100
AcDbLine
 10
-0.0100000000000015
 20
2.350152764769016
 30
0.0
 11
-0.0100000000000006
 21
3.127632376019543
 31
0.0
  0
LINE
  5
131D
330
12F2
100
AcDbEntity
  8
0
 62
     0
370
     0
100
AcDbLine
 10
0.0099999999999994
 20
3.127632376019543
 30
0.0
 11
-0.0100000000000006
 21
3.127632376019543
 31
0.0
  0
ELLIPSE
  5
131E
330
12F2
100
AcDbEntity
  8
0
 62
     0
370
     0
100
AcDbEllipse
 10
-0.0000000000000014
 20
2.350152764769015
 30
0.0
 11
-0.0100000000000011
 21
0.0
 31
0.0
210
-0.0000000000000002
220
0.0
230
-1.0
 40
0.2945114543284161
 41
-3.141592653589793
 42
0.0000000000000002
  0
ELLIPSE
  5
131F
330
12F2
100
AcDbEntity
  8
0
 62
     0
370
     0
100
AcDbEllipse
 10
-0.0100000000000042
 20
-1.477307313026114
 30
0.0
 11
-3.989999999999999
 21
0.000000000000003
 31
0.0000000000000009
210
0.0000000000000002
220
0.0
230
1.0
 40
0.9592631773922635
 41
-1.570796326794896
 42
-0.7311573813995795
  0
SPLINE
  5
1320
330
12F2
100
AcDbEntity
  8
0
 62
     0
370
     0
100
AcDbSpline
210
0.0
220
0.0
230
1.0
 70
    24
 71
     3
 72
    11
 73
     7
 74
     0
 42
0.000000001
 43
0.0000000001
 40
-1.0
 40
-1.0
 40
-1.0
 40
-1.0
 40
-0.75
 40
-0.5
 40
-0.25
 40
0.0
 40
0.0
 40
0.0
 40
0.0
 10
6.619001237026421
 20
4.000000000000004
 30
-0.0000000000000015
 10
6.29581091086422
 20
3.925367441859116
 30
-0.0000000000000014
 10
5.649506354747601
 20
3.776119898054582
 30
-0.0000000000000013
 10
4.785681796730139
 20
3.576641660833428
 30
-0.0000000000000011
 10
4.121732450532499
 20
3.423319503047582
 30
-0.0000000000000009
 10
3.860602601244402
 20
3.363018228282525
 30
-0.0000000000000009
 10
3.782520019418514
 20
3.344987048645711
 30
-0.0000000000000008
  0
SPLINE
  5
1321
330
12F2
100
AcDbEntity
  8
0
 62
     0
370
     0
100
AcDbSpline
210
0.0000000000000002
220
0.0
230
1.0
 70
     8
 71
     3
 72
    15
 73
    11
 74
     0
 42
0.000000001
 43
0.0000000001
 40
0.0
 40
0.0
 40
0.0
 40
0.0
 40
0.0501383906737815
 40
0.0501383906737815
 40
0.0791458860758521
 40
0.0791458860758521
 40
0.0791458860758521
 40
0.1126831669184673
 40
0.1126831669184673
 40
0.1582917721517041
 40
0.1582917721517041
 40
0.1582917721517041
 40
0.1582917721517041
 10
6.633728976975005
 20
0.0000000000000088
 30
-0.0000000000000015
 10
6.668137130556048
 20
0.00000000000001
 30
-0.0000000000000015
 10
6.690733523036687
 20
0.1649998983556611
 30
-0.0000000000000015
 10
6.708645609750644
 20
0.6663866302491482
 30
-0.0000000000000015
 10
6.711464662815894
 20
0.9001636359807104
 30
-0.0000000000000015
 10
6.710591959708375
 20
1.173863233865735
 30
-0.0000000000000015
 10
6.709582976036969
 20
1.490303524678492
 30
-0.0000000000000015
 10
6.703640164701939
 20
1.860165521124383
 30
-0.0000000000000015
 10
6.677646735098868
 20
2.805860429249235
 30
-0.0000000000000015
 10
6.653208165975341
 20
3.407478516111474
 30
-0.0000000000000015
 10
6.619001237026421
 20
4.000000000000004
 30
-0.0000000000000015
  0
SPLINE
  5
1322
330
12F2
100
AcDbEntity
  8
0
 62
     0
370
     0
100
AcDbSpline
210
0.0000000000000002
220
0.0
230
1.0
 70
     8
 71
     3
 72
    11
 73
     7
 74
     0
 42
0.000000001
 43
0.0000000001
 40
-1.0
 40
-1.0
 40
-1.0
 40
-1.0
 40
-0.75
 40
-0.5
 40
-0.25
 40
0.0
 40
0.0
 40
0.0
 40
0.0
 10
-5.839584554633725
 20
0.0000000000000114
 30
0.0000000000000013
 10
-5.590641563881497
 20
0.0000000000000114
 30
0.0000000000000012
 10
-5.092775334255707
 20
0.0644814919009457
 30
0.0000000000000011
 10
-4.393604057264751
 20
0.3484761680461139
 30
0.000000000000001
 10
-3.786682135011415
 20
0.8016303612208915
 30
0.0000000000000008
 10
-3.469383196900779
 20
1.19722176614967
 30
0.0000000000000008
 10
-3.33761693461925
 20
1.412091115117916
 30
0.0000000000000007
  0
ELLIPSE
  5
1323
330
12F2
100
AcDbEntity
  8
0
 62
     0
370
     0
100
AcDbEllipse
 10
-0.0099999999999976
 20
3.00000000000001
 30
0.0
 11
-3.99
 21
0.0000000000000013
 31
0.0000000000000009
210
-0.0000000000000002
220
0.0
230
-1.0
 40
0.7212505093174909
 41
-0.7311573813995781
 42
-0.5844979605721099
  0
SPLINE
  5
1324
330
12F2
100
AcDbEntity
  8
0
 62
     0
370
     0
100
AcDbSpline
210
0.0
220
0.0
230
1.0
 70
    24
 71
     3
 72
    11
 73
     7
 74
     0
 42
0.000000001
 43
0.0000000001
 40
-1.0
 40
-1.0
 40
-1.0
 40
-1.0
 40
-0.75
 40
-0.5
 40
-0.25
 40
0.0
 40
0.0
 40
0.0
 40
0.0
 10
4.40512721216666
 20
11.02900943257258
 30
-0.000000000000001
 10
4.231485695790857
 20
10.94884786782027
 30
-0.0000000000000009
 10
3.884207120279923
 20
10.78852679599977
 30
-0.0000000000000009
 10
3.382281685630654
 20
10.55681303842472
 30
-0.0000000000000008
 10
2.917655500069365
 20
10.34231847032339
 30
-0.0000000000000006
 10
2.644067578755997
 20
10.21601667149353
 30
-0.0000000000000006
 10
2.51880652024964
 20
10.15818993361439
 30
-0.0000000000000006
  0
SPLINE
  5
1325
330
12F2
100
AcDbEntity
  8
0
 62
     0
370
     0
100
AcDbSpline
210
0.0000000000000002
220
0.0
230
1.0
 70
     8
 71
     3
 72
    15
 73
    11
 74
     0
 42
0.000000001
 43
0.0000000001
 40
-0.9578323858779169
 40
-0.9578323858779169
 40
-0.9578323858779169
 40
-0.9578323858779169
 40
-0.8883680328073674
 40
-0.8883680328073674
 40
-0.8189036797368178
 40
-0.8189036797368178
 40
-0.8189036797368178
 40
-0.7494393266662684
 40
-0.7494393266662684
 40
-0.6799749735957188
 40
-0.6799749735957188
 40
-0.6799749735957188
 40
-0.6799749735957188
 10
5.727445858484934
 20
7.241067066120562
 30
-0.0000000000000013
 10
5.634333353812987
 20
7.595705430311212
 30
-0.0000000000000013
 10
5.5366209754706
 20
7.941676883618699
 30
-0.0000000000000012
 10
5.332467621612697
 20
8.614617761111958
 30
-0.0000000000000012
 10
5.226026725302339
 20
8.941586924217583
 30
-0.0000000000000012
 10
5.115478228306191
 20
9.258266520686429
 30
-0.0000000000000011
 10
5.004929731310043
 20
9.574946117155276
 30
-0.0000000000000011
 10
4.890273719406867
 20
9.881335901263655
 30
-0.0000000000000011
 10
4.653299514874355
 20
10.47205849254856
 30
-0.000000000000001
 10
4.530981414183645
 20
10.75639107054306
 30
-0.000000000000001
 10
4.40512721216666
 20
11.02900943257258
 30
-0.000000000000001
  0
SPLINE
  5
1326
330
12F2
100
AcDbEntity
  8
0
 62
     0
370
     0
100
AcDbSpline
210
0.0
220
0.0
230
1.0
 70
    24
 71
     3
 72
    11
 73
     7
 74
     0
 42
0.000000001
 43
0.0000000001
 40
-1.0
 40
-1.0
 40
-1.0
 40
-1.0
 40
-0.75
 40
-0.5
 40
-0.25
 40
0.0
 40
0.0
 40
0.0
 40
0.0
 10
5.727445858485041
 20
7.241067066120145
 30
-0.0000000000000013
 10
5.483750923530172
 20
7.177083447705608
 30
-0.0000000000000012
 10
4.996379992862004
 20
7.049121183492012
 30
-0.0000000000000011
 10
4.311472961340986
 20
6.869294589384138
 30
-0.000000000000001
 10
3.71598087569477
 20
6.712944444544563
 30
-0.0000000000000008
 10
3.403668096143275
 20
6.630944784943485
 30
-0.0000000000000008
 10
3.273606434242535
 20
6.596796287983716
 30
-0.0000000000000007
  0
SPLINE
  5
1327
330
12F2
100
AcDbEntity
  8
0
 62
     0
370
     0
100
AcDbSpline
210
0.0000000000000002
220
0.0
230
1.0
 70
     8
 71
     3
 72
    15
 73
    11
 74
     0
 42
0.000000001
 43
0.0000000001
 40
0.0000000000000001
 40
0.0000000000000001
 40
0.0000000000000001
 40
0.0000000000000001
 40
0.0840543597448415
 40
0.0840543597448415
 40
0.1681087194896828
 40
0.1681087194896828
 40
0.1681087194896828
 40
0.2521630792345241
 40
0.2521630792345241
 40
0.3362174389793655
 40
0.3362174389793655
 40
0.3362174389793655
 40
0.3362174389793655
 10
6.619001237026421
 20
4.000000000000008
 30
-0.0000000000000015
 10
6.555959591772522
 20
4.27299680459764
 30
-0.0000000000000015
 10
6.487129720355803
 20
4.544616365275769
 30
-0.0000000000000014
 10
6.341875571715284
 20
5.085763619006056
 30
-0.0000000000000014
 10
6.265441082452776
 20
5.355296306924495
 30
-0.0000000000000014
 10
6.187584107772143
 20
5.624411440114713
 30
-0.0000000000000014
 10
6.109727133091511
 20
5.893526573304932
 30
-0.0000000000000014
 10
6.030436752406155
 20
6.162228768837516
 30
-0.0000000000000013
 10
5.874873708730105
 20
6.700497527672763
 30
-0.0000000000000013
 10
5.798597591090824
 20
6.970070875549077
 30
-0.0000000000000013
 10
5.727445858485041
 20
7.241067066120145
 30
-0.0000000000000013
  0
SPLINE
  5
1328
330
12F2
100
AcDbEntity
  8
0
 62
     0
370
     0
100
AcDbSpline
210
0.0
220
0.0
230
1.0
 70
    24
 71
     3
 72
    11
 73
     7
 74
     0
 42
0.000000001
 43
0.0000000001
 40
-1.0
 40
-1.0
 40
-1.0
 40
-1.0
 40
-0.75
 40
-0.5
 40
-0.25
 40
0.0
 40
0.0
 40
0.0
 40
0.0
 10
-4.405127212263452
 20
11.02900943236289
 30
0.000000000000001
 10
-4.231485695883823
 20
10.94884786761885
 30
0.0000000000000009
 10
-3.884207120365237
 20
10.78852679581487
 30
0.0000000000000009
 10
-3.382281685704912
 20
10.55681303826372
 30
0.0000000000000008
 10
-2.917655500133389
 20
10.34231847018451
 30
0.0000000000000006
 10
-2.644067578814
 20
10.21601667136766
 30
0.0000000000000006
 10
-2.518806520304888
 20
10.15818993349449
 30
0.0000000000000006
  0
SPLINE
  5
1329
330
12F2
100
AcDbEntity
  8
0
 62
     0
370
     0
100
AcDbSpline
210
0.0000000000000002
220
0.0
230
1.0
 70
     8
 71
     3
 72
    21
 73
    17
 74
     0
 42
0.000000001
 43
0.0000000001
 40
0.0000000000000014
 40
0.0000000000000014
 40
0.0000000000000014
 40
0.0000000000000014
 40
0.1743621976139003
 40
0.1743621976139003
 40
0.4069003860607701
 40
0.4069003860607701
 40
0.5522367538400636
 40
0.5522367538400636
 40
0.5522367538400636
 40
0.643440369023746
 40
0.643440369023746
 40
0.789366153317638
 40
0.789366153317638
 40
0.9790696728996975
 40
0.9790696728996975
 40
1.104473507680125
 40
1.104473507680125
 40
1.104473507680125
 40
1.104473507680125
 10
4.405127212166659
 20
11.02900943257259
 30
-0.000000000000001
 10
4.161519112349491
 20
11.55669972884347
 30
-0.0000000000000009
 10
3.822070376136822
 20
12.04003996931023
 30
-0.0000000000000008
 10
2.856670062983376
 20
12.99274569097887
 30
-0.0000000000000006
 10
2.172452895470098
 20
13.4020189054002
 30
-0.0000000000000005
 10
0.9688668724061541
 20
13.77361046740452
 30
-0.0000000000000002
 10
0.4844329479683715
 20
13.84667748840596
 30
-0.0000000000000001
 10
-0.0000238422349042
 20
13.84667510877212
 30
0.0
 10
-0.3040372928388115
 20
13.84667361546929
 30
0.0000000000000001
 10
-0.6080673114516152
 20
13.81802590883091
 30
0.0000000000000001
 10
-1.384657562658562
 20
13.670347162474
 30
0.0000000000000003
 10
-1.848673803267017
 20
13.50711386630749
 30
0.0000000000000004
 10
-2.836553505811111
 20
12.98190767471721
 30
0.0000000000000006
 10
-3.335931262561786
 20
12.57462759420373
 30
0.0000000000000007
 10
-4.005388044282259
 20
11.76525132782905
 30
0.0000000000000009
 10
-4.229920715009145
 20
11.40853198734225
 30
0.0000000000000009
 10
-4.405127212263452
 20
11.02900943236289
 30
0.000000000000001
  0
ELLIPSE
  5
132A
330
12F2
100
AcDbEntity
  8
0
 62
     0
370
     0
100
AcDbEllipse
 10
-0.0100000000000019
 20
-3.531276150434591
 30
0.0
 11
0.000000000000007
 21
17.60502743726867
 31
0.0
210
-0.0000000000000002
220
0.0
230
-1.0
 40
0.2266398058291823
 41
-0.9578323858779169
 42
-0.6799749736135287
  0
ELLIPSE
  5
132B
330
12F2
100
AcDbEntity
  8
0
 62
     0
370
     0
100
AcDbEllipse
 10
-0.0099999999999994
 20
5.739916153065244
 30
0.0
 11
-3.99
 21
0.000000000000004
 31
0.0000000000000009
210
0.0000000000000002
220
0.0
230
1.0
 40
0.373299223357611
 41
-1.570796326794896
 42
-0.6129639409169517
  0
LINE
  5
132C
330
12F2
100
AcDbEntity
  8
0
 62
     0
370
     0
100
AcDbLine
 10
-0.0099999999999982
 20
7.229380054262109
 30
0.0
 11
-0.0100000000000006
 21
3.127632376019541
 31
0.0
  0
ELLIPSE
  5
132D
330
12F2
100
AcDbEntity
  8
0
 62
     0
370
     0
100
AcDbEllipse
 10
-0.0100000000000031
 20
-0.6998277017755839
 30
0.0
 11
-3.989999999999998
 21
0.000000000000003
 31
0.0000000000000009
210
0.0000000000000002
220
0.0
230
1.0
 40
0.9592631773922629
 41
-1.570796326794896
 42
-0.5844979605721037
  0
SPLINE
  5
132E
330
12F2
100
AcDbEntity
  8
0
 62
     0
370
     0
100
AcDbSpline
210
0.0000000000000002
220
0.0
230
1.0
 70
     8
 71
     3
 72
    11
 73
     7
 74
     0
 42
0.000000001
 43
0.0000000001
 40
-1.0
 40
-1.0
 40
-1.0
 40
-1.0
 40
-0.75
 40
-0.5
 40
-0.25
 40
0.0
 40
0.0
 40
0.0
 40
0.0
 10
-6.633728976975007
 20
0.0000000000000134
 30
0.0000000000000015
 10
-6.311162057929738
 20
0.0000000000000133
 30
0.0000000000000014
 10
-5.666102275326917
 20
0.1096429890730019
 30
0.0000000000000013
 10
-4.802643930145989
 20
0.58532109505885
 30
0.0000000000000011
 10
-4.136358812080714
 20
1.321014448812593
 30
0.0000000000000009
 10
-3.871444401600426
 20
1.93196075662816
 30
0.0000000000000009
 10
-3.79092684093423
 20
2.251154821723415
 30
0.0000000000000008
  0
SPLINE
  5
132F
330
12F2
100
AcDbEntity
  8
0
 62
     0
370
     0
100
AcDbSpline
210
0.0000000000000002
220
0.0
230
1.0
 70
     8
 71
     3
 72
    15
 73
    11
 74
     0
 42
0.000000001
 43
0.0000000001
 40
-0.3540854691216105
 40
-0.3540854691216105
 40
-0.3540854691216105
 40
-0.3540854691216105
 40
-0.2655641018412079
 40
-0.2655641018412079
 40
-0.1770427345608053
 40
-0.1770427345608053
 40
-0.1770427345608053
 40
-0.0885213672804028
 40
-0.0885213672804028
 40
-0.0000000000000002
 40
-0.0000000000000002
 40
-0.0000000000000002
 40
-0.0000000000000002
 10
-3.33761693461925
 20
1.412091115117916
 30
0.0000000000000007
 10
-3.368563438687984
 20
1.464068434643342
 30
0.0000000000000007
 10
-3.404064841236285
 20
1.524277728544515
 30
0.0000000000000008
 10
-3.479610583136389
 20
1.654938317974302
 30
0.0000000000000008
 10
-3.519641856148195
 20
1.725367922075253
 30
0.0000000000000008
 10
-3.559901479719373
 20
1.798303341725836
 30
0.0000000000000008
 10
-3.600161103290552
 20
1.871238761376419
 30
0.0000000000000008
 10
-3.640650009981551
 20
1.946680174522684
 30
0.0000000000000008
 10
-3.718691871369481
 20
2.098713808119912
 30
0.0000000000000008
 10
-3.756250376475365
 20
2.175315114704913
 30
0.0000000000000008
 10
-3.79092684093423
 20
2.251154821723412
 30
0.0000000000000008
  0
SPLINE
  5
1330
330
12F2
100
AcDbEntity
  8
0
 62
     0
370
     0
100
AcDbSpline
210
0.0000000000000002
220
0.0
230
1.0
 70
     8
 71
     3
 72
    15
 73
    11
 74
     0
 42
0.000000001
 43
0.0000000001
 40
0.6799749736135289
 40
0.6799749736135289
 40
0.6799749736135289
 40
0.6799749736135289
 40
0.7494393266796261
 40
0.7494393266796261
 40
0.818903679745723
 40
0.818903679745723
 40
0.818903679745723
 40
0.8883680328118201
 40
0.8883680328118201
 40
0.9578323858779171
 40
0.9578323858779171
 40
0.9578323858779171
 40
0.9578323858779171
 10
-4.405127212263455
 20
11.02900943236289
 30
0.000000000000001
 10
-4.530981414270562
 20
10.75639107034485
 30
0.000000000000001
 10
-4.653299514951769
 20
10.47205849236347
 30
0.000000000000001
 10
-4.890273719466147
 20
9.881335901107959
 30
0.0000000000000011
 10
-5.004929731360689
 20
9.574946117015825
 30
0.0000000000000011
 10
-5.115478228348698
 20
9.258266520564641
 30
0.0000000000000011
 10
-5.226026725336708
 20
8.941586924113455
 30
0.0000000000000012
 10
-5.332467621639422
 20
8.614617761026906
 30
0.0000000000000012
 10
-5.536620975483121
 20
7.941676883574346
 30
0.0000000000000012
 10
-5.634333353818948
 20
7.59570543028848
 30
0.0000000000000013
 10
-5.727445858484927
 20
7.241067066120561
 30
0.0000000000000013
  0
SPLINE
  5
1331
330
12F2
100
AcDbEntity
  8
0
 62
     0
370
     0
100
AcDbSpline
210
0.0000000000000002
220
0.0
230
1.0
 70
     8
 71
     3
 72
    15
 73
    11
 74
     0
 42
0.000000001
 43
0.0000000001
 40
-0.1582918225466278
 40
-0.1582918225466278
 40
-0.1582918225466278
 40
-0.1582918225466278
 40
-0.1125549604041853
 40
-0.1125549604041853
 40
-0.0791459112733139
 40
-0.0791459112733139
 40
-0.0791459112733139
 40
-0.0501383940371092
 40
-0.0501383940371092
 40
0.0
 40
0.0
 40
0.0
 40
0.0
 10
-3.79092684093423
 20
2.251154821723415
 30
0.0000000000000008
 10
-3.808843336389148
 20
2.290339374915424
 30
0.0000000000000008
 10
-3.821151451177709
 20
2.356411727100418
 30
0.0000000000000008
 10
-3.833155262112041
 20
2.509991771432207
 30
0.0000000000000009
 10
-3.83537500358933
 20
2.586775668297356
 30
0.0000000000000009
 10
-3.834801488269933
 20
2.671773089786411
 30
0.0000000000000009
 10
-3.834303531699918
 20
2.745572381685397
 30
0.0000000000000009
 10
-3.831697486399908
 20
2.825534261794043
 30
0.0000000000000009
 10
-3.818705622081996
 20
3.051647799377728
 30
0.0000000000000008
 10
-3.803985144990061
 20
3.203514284393424
 30
0.0000000000000008
 10
-3.782520019418513
 20
3.344987048645713
 30
0.0000000000000008
  0
SPLINE
  5
1332
330
12F2
100
AcDbEntity
  8
0
 62
     0
370
     0
100
AcDbSpline
210
0.0000000000000002
220
0.0
230
1.0
 70
     8
 71
     3
 72
    15
 73
    11
 74
     0
 42
0.000000001
 43
0.0000000001
 40
0.0
 40
0.0
 40
0.0
 40
0.0
 40
0.0501383940371092
 40
0.0501383940371092
 40
0.0791459112733139
 40
0.0791459112733139
 40
0.0791459112733139
 40
0.1125549604041853
 40
0.1125549604041853
 40
0.1582918225466278
 40
0.1582918225466278
 40
0.1582918225466278
 40
0.1582918225466278
 10
-6.619001237026417
 20
4.000000000000009
 30
0.0000000000000015
 10
-6.656605554757025
 20
3.348630034118956
 30
0.0000000000000015
 10
-6.68239405973763
 20
2.686329360391629
 30
0.0000000000000015
 10
-6.705154243091568
 20
1.761070473787784
 30
0.0000000000000015
 10
-6.709719720947981
 20
1.447521124499133
 30
0.0000000000000015
 10
-6.710592080954096
 20
1.173825201221995
 30
0.0000000000000015
 10
-6.711596810799357
 20
0.8585993074225623
 30
0.0000000000000015
 10
-6.70770809076771
 20
0.596499522463355
 30
0.0000000000000015
 10
-6.686678858078242
 20
0.1366772076153556
 30
0.0000000000000015
 10
-6.665116521644148
 20
0.0000000000000126
 30
0.0000000000000015
 10
-6.633728976975007
 20
0.0000000000000134
 30
0.0000000000000015
  0
LINE
  5
1333
330
12F2
100
AcDbEntity
  8
0
 62
     0
370
     0
100
AcDbLine
 10
6.619001237026421
 20
3.999999999999997
 30
-0.0000000000000015
 11
20.0
 21
3.999999999999992
 31
-0.0000000000000044
  0
LINE
  5
1334
330
12F2
100
AcDbEntity
  8
0
 62
     0
370
     0
100
AcDbLine
 10
-20.0
 20
4.000000000000007
 30
0.0000000000000044
 11
-6.619001237026419
 21
4.000000000000002
 31
0.0000000000000015
  0
LINE
  5
1335
330
12F2
100
AcDbEntity
  8
0
 62
     0
370
     0
100
AcDbLine
 10
13.00000000000002
 20
62.0
 30
-0.0000000000000029
 11
-12.99999999999998
 21
62.0
 31
0.0000000000000029
  0
CIRCLE
  5
1336
330
12F2
100
AcDbEntity
  8
0
 62
     0
370
     0
100
AcDbCircle
 10
12.0
 20
12.0
 30
-0.0000000000000027
 40
2.5
  0
CIRCLE
  5
1337
330
12F2
100
AcDbEntity
  8
0
 62
     0
370
     0
100
AcDbCircle
 10
12.00000000000002
 20
52.0
 30
-0.0000000000000027
 40
2.5
  0
CIRCLE
  5
1338
330
12F2
100
AcDbEntity
  8
0
 62
     0
370
     0
100
AcDbCircle
 10
0.0000000000000132
 20
32.0
 30
0.0
 40
2.5
  0
CIRCLE
  5
1339
330
12F2
100
AcDbEntity
  8
0
 62
     0
370
     0
100
AcDbCircle
 10
-11.99999999999998
 20
52.0
 30
0.0000000000000027
 40
2.5
  0
CIRCLE
  5
133A
330
12F2
100
AcDbEntity
  8
0
 62
     0
370
     0
100
AcDbCircle
 10
-11.99999999999999
 20
12.0
 30
0.0000000000000027
 40
2.5
  0
ENDBLK
  5
12F4
330
12F2
100
AcDbEntity
  8
0
100
AcDbBlockEnd
  0
BLOCK
  5
133C
330
133B
100
AcDbEntity
  8
0
100
AcDbBlockBegin
  2
AA60280-ISO
 70
     0
 10
0.0
 20
0.0
 30
0.0
  3
AA60280-ISO
  1

  0
LINE
  5
133E
330
133B
100
AcDbEntity
  8
0
100
AcDbLine
 10
-31.11546878187371
 20
-41.23230753753009
 30
0.0
 11
-31.11546878187371
 21
-39.59931437567465
 31
0.0
  0
LINE
  5
133F
330
133B
100
AcDbEntity
  8
0
100
AcDbLine
 10
-31.11546878187371
 20
-39.59931437567465
 30
0.0
 11
-31.11546878187371
 21
-33.88383830918058
 31
0.0
  0
LINE
  5
1340
330
133B
100
AcDbEntity
  8
0
100
AcDbLine
 10
-2.831197534411811
 20
-50.2137699277351
 30
0.0
 11
-12.73069247102347
 21
-50.2137699277351
 31
0.0
  0
LINE
  5
1341
330
133B
100
AcDbEntity
  8
0
100
AcDbLine
 10
-12.73069247102347
 20
-50.2137699277351
 30
0.0
 11
-12.73069247102347
 21
-51.84676308959055
 31
0.0
  0
LINE
  5
1342
330
133B
100
AcDbEntity
  8
0
100
AcDbLine
 10
-2.831197534411811
 20
-51.84676308959055
 30
0.0
 11
-2.831197534411811
 21
-50.2137699277351
 31
0.0
  0
LINE
  5
1343
330
133B
100
AcDbEntity
  8
0
100
AcDbLine
 10
34.64546186847521
 20
31.84413645550137
 30
0.0
 11
36.05967543084831
 21
32.66063303642909
 31
0.0
  0
LINE
  5
1344
330
133B
100
AcDbEntity
  8
0
100
AcDbLine
 10
6.361190621013319
 20
48.17406807405589
 30
0.0
 11
11.31093808931915
 21
51.03180610730294
 31
0.0
  0
LINE
  5
1345
330
133B
100
AcDbEntity
  8
0
100
AcDbLine
 10
11.31093808931915
 20
51.03180610730294
 30
0.0
 11
12.72515165169225
 21
51.84830268823066
 31
0.0
  0
LINE
  5
1346
330
133B
100
AcDbEntity
  8
0
100
AcDbLine
 10
31.10992796254248
 20
41.23384713617022
 30
0.0
 11
29.69571440016938
 21
40.41735055524249
 31
0.0
  0
LINE
  5
1347
330
133B
100
AcDbEntity
  8
0
100
AcDbLine
 10
29.69571440016938
 20
40.41735055524249
 30
0.0
 11
34.64546186847521
 21
31.84413645550137
 31
0.0
  0
LINE
  5
1348
330
133B
100
AcDbEntity
  8
0
100
AcDbLine
 10
4.946977058640211
 20
-13.06317549552356
 30
0.0
 11
-31.11546878187372
 21
-33.88383830918058
 31
0.0
  0
LINE
  5
1349
330
133B
100
AcDbEntity
  8
0
100
AcDbLine
 10
6.361190621013319
 20
48.17406807405589
 30
0.0
 11
6.361190621013308
 21
-10.61368575274038
 31
0.0
  0
LINE
  5
134A
330
133B
100
AcDbEntity
  8
0
100
AcDbLine
 10
-31.11546878187371
 20
-39.59931437567465
 30
0.0
 11
-12.73069247102347
 21
-50.2137699277351
 31
0.0
  0
LINE
  5
134B
330
133B
100
AcDbEntity
  8
0
100
AcDbLine
 10
-2.831197534411811
 20
-50.2137699277351
 30
0.0
 11
33.2312483061021
 21
-29.3931071140781
 31
0.0
  0
LINE
  5
134C
330
133B
100
AcDbEntity
  8
0
100
AcDbLine
 10
34.6454618684752
 20
-26.94361737129491
 30
0.0
 11
34.64546186847521
 21
31.84413645550137
 31
0.0
  0
LINE
  5
134D
330
133B
100
AcDbEntity
  8
0
100
AcDbLine
 10
11.31093808931915
 20
51.03180610730294
 30
0.0
 11
29.69571440016938
 21
40.41735055524249
 31
0.0
  0
ELLIPSE
  5
134E
330
133B
100
AcDbEntity
  8
0
100
AcDbEllipse
 10
4.946977058640211
 20
-11.43018233366811
 30
0.0
 11
-1.000000000000103
 21
-1.732050807568818
 31
0.0
210
0.0
220
0.0
230
1.0
 40
0.5773502691896257
 41
0.7853981633976908
 42
2.356194490192585
  0
LINE
  5
134F
330
133B
100
AcDbEntity
  8
0
100
AcDbLine
 10
23.76945334175469
 20
-23.93033724439506
 30
0.0
 11
33.2312483061021
 21
-29.3931071140781
 31
0.0
  0
LINE
  5
1350
330
133B
100
AcDbEntity
  8
0
100
AcDbLine
 10
4.946977058640211
 20
-13.06317549552356
 30
0.0
 11
14.40877202298763
 21
-18.52594536520659
 31
0.0
  0
ELLIPSE
  5
1351
330
133B
100
AcDbEntity
  8
0
100
AcDbEllipse
 10
33.23124830610211
 20
-27.76011395222263
 30
0.0
 11
-2.000000000000206
 21
-3.464101615137635
 31
0.0
210
0.0
220
0.0
230
1.0
 40
0.5773502691896258
 41
0.7853981633976881
 42
2.356194490192585
  0
ELLIPSE
  5
1352
330
133B
100
AcDbEntity
  8
0
100
AcDbEllipse
 10
33.2312483061021
 20
-27.76011395222264
 30
0.0
 11
0.9999999999998971
 21
1.732050807568936
 31
0.0
210
0.0
220
0.0
230
1.0
 40
0.5773502691896259
 41
3.926990816987
 42
5.497787143781895
  0
LINE
  5
1353
330
133B
100
AcDbEntity
  8
0
100
AcDbLine
 10
15.81257150057153
 20
-16.07044304776701
 30
0.0
 11
6.361190621013308
 21
-10.61368575274038
 31
0.0
  0
LINE
  5
1354
330
133B
100
AcDbEntity
  8
0
100
AcDbLine
 10
34.6454618684752
 20
-26.94361737129491
 30
0.0
 11
25.19408098891698
 21
-21.48686007626829
 31
0.0
  0
SPLINE
  5
1355
330
133B
100
AcDbEntity
  8
0
100
AcDbSpline
210
0.0
220
0.0
230
1.0
 70
     8
 71
     3
 72
    15
 73
    11
 74
     0
 42
0.000000001
 43
0.0000000001
 40
0.0
 40
0.0
 40
0.0
 40
0.0
 40
0.0840543597448414
 40
0.0840543597448414
 40
0.1681087194896827
 40
0.1681087194896827
 40
0.1681087194896827
 40
0.252163079234524
 40
0.252163079234524
 40
0.3362174389793653
 40
0.3362174389793653
 40
0.3362174389793653
 40
0.3362174389793653
 10
20.8472479870508
 20
-24.88952137427395
 30
0.0
 10
21.08918310369805
 20
-24.80793521595094
 30
0.0
 10
21.33373560603387
 20
-24.72902195215528
 30
0.0
 10
21.82434877859249
 20
-24.57278299819078
 30
0.0
 10
22.07041668903876
 20
-24.49545594858575
 30
0.0
 10
22.31576301939683
 20
-24.41737513233694
 30
0.0
 10
22.56110934975491
 20
-24.33929431608814
 30
0.0
 10
22.80574508680753
 20
-24.2604623065952
 30
0.0
 10
23.29110417303988
 20
-24.09883962323587
 30
0.0
 10
23.53183827512525
 20
-24.01605107927121
 30
0.0
 10
23.76945334175469
 20
-23.93033724439506
 30
0.0
  0
ELLIPSE
  5
1356
330
133B
100
AcDbEntity
  8
0
100
AcDbEllipse
 10
24.42160018714385
 20
-18.15759317427928
 30
0.0
 11
-13.96864186449412
 21
-6.905067930816464
 31
0.0
210
0.0
220
0.0
230
1.0
 40
0.3112309187554186
 41
0.8846009769981042
 42
1.162458389262492
  0
SPLINE
  5
1357
330
133B
100
AcDbEntity
  8
0
100
AcDbSpline
210
0.0
220
0.0
230
1.0
 70
     8
 71
     3
 72
    18
 73
    14
 74
     0
 42
0.000000001
 43
0.0000000001
 40
0.0000000000000014
 40
0.0000000000000014
 40
0.0000000000000014
 40
0.0000000000000014
 40
0.0892581778048194
 40
0.0892581778048194
 40
0.2320712622925281
 40
0.2320712622925281
 40
0.4177282721265497
 40
0.4177282721265497
 40
0.6590823849107775
 40
0.6590823849107775
 40
0.9239432375870533
 40
0.9239432375870533
 40
1.104473507680125
 40
1.104473507680125
 40
1.104473507680125
 40
1.104473507680125
 10
11.00395712386244
 20
-22.29933673566007
 30
0.0
 10
10.90112597172332
 20
-22.46052836510124
 30
0.0
 10
10.82405588151901
 20
-22.6272033358394
 30
0.0
 10
10.69404680411846
 20
-23.06750346014737
 30
0.0
 10
10.6836467298848
 20
-23.34524625100975
 30
0.0
 10
10.82080418658562
 20
-23.97244016258174
 30
0.0
 10
11.01721017918341
 20
-24.31812967267305
 30
0.0
 10
11.70994503270829
 20
-25.036077999016
 30
0.0
 10
12.27934918862375
 20
-25.38411185898551
 30
0.0
 10
13.70439597725709
 20
-25.90596883186343
 30
0.0
 10
14.58104477399547
 20
-26.05829704450518
 30
0.0
 10
16.06540379447953
 20
-26.07485803860755
 30
0.0
 10
16.66906423207127
 20
-26.01618677395979
 30
0.0
 10
17.23374777150404
 20
-25.89610804289974
 30
0.0
  0
ELLIPSE
  5
1358
330
133B
100
AcDbEntity
  8
0
100
AcDbEllipse
 10
24.40745805152012
 20
-18.14942820847
 30
0.0
 11
-13.96864186449411
 21
-6.905067930816461
 31
0.0
210
0.0
220
0.0
230
0.9999999999999998
 40
0.3112309187554186
 41
5.529978924686242
 42
5.807836336968441
  0
SPLINE
  5
1359
330
133B
100
AcDbEntity
  8
0
100
AcDbSpline
210
0.0
220
0.0
230
1.0
 70
     8
 71
     3
 72
    10
 73
     6
 74
     0
 42
0.000000001
 43
0.0000000001
 40
0.0000000000000001
 40
0.0000000000000001
 40
0.0000000000000001
 40
0.0000000000000001
 40
0.1681087194896828
 40
0.1681087194896828
 40
0.3362174389793655
 40
0.3362174389793655
 40
0.3362174389793655
 40
0.3362174389793655
 10
14.40877202298763
 20
-18.52594536520659
 30
0.0
 10
14.11185058915352
 20
-18.80031961057062
 30
0.0
 10
13.83567753754001
 20
-19.08193232438442
 30
0.0
 10
13.29471777418249
 20
-19.64853540389209
 30
0.0
 10
13.03003911904325
 20
-19.93371880392683
 30
0.0
 10
12.74741637622364
 20
-20.21308141337225
 30
0.0
  0
SPLINE
  5
135A
330
133B
100
AcDbEntity
  8
0
100
AcDbSpline
210
0.0
220
0.0
230
1.0
 70
     8
 71
     3
 72
    10
 73
     6
 74
     0
 42
0.000000001
 43
0.0000000001
 40
0.0
 40
0.0
 40
0.0
 40
0.0
 40
0.1770427345608435
 40
0.1770427345608435
 40
0.3540854691216871
 40
0.3540854691216871
 40
0.3540854691216871
 40
0.3540854691216871
 10
16.37411640685062
 20
-13.57794563552662
 30
0.0
 10
16.29744545179383
 20
-14.00732594786001
 30
0.0
 10
16.1985023736113
 20
-14.41850670047336
 30
0.0
 10
15.99901335975859
 20
-15.2389384673884
 30
0.0
 10
15.89848355196674
 20
-15.64851754870949
 30
0.0
 10
15.81257150057153
 20
-16.07044304776701
 30
0.0
  0
ELLIPSE
  5
135B
330
133B
100
AcDbEntity
  8
0
100
AcDbEllipse
 10
20.49625517693239
 20
-27.10486693094702
 30
0.0
 11
-0.7334513296719832
 21
20.40166760737181
 31
0.0
210
0.0
220
0.0
230
1.0
 40
0.2395860274392049
 41
0.6906973457604411
 42
0.837356766586417
  0
SPLINE
  5
135C
330
133B
100
AcDbEntity
  8
0
100
AcDbSpline
210
0.0
220
0.0
230
1.0
 70
     8
 71
     3
 72
    20
 73
    16
 74
     0
 42
0.000000001
 43
0.0000000001
 40
0.0000000000000001
 40
0.0000000000000001
 40
0.0000000000000001
 40
0.0000000000000001
 40
0.1005274780580242
 40
0.1005274780580242
 40
0.2613714429508628
 40
0.2613714429508628
 40
0.4704685973115529
 40
0.4704685973115529
 40
0.7422948979804502
 40
0.7422948979804502
 40
1.027975637644412
 40
1.027975637644412
 40
1.339985777380144
 40
1.339985777380144
 40
1.422546017711731
 40
1.422546017711731
 40
1.422546017711731
 40
1.422546017711731
 10
24.18973591036525
 20
-15.74787094627623
 30
0.0
 10
24.13152998257621
 20
-15.4490481973099
 30
0.0
 10
24.05179092909934
 20
-15.14408565576476
 30
0.0
 10
23.79208117588401
 20
-14.34902219547565
 30
0.0
 10
23.58050292045741
 20
-13.85776541225924
 30
0.0
 10
22.99623558347247
 20
-12.77297413482991
 30
0.0
 10
22.59412537949279
 20
-12.19356637365197
 30
0.0
 10
21.57224765425399
 20
-11.03688770360687
 30
0.0
 10
20.92375527452634
 20
-10.51456470909863
 30
0.0
 10
19.61178598045442
 20
-9.844578102581998
 30
0.0
 10
18.9509337183255
 20
-9.718693343725636
 30
0.0
 10
17.77944013696129
 20
-9.945835846367698
 30
0.0
 10
17.29069804157072
 20
-10.34485767285477
 30
0.0
 10
16.927032078326
 20
-11.12335611948298
 30
0.0
 10
16.86471938368211
 20
-11.30095537161311
 30
0.0
 10
16.81691657911843
 20
-11.4911717207164
 30
0.0
  0
ELLIPSE
  5
135D
330
133B
100
AcDbEntity
  8
0
100
AcDbEllipse
 10
20.51039731255612
 20
-27.11303189675629
 30
0.0
 11
-0.7334513296719823
 21
20.40166760737181
 31
0.0
210
0.0
220
0.0
230
1.0
 40
0.2395860274392049
 41
5.147945341320461
 42
5.29460476214793
  0
SPLINE
  5
135E
330
133B
100
AcDbEntity
  8
0
100
AcDbSpline
210
0.0
220
0.0
230
1.0
 70
     8
 71
     3
 72
    10
 73
     6
 74
     0
 42
0.000000001
 43
0.0000000001
 40
0.0000000000000002
 40
0.0000000000000002
 40
0.0000000000000002
 40
0.0000000000000002
 40
0.1770427345608053
 40
0.1770427345608053
 40
0.3540854691216105
 40
0.3540854691216105
 40
0.3540854691216105
 40
0.3540854691216105
 10
25.19408098891698
 20
-21.48686007626829
 30
0.0
 10
25.10816893752179
 20
-20.96573188521156
 30
0.0
 10
25.00763912972996
 20
-20.44007098071018
 30
0.0
 10
24.8081501158773
 20
-19.38928914209889
 30
0.0
 10
24.70920703769479
 20
-18.8638587638394
 30
0.0
 10
24.63253608263798
 20
-18.34594645842398
 30
0.0
  0
ELLIPSE
  5
135F
330
133B
100
AcDbEntity
  8
0
100
AcDbEllipse
 10
23.76945334175469
 20
-23.11384066346733
 30
0.0
 11
-0.3393236296824634
 21
0.9406696946001385
 31
0.0
210
0.0
220
0.0
230
1.0
 40
0.4326402632754344
 41
1.119809869493952
 42
2.446592478119903
  0
SPLINE
  5
1360
330
133B
100
AcDbEntity
  8
0
100
AcDbSpline
210
0.0
220
0.0
230
1.0
 70
     8
 71
     3
 72
    15
 73
    11
 74
     0
 42
0.000000001
 43
0.0000000001
 40
-0.3362174389793653
 40
-0.3362174389793653
 40
-0.3362174389793653
 40
-0.3362174389793653
 40
-0.252163079234524
 40
-0.252163079234524
 40
-0.1681087194896827
 40
-0.1681087194896827
 40
-0.1681087194896827
 40
-0.0840543597448414
 40
-0.0840543597448414
 40
0.0
 40
0.0
 40
0.0
 40
0.0
 10
23.25527634041762
 20
-22.83597355446916
 30
0.0
 10
23.03248263614446
 20
-22.94050076739698
 30
0.0
 10
22.80530028917066
 20
-23.04391015690516
 30
0.0
 10
22.34359835969277
 20
-23.24994743772973
 30
0.0
 10
22.10906719770444
 20
-23.35257748755961
 30
0.0
 10
21.87163482599578
 20
-23.45566492876222
 30
0.0
 10
21.63420245428711
 20
-23.55875236996483
 30
0.0
 10
21.39385487563354
 20
-23.66229987943041
 30
0.0
 10
20.90939089636099
 20
-23.87217587076805
 30
0.0
 10
20.66526063358392
 20
-23.97851007550245
 30
0.0
 10
20.42072856682275
 20
-24.08719523310863
 30
0.0
  0
ELLIPSE
  5
1361
330
133B
100
AcDbEntity
  8
0
100
AcDbEllipse
 10
20.8472479870508
 20
-24.07302479334623
 30
0.0
 11
0.3195432522980726
 21
-0.9475716911721088
 31
0.0
210
0.0
220
0.0
230
1.0
 40
0.4118058312006534
 41
4.589213850287208
 42
5.597032284315979
  0
ELLIPSE
  5
1362
330
133B
100
AcDbEntity
  8
0
100
AcDbEllipse
 10
24.48697420773043
 20
-21.89510836673215
 30
0.0
 11
-0.9866818170542533
 21
-0.1626622018002895
 31
0.0
210
0.0
220
0.0
230
1.0
 40
0.4461176010636226
 41
3.842750190152974
 42
5.161263806329164
  0
SPLINE
  5
1363
330
133B
100
AcDbEntity
  8
0
100
AcDbSpline
210
0.0
220
0.0
230
1.0
 70
     8
 71
     3
 72
    16
 73
    12
 74
     0
 42
0.000000001
 43
0.0000000001
 40
-0.1582918225466278
 40
-0.1582918225466278
 40
-0.1582918225466278
 40
-0.1582918225466278
 40
-0.1382129003529435
 40
-0.1382129003529435
 40
-0.0875997255758093
 40
-0.0875997255758093
 40
-0.0486665142087829
 40
-0.0486665142087829
 40
-0.0187178900803011
 40
-0.0187178900803011
 40
0.0
 40
0.0
 40
0.0
 40
0.0
 10
23.99342381961449
 20
-21.56912547767348
 30
0.0
 10
23.99771878288487
 20
-21.62797581308969
 30
0.0
 10
23.99662335702869
 20
-21.68927316120258
 30
0.0
 10
23.97389034792172
 20
-21.90978928663621
 30
0.0
 10
23.92298195406439
 20
-22.07625321741559
 30
0.0
 10
23.78362798277047
 20
-22.35022572794712
 30
0.0
 10
23.7067938006116
 20
-22.46231184538821
 30
0.0
 10
23.5520895726409
 20
-22.63312164068654
 30
0.0
 10
23.47861000305262
 20
-22.69818235048578
 30
0.0
 10
23.35403160544921
 20
-22.78428358173229
 30
0.0
 10
23.30488980579678
 20
-22.81269660740868
 30
0.0
 10
23.25527634041762
 20
-22.83597355446915
 30
0.0
  0
SPLINE
  5
1364
330
133B
100
AcDbEntity
  8
0
100
AcDbSpline
210
0.0
220
0.0
230
1.0
 70
     8
 71
     3
 72
    16
 73
    12
 74
     0
 42
0.000000001
 43
0.0000000001
 40
0.0
 40
0.0
 40
0.0
 40
0.0
 40
0.0187178900803011
 40
0.0187178900803011
 40
0.0486665142087829
 40
0.0486665142087829
 40
0.0875997255758093
 40
0.0875997255758093
 40
0.1382129003529435
 40
0.1382129003529435
 40
0.1582918225466278
 40
0.1582918225466278
 40
0.1582918225466278
 40
0.1582918225466278
 10
23.76945334175469
 20
-23.93033724439506
 30
0.0
 10
23.86535455095559
 20
-23.88643113456376
 30
0.0
 10
23.96063681539517
 20
-23.83246096569799
 30
0.0
 10
24.20264509608382
 20
-23.66800761000011
 30
0.0
 10
24.34584697003252
 20
-23.54295979711107
 30
0.0
 10
24.64732146852095
 20
-23.21329398529229
 30
0.0
 10
24.7969865965057
 20
-22.99607191249619
 30
0.0
 10
25.06665034943509
 20
-22.46485874857933
 30
0.0
 10
25.16338610705409
 20
-22.1419930800917
 30
0.0
 10
25.2030942018331
 20
-21.71718341374909
 30
0.0
 10
25.20382452004658
 20
-21.59943991912228
 30
0.0
 10
25.19408098891698
 20
-21.48686007626829
 30
0.0
  0
ELLIPSE
  5
1365
330
133B
100
AcDbEntity
  8
0
100
AcDbEllipse
 10
23.92542930145144
 20
-18.75419474888784
 30
0.0
 11
-0.9892191821936597
 21
-0.1464425128851145
 31
0.0
210
0.0
220
0.0
230
1.0
 40
0.461442732859502
 41
3.850200647805621
 42
4.863218179815513
  0
SPLINE
  5
1366
330
133B
100
AcDbEntity
  8
0
100
AcDbSpline
210
0.0
220
0.0
230
1.0
 70
     8
 71
     3
 72
    10
 73
     6
 74
     0
 42
0.000000001
 43
0.0000000001
 40
-0.3540854691216105
 40
-0.3540854691216105
 40
-0.3540854691216105
 40
-0.3540854691216105
 40
-0.1770427345608053
 40
-0.1770427345608053
 40
-0.0000000000000002
 40
-0.0000000000000002
 40
-0.0000000000000002
 40
-0.0000000000000002
 10
23.70998359144647
 20
-18.32491326225236
 30
0.0
 10
23.75118354000213
 20
-18.87894580885802
 30
0.0
 10
23.8038250065255
 20
-19.43235313451918
 30
0.0
 10
23.90601064644273
 20
-20.51770960725302
 30
0.0
 10
23.9555536573174
 20
-21.05022191246207
 30
0.0
 10
23.9934238196145
 20
-21.56912547767348
 30
0.0
  0
ELLIPSE
  5
1367
330
133B
100
AcDbEntity
  8
0
100
AcDbEllipse
 10
23.48262912917871
 20
-16.15611923674009
 30
0.0
 11
-0.9815528683082453
 21
-0.1911909169282268
 31
0.0
210
0.0
220
0.0
230
1.0
 40
0.417832566759116
 41
3.830224687680999
 42
4.705832296296279
  0
ELLIPSE
  5
1368
330
133B
100
AcDbEntity
  8
0
100
AcDbEllipse
 10
19.80329053136957
 20
-27.52128018722015
 30
0.0
 11
0.1761259956430535
 21
20.50909432394321
 31
0.0
210
0.0
220
0.0
230
1.0
 40
0.2089766309660159
 41
5.179162146413979
 42
5.325821567241439
  0
ELLIPSE
  5
1369
330
133B
100
AcDbEntity
  8
0
100
AcDbEllipse
 10
16.10980979793188
 20
-11.89942001118027
 30
0.0
 11
0.9698433852240718
 21
-0.2437289645017965
 31
0.0
210
0.0
220
0.0
230
1.0
 40
0.7014860032896319
 41
0.0687284142631288
 42
0.944336022873994
  0
SPLINE
  5
136A
330
133B
100
AcDbEntity
  8
0
100
AcDbSpline
210
0.0
220
0.0
230
1.0
 70
     8
 71
     3
 72
    20
 73
    16
 74
     0
 42
0.000000001
 43
0.0000000001
 40
-1.422546017711731
 40
-1.422546017711731
 40
-1.422546017711731
 40
-1.422546017711731
 40
-1.339985777380144
 40
-1.339985777380144
 40
-1.027975637644412
 40
-1.027975637644412
 40
-0.7422948979804502
 40
-0.7422948979804502
 40
-0.4704685973115529
 40
-0.4704685973115529
 40
-0.2613714429508628
 40
-0.2613714429508628
 40
-0.1005274780580242
 40
-0.1005274780580242
 40
-0.0000000000000001
 40
-0.0000000000000001
 40
-0.0000000000000001
 40
-0.0000000000000001
 10
17.08910492816233
 20
-12.09585225686464
 30
0.0
 10
17.13008423340933
 20
-11.93277998556914
 30
0.0
 10
17.18350189606717
 20
-11.78052073086867
 30
0.0
 10
17.49525633578347
 20
-11.11308165090771
 30
0.0
 10
17.91423842694529
 20
-10.77092187549956
 30
0.0
 10
18.91856103919708
 20
-10.57604936644743
 30
0.0
 10
19.48512548904836
 20
-10.68391346668317
 30
0.0
 10
20.60987465080697
 20
-11.2582705045037
 30
0.0
 10
21.16580433670127
 20
-11.70608599904137
 30
0.0
 10
22.04174627476471
 20
-12.69774925720002
 30
0.0
 10
22.38640287812242
 20
-13.19448908933297
 30
0.0
 10
22.88714777015857
 20
-14.1244691850529
 30
0.0
 10
23.06846377469089
 20
-14.5456072044693
 30
0.0
 10
23.29100205309302
 20
-15.22717048958203
 30
0.0
 10
23.3593204007621
 20
-15.48859353286682
 30
0.0
 10
23.40918074072201
 20
-15.74474972852595
 30
0.0
  0
ELLIPSE
  5
136B
330
133B
100
AcDbEntity
  8
0
100
AcDbEllipse
 10
15.66700962566407
 20
-13.98619392599049
 30
0.0
 11
0.9844292024443001
 21
-0.1757815273994361
 31
0.0
210
0.0
220
0.0
230
1.0
 40
0.6736002308179984
 41
0.2173913554077282
 42
0.8965175931312447
  0
ELLIPSE
  5
136C
330
133B
100
AcDbEntity
  8
0
100
AcDbEllipse
 10
19.78914839574584
 20
-27.51311522141088
 30
0.0
 11
0.1761259956430527
 21
20.50909432394321
 31
0.0
210
0.0
220
0.0
230
1.0
 40
0.2089766309660159
 41
0.7219141508535821
 42
0.7751087690320713
  0
ELLIPSE
  5
136D
330
133B
100
AcDbEntity
  8
0
100
AcDbEllipse
 10
15.10546471938498
 20
-16.47869133823087
 30
0.0
 11
0.979892777903519
 21
-0.1995247949817881
 31
0.0
210
0.0
220
0.0
230
1.0
 40
0.6838462931740624
 41
0.6312715962375766
 42
0.9129258305628731
  0
ELLIPSE
  5
136E
330
133B
100
AcDbEntity
  8
0
100
AcDbEllipse
 10
14.40877202298763
 20
-17.70944878427887
 30
0.0
 11
0.6786712168179667
 21
-0.7344422233660191
 31
0.0
210
0.0
220
0.0
230
1.0
 40
0.6924514923513633
 41
5.355477108457776
 42
5.700237010529752
  0
SPLINE
  5
136F
330
133B
100
AcDbEntity
  8
0
100
AcDbSpline
210
0.0
220
0.0
230
1.0
 70
     8
 71
     3
 72
    16
 73
    12
 74
     0
 42
0.000000001
 43
0.0000000001
 40
0.0
 40
0.0
 40
0.0
 40
0.0
 40
0.0186600999375764
 40
0.0186600999375764
 40
0.0485162598376985
 40
0.0485162598376985
 40
0.0873292677078573
 40
0.0873292677078573
 40
0.1377861779390637
 40
0.1377861779390637
 40
0.1582917721517041
 40
0.1582917721517041
 40
0.1582917721517041
 40
0.1582917721517041
 10
15.81257150057153
 20
-16.07044304776701
 30
0.0
 10
15.80351646948622
 20
-16.16461189390462
 30
0.0
 10
15.78772379132938
 20
-16.26456320728546
 30
0.0
 10
15.72888883420735
 20
-16.53481794608378
 30
0.0
 10
15.67507059862057
 20
-16.71131812295521
 30
0.0
 10
15.51423940016498
 20
-17.12135086466664
 30
0.0
 10
15.39596157133703
 20
-17.35586773262006
 30
0.0
 10
15.0814294228112
 20
-17.8588575118985
 30
0.0
 10
14.87253679401366
 20
-18.11534255670594
 30
0.0
 10
14.57743057352226
 20
-18.3941425749505
 30
0.0
 10
14.49208277468739
 20
-18.46528864523344
 30
0.0
 10
14.40877202298763
 20
-18.52594536520659
 30
0.0
  0
ELLIPSE
  5
1370
330
133B
100
AcDbEntity
  8
0
100
AcDbEllipse
 10
12.74741637622364
 20
-19.39658483244452
 30
0.0
 11
0.7029929551235101
 21
-0.7111968117523549
 31
0.0
210
0.0
220
0.0
230
1.0
 40
0.7050408669402152
 41
5.331964662630674
 42
6.19130194400923
  0
ELLIPSE
  5
1371
330
133B
100
AcDbEntity
  8
0
100
AcDbEllipse
 10
11.00395712386245
 20
-21.48284015473234
 30
0.0
 11
0.8430576757019673
 21
-0.5378231637257693
 31
0.0
210
0.0
220
0.0
230
1.0
 40
0.7661798417906571
 41
5.167019923341033
 42
5.93202714080059
  0
ELLIPSE
  5
1372
330
133B
100
AcDbEntity
  8
0
100
AcDbEllipse
 10
24.40745805152012
 20
-17.33293162754227
 30
0.0
 11
-13.48178493611478
 21
-7.761232820848788
 31
0.0
210
0.0
220
0.0
230
0.9999999999999998
 40
0.2755189201942507
 41
5.52590716349086
 42
5.761408252952367
  0
ELLIPSE
  5
1373
330
133B
100
AcDbEntity
  8
0
100
AcDbEllipse
 10
17.23374777150404
 20
-25.07961146197202
 30
0.0
 11
-0.2079971062542286
 21
0.9781294412243582
 31
0.0
210
0.0
220
0.0
230
1.0
 40
0.282196946767252
 41
1.730819984386377
 42
2.495827201801812
  0
SPLINE
  5
1374
330
133B
100
AcDbEntity
  8
0
100
AcDbSpline
210
0.0
220
0.0
230
1.0
 70
     8
 71
     3
 72
    18
 73
    14
 74
     0
 42
0.000000001
 43
0.0000000001
 40
-1.104473507680125
 40
-1.104473507680125
 40
-1.104473507680125
 40
-1.104473507680125
 40
-0.9239432375870533
 40
-0.9239432375870533
 40
-0.6590823849107775
 40
-0.6590823849107775
 40
-0.4177282721265497
 40
-0.4177282721265497
 40
-0.2320712622925281
 40
-0.2320712622925281
 40
-0.0892581778048194
 40
-0.0892581778048194
 40
-0.0000000000000014
 40
-0.0000000000000014
 40
-0.0000000000000014
 40
-0.0000000000000014
 10
16.99439184485835
 20
-25.29341435271174
 30
0.0
 10
16.51036736895575
 20
-25.39644512438464
 30
0.0
 10
15.99290751575064
 20
-25.44685263889979
 30
0.0
 10
14.72040609903507
 20
-25.43293502405087
 30
0.0
 10
13.96876560677011
 20
-25.30252264885263
 30
0.0
 10
12.74683408888156
 20
-24.85523228228407
 30
0.0
 10
12.25858208704405
 20
-24.55678235950936
 30
0.0
 10
11.66473882978125
 20
-23.9410723184227
 30
0.0
 10
11.49643616837619
 20
-23.64461089989784
 30
0.0
 10
11.37900126288073
 20
-23.1067903696533
 30
0.0
 10
11.38798647209579
 20
-22.86864174746293
 30
0.0
 10
11.49953596709929
 20
-22.49113130784341
 30
0.0
 10
11.56563931709936
 20
-22.34823043516964
 30
0.0
 10
11.65382129907906
 20
-22.21003451062669
 30
0.0
  0
ELLIPSE
  5
1375
330
133B
100
AcDbEntity
  8
0
100
AcDbEllipse
 10
24.42160018714385
 20
-17.34109659335155
 30
0.0
 11
-13.48178493611477
 21
-7.761232820848785
 31
0.0
210
0.0
220
0.0
230
1.0
 40
0.2755189201942507
 41
0.8381728929820297
 42
1.116030305246388
  0
ELLIPSE
  5
1376
330
133B
100
AcDbEntity
  8
0
100
AcDbEllipse
 10
4.946977058640213
 20
-19.59514814294537
 30
0.0
 11
-2.499999999999999
 21
0.00000000000015
 31
0.0
210
0.0
220
0.0
230
1.0
 40
0.5773502691896259
 41
0.0
 42
6.283185307179586
  0
ELLIPSE
  5
1377
330
133B
100
AcDbEntity
  8
0
100
AcDbEllipse
 10
-23.33729418882169
 20
-35.92507976149988
 30
0.0
 11
-2.499999999999999
 21
0.00000000000015
 31
0.0
210
0.0
220
0.0
230
1.0
 40
0.5773502691896259
 41
0.0
 42
6.283185307179586
  0
ELLIPSE
  5
1378
330
133B
100
AcDbEntity
  8
0
100
AcDbEllipse
 10
-0.7098771908521684
 20
-32.65909343778898
 30
0.0
 11
-2.499999999999999
 21
0.00000000000015
 31
0.0
210
0.0
220
0.0
230
1.0
 40
0.5773502691896259
 41
0.0
 42
6.283185307179586
  0
ELLIPSE
  5
1379
330
133B
100
AcDbEntity
  8
0
100
AcDbEllipse
 10
-6.36673144034455
 20
-45.72303873263259
 30
0.0
 11
-2.499999999999999
 21
0.00000000000015
 31
0.0
210
0.0
220
0.0
230
1.0
 40
0.5773502691896259
 41
0.0
 42
6.283185307179586
  0
ELLIPSE
  5
137A
330
133B
100
AcDbEntity
  8
0
100
AcDbEllipse
 10
21.91753980711735
 20
-29.39310711407808
 30
0.0
 11
-2.499999999999999
 21
0.00000000000015
 31
0.0
210
0.0
220
0.0
230
1.0
 40
0.5773502691896259
 41
0.0
 42
6.283185307179586
  0
LINE
  5
137B
330
133B
100
AcDbEntity
  8
0
100
AcDbLine
 10
-12.73069247102347
 20
-51.84676308959055
 30
0.0
 11
-2.831197534411811
 21
-51.84676308959055
 31
0.0
  0
LINE
  5
137C
330
133B
100
AcDbEntity
  8
0
100
AcDbLine
 10
33.23124830610211
 20
-31.02610027593354
 30
0.0
 11
-2.831197534411811
 21
-51.84676308959055
 31
0.0
  0
LINE
  5
137D
330
133B
100
AcDbEntity
  8
0
100
AcDbLine
 10
36.05967543084831
 20
32.66063303642909
 30
0.0
 11
36.0596754308483
 21
-26.12712079036718
 31
0.0
  0
ELLIPSE
  5
137E
330
133B
100
AcDbEntity
  8
0
100
AcDbEllipse
 10
30.40282118135593
 20
0.8172663802477853
 30
0.0
 11
1.250000000000128
 21
-2.165063509461022
 31
0.0
210
0.0
220
0.0
230
0.9999999999999998
 40
0.5773502691896259
 41
3.742856870268585
 42
5.681921090500114
  0
ELLIPSE
  5
137F
330
133B
100
AcDbEntity
  8
0
100
AcDbEllipse
 10
30.40282118135593
 20
17.14719799880231
 30
0.0
 11
1.250000000000128
 21
-2.165063509461022
 31
0.0
210
0.0
220
0.0
230
0.9999999999999998
 40
0.5773502691896259
 41
3.742856870268587
 42
5.681921090500114
  0
ELLIPSE
  5
1380
330
133B
100
AcDbEntity
  8
0
100
AcDbEllipse
 10
30.40282118135594
 20
33.47712961735683
 30
0.0
 11
1.250000000000128
 21
-2.165063509461022
 31
0.0
210
0.0
220
0.0
230
0.9999999999999998
 40
0.5773502691896259
 41
3.742856870268582
 42
5.681921090500111
  0
ELLIPSE
  5
1381
330
133B
100
AcDbEntity
  8
0
100
AcDbEllipse
 10
13.43225843287879
 20
18.78019116065776
 30
0.0
 11
1.250000000000128
 21
-2.165063509461022
 31
0.0
210
0.0
220
0.0
230
0.9999999999999998
 40
0.5773502691896259
 41
3.742856870268582
 42
5.681921090500113
  0
ELLIPSE
  5
1382
330
133B
100
AcDbEntity
  8
0
100
AcDbEllipse
 10
13.4322584328788
 20
35.11012277921228
 30
0.0
 11
1.250000000000128
 21
-2.165063509461022
 31
0.0
210
0.0
220
0.0
230
0.9999999999999998
 40
0.5773502691896259
 41
3.742856870268582
 42
5.681921090500111
  0
LINE
  5
1383
330
133B
100
AcDbEntity
  8
0
100
AcDbLine
 10
12.72515165169225
 20
51.84830268823066
 30
0.0
 11
31.10992796254248
 21
41.23384713617022
 31
0.0
  0
LINE
  5
1384
330
133B
100
AcDbEntity
  8
0
100
AcDbLine
 10
36.05967543084831
 20
32.66063303642909
 30
0.0
 11
31.10992796254248
 21
41.23384713617022
 31
0.0
  0
LINE
  5
1385
330
133B
100
AcDbEntity
  8
0
100
AcDbLine
 10
-31.11546878187371
 20
-41.23230753753009
 30
0.0
 11
-12.73069247102347
 21
-51.84676308959055
 31
0.0
  0
ELLIPSE
  5
1386
330
133B
100
AcDbEntity
  8
0
100
AcDbEllipse
 10
4.946977058640213
 20
-21.22814130480081
 30
0.0
 11
-2.499999999999999
 21
-0.0000000000001486
 31
0.0
210
0.0
220
0.0
230
1.0
 40
0.5773502691896261
 41
3.742856870268578
 42
5.681921090500122
  0
ELLIPSE
  5
1387
330
133B
100
AcDbEntity
  8
0
100
AcDbEllipse
 10
-23.33729418882169
 20
-37.55807292335533
 30
0.0
 11
-2.499999999999999
 21
-0.0000000000001489
 31
0.0
210
0.0
220
0.0
230
1.0
 40
0.577350269189626
 41
3.742856870268578
 42
5.681921090500122
  0
ELLIPSE
  5
1388
330
133B
100
AcDbEntity
  8
0
100
AcDbEllipse
 10
-0.7098771908521684
 20
-34.29208659964444
 30
0.0
 11
-2.499999999999999
 21
-0.000000000000149
 31
0.0
210
0.0
220
0.0
230
1.0
 40
0.5773502691896261
 41
3.742856870268578
 42
5.681921090500122
  0
ELLIPSE
  5
1389
330
133B
100
AcDbEntity
  8
0
100
AcDbEllipse
 10
-6.36673144034455
 20
-47.35603189448804
 30
0.0
 11
-2.499999999999999
 21
-0.0000000000001489
 31
0.0
210
0.0
220
0.0
230
1.0
 40
0.577350269189626
 41
3.742856870268575
 42
5.681921090500121
  0
ELLIPSE
  5
138A
330
133B
100
AcDbEntity
  8
0
100
AcDbEllipse
 10
21.91753980711735
 20
-31.02610027593354
 30
0.0
 11
-2.499999999999999
 21
-0.0000000000001486
 31
0.0
210
0.0
220
0.0
230
1.0
 40
0.5773502691896261
 41
3.742856870268578
 42
5.681921090500122
  0
ELLIPSE
  5
138B
330
133B
100
AcDbEntity
  8
0
100
AcDbEllipse
 10
12.01804487050569
 20
34.29362619828456
 30
0.0
 11
1.249999999999999
 21
-2.165063509461097
 31
0.0
210
0.0
220
0.0
230
0.9999999999999998
 40
0.5773502691896258
 41
0.0
 42
6.283185307179586
  0
ELLIPSE
  5
138C
330
133B
100
AcDbEntity
  8
0
100
AcDbEllipse
 10
12.01804487050569
 20
17.96369457973004
 30
0.0
 11
1.249999999999999
 21
-2.165063509461097
 31
0.0
210
0.0
220
0.0
230
0.9999999999999998
 40
0.5773502691896258
 41
0.0
 42
6.283185307179586
  0
ELLIPSE
  5
138D
330
133B
100
AcDbEntity
  8
0
100
AcDbEllipse
 10
28.98860761898284
 20
32.6606330364291
 30
0.0
 11
1.249999999999999
 21
-2.165063509461097
 31
0.0
210
0.0
220
0.0
230
0.9999999999999998
 40
0.5773502691896258
 41
0.0
 42
6.283185307179586
  0
ELLIPSE
  5
138E
330
133B
100
AcDbEntity
  8
0
100
AcDbEllipse
 10
28.98860761898284
 20
16.33070141787458
 30
0.0
 11
1.249999999999999
 21
-2.165063509461097
 31
0.0
210
0.0
220
0.0
230
0.9999999999999998
 40
0.5773502691896258
 41
0.0
 42
6.283185307179586
  0
ELLIPSE
  5
138F
330
133B
100
AcDbEntity
  8
0
100
AcDbEllipse
 10
28.98860761898283
 20
0.0007697993200573
 30
0.0
 11
1.249999999999999
 21
-2.165063509461097
 31
0.0
210
0.0
220
0.0
230
0.9999999999999998
 40
0.5773502691896258
 41
0.0
 42
6.283185307179586
  0
ELLIPSE
  5
1390
330
133B
100
AcDbEntity
  8
0
100
AcDbEllipse
 10
17.85173510403085
 20
-24.16391120147835
 30
0.0
 11
-4.321747657321738
 21
4.147601377475188
 31
0.0
210
0.0
220
0.0
230
1.0
 40
0.3200897854741415
 41
5.367709244122364
 42
6.283185307179592
  0
ELLIPSE
  5
1391
330
133B
100
AcDbEntity
  8
0
100
AcDbEllipse
 10
14.95078819342712
 20
-17.51414700115353
 30
0.0
 11
2.499999999999742
 21
4.330127018922341
 31
0.0
210
0.0
220
0.0
230
1.0
 40
0.5773502691896259
 41
4.309553609348578
 42
5.211373287527793
  0
ELLIPSE
  5
1392
330
133B
100
AcDbEntity
  8
0
100
AcDbEllipse
 10
22.40532165289321
 20
-15.74535219149558
 30
0.0
 11
-5.847243163400273
 21
1.299941301778207
 31
0.0
210
0.0
220
0.0
230
1.0
 40
0.3907213235185993
 41
0.0
 42
0.8928335635749
  0
ELLIPSE
  5
1393
330
133B
100
AcDbEntity
  8
0
100
AcDbEllipse
 10
15.54650770862656
 20
-26.56592870243381
 30
0.0
 11
-4.321747657321741
 21
4.147601377475187
 31
0.0
210
0.0
220
0.0
230
1.0
 40
0.320089785474141
 41
5.367709244122361
 42
6.04768421771808
  0
LINE
  5
1394
330
133B
100
AcDbEntity
  8
0
100
AcDbLine
 10
13.96537285926201
 20
-22.94153492991828
 30
0.0
 11
16.2706002546663
 21
-20.53951742896282
 31
0.0
  0
ELLIPSE
  5
1395
330
133B
100
AcDbEntity
  8
0
100
AcDbEllipse
 10
15.56064984425029
 20
-26.57409366824309
 30
0.0
 11
4.321747657321603
 21
-4.147601377475328
 31
0.0
210
0.0
220
0.0
230
1.0
 40
0.3200897854741409
 41
1.546141616919328
 42
2.226116590533226
  0
ELLIPSE
  5
1396
330
133B
100
AcDbEntity
  8
0
100
AcDbEllipse
 10
13.97244392707388
 20
-22.94561741282292
 30
0.0
 11
-0.009292683305727
 21
-0.0051498223488948
 31
0.0
210
0.0
220
0.0
230
1.0
 40
0.7173168361474647
 41
5.11941803327284
 42
8.261010686862633
  0
ELLIPSE
  5
1397
330
133B
100
AcDbEntity
  8
0
100
AcDbEllipse
 10
17.86587723965458
 20
-24.17207616728763
 30
0.0
 11
4.321747657321602
 21
-4.147601377475332
 31
0.0
210
0.0
220
0.0
230
0.9999999999999998
 40
0.3200897854741415
 41
1.268284204655001
 42
2.226116590533226
  0
LINE
  5
1398
330
133B
100
AcDbEntity
  8
0
100
AcDbLine
 10
16.28474239029004
 20
-20.5476823947721
 30
0.0
 11
13.97951499488574
 21
-22.94969989572756
 31
0.0
  0
ELLIPSE
  5
1399
330
133B
100
AcDbEntity
  8
0
100
AcDbEllipse
 10
22.96922489386647
 20
-13.28064637432325
 30
0.0
 11
5.84724316340032
 21
-1.299941301777971
 31
0.0
210
0.0
220
0.0
230
1.0
 40
0.3907213235185992
 41
4.034426217164245
 42
4.874065162559804
  0
LINE
  5
139A
330
133B
100
AcDbEntity
  8
0
100
AcDbLine
 10
18.90619892278349
 20
-14.24471197121598
 30
0.0
 11
18.35643781743396
 21
-16.71758275419759
 31
0.0
  0
ELLIPSE
  5
139B
330
133B
100
AcDbEntity
  8
0
100
AcDbEllipse
 10
22.41946378851694
 20
-15.75351715730486
 30
0.0
 11
5.847243163400322
 21
-1.299941301777971
 31
0.0
210
0.0
220
0.0
230
1.0
 40
0.3907213235185992
 41
4.034426217164245
 42
5.020724583387236
  0
ELLIPSE
  5
139C
330
133B
100
AcDbEntity
  8
0
100
AcDbEllipse
 10
22.95508275824273
 20
-13.27248140851397
 30
0.0
 11
-5.84724316340027
 21
1.299941301778207
 31
0.0
210
0.0
220
0.0
230
1.0
 40
0.3907213235185992
 41
0.0531946181781207
 42
0.8928335635749
  0
ELLIPSE
  5
139D
330
133B
100
AcDbEntity
  8
0
100
AcDbEllipse
 10
18.89912785497163
 20
-14.24062948831134
 30
0.0
 11
0.0018327105357278
 21
-0.0101363974863266
 31
0.0
210
0.0
220
0.0
230
1.0
 40
0.7043813642456945
 41
1.033120954904657
 42
4.17471360849445
  0
LINE
  5
139E
330
133B
100
AcDbEntity
  8
0
100
AcDbLine
 10
18.34229568181023
 20
-16.70941778838831
 30
0.0
 11
18.89205678715976
 21
-14.2365470054067
 31
0.0
  0
ELLIPSE
  5
139F
330
133B
100
AcDbEntity
  8
0
100
AcDbEllipse
 10
14.96493032905085
 20
-17.52231196696281
 30
0.0
 11
-2.500000000000258
 21
-4.330127018922045
 31
0.0
210
0.0
220
0.0
230
1.0
 40
0.5773502691896259
 41
1.167960955758905
 42
2.069780633938163
  0
SPLINE
  5
13A0
330
133B
100
AcDbEntity
  8
0
100
AcDbSpline
210
0.0
220
0.0
230
1.0
 70
     8
 71
     3
 72
    16
 73
    12
 74
     0
 42
0.000000001
 43
0.0000000001
 40
5.094951772746076
 40
5.094951772746076
 40
5.094951772746076
 40
5.094951772746076
 40
5.275315708381924
 40
5.275315708381924
 40
5.455679644017772
 40
5.455679644017772
 40
5.63604357965362
 40
5.63604357965362
 40
5.816407515289467
 40
5.816407515289467
 40
5.996771450925313
 40
5.996771450925313
 40
5.996771450925313
 40
5.996771450925313
 10
13.52998744670911
 20
-20.01630982400316
 30
0.0
 10
13.80302031015364
 20
-19.73181306778848
 30
0.0
 10
14.07753337436824
 20
-19.41229038456787
 30
0.0
 10
14.60648078738497
 20
-18.72148201616021
 30
0.0
 10
14.86093449882661
 20
-18.35023936540059
 30
0.0
 10
15.33202417350224
 20
-17.57827227216698
 30
0.0
 10
15.54865762123386
 20
-17.17756587811496
 30
0.0
 10
15.93132433091348
 20
-16.37192615298769
 30
0.0
 10
16.09732747652431
 20
-15.96699902831176
 30
0.0
 10
16.37136961785889
 20
-15.18082923451537
 30
0.0
 10
16.47933737098378
 20
-14.79959493345179
 30
0.0
 10
16.55807848949294
 20
-14.44541088971737
 30
0.0
  0
LINE
  5
13A1
330
133B
100
AcDbEntity
  8
0
100
AcDbLine
 10
13.14118847015593
 20
-20.42143339137709
 30
0.0
 11
13.52998744670911
 21
-20.01630982400316
 31
0.0
  0
LINE
  5
13A2
330
133B
100
AcDbEntity
  8
0
100
AcDbLine
 10
16.55807848949294
 20
-14.44541088971737
 30
0.0
 11
16.91570195214411
 21
-12.83679106650062
 31
0.0
  0
LINE
  5
13A3
330
133B
100
AcDbEntity
  8
0
100
AcDbLine
 10
18.34229568181023
 20
-16.70941778838831
 30
0.0
 11
18.35643781743396
 21
-16.71758275419759
 31
0.0
  0
LINE
  5
13A4
330
133B
100
AcDbEntity
  8
0
100
AcDbLine
 10
16.2706002546663
 20
-20.53951742896282
 30
0.0
 11
16.28474239029004
 21
-20.5476823947721
 31
0.0
  0
ENDBLK
  5
133D
330
133B
100
AcDbEntity
  8
0
100
AcDbBlockEnd
  0
ENDSEC
  0
SECTION
  2
ENTITIES
  0
INSERT
  5
13A5
330
1F
100
AcDbEntity
  8
0
100
AcDbBlockReference
  2
AA60280-Front
 10
0.0
 20
0.0
 30
0.0
  0
INSERT
  5
13A6
330
1F
100
AcDbEntity
  8
0
100
AcDbBlockReference
  2
AA60280-Left
 10
44.90000000000001
 20
0.0
 30
0.0
  0
INSERT
  5
13A7
330
1F
100
AcDbEntity
  8
0
100
AcDbBlockReference
  2
AA60280-Right
 10
-44.90000000000001
 20
0.0
 30
0.0
  0
INSERT
  5
13A8
330
1F
100
AcDbEntity
  8
0
100
AcDbBlockReference
  2
AA60280-Top
 10
0.0
 20
-24.90000000000002
 30
0.0
  0
INSERT
  5
13A9
330
1F
100
AcDbEntity
  8
0
100
AcDbBlockReference
  2
AA60280-Bottom
 10
0.0
 20
107.9
 30
0.0
  0
INSERT
  5
13AA
330
1F
100
AcDbEntity
  8
0
100
AcDbBlockReference
  2
AA60280-ISO
 10
76.01546878187372
 20
-76.74830268823068
 30
0.0
  0
MTEXT
  5
13AB
330
1F
100
AcDbEntity
  8
0
100
AcDbMText
 10
0.0
 20
-111.8
 30
0.0
 40
8.300000000000002
 41
0.0
 71
     5
 72
     5
  1
AA60280
 73
     1
 44
1.0
1001
ACAD
1000
MTEXTBEGIN
1070
    73
1070
     1
1070
    44
1040
1.0
1070
    74
1070
     0
1000
MTEXTEND
  0
ENDSEC
  0
SECTION
  2
OBJECTS
  0
DICTIONARY
  5
C
330
0
100
AcDbDictionary
281
     1
  3
ACAD_CIP_PREVIOUS_PRODUCT_INFO
350
216
  3
ACAD_COLOR
350
6B
  3
ACAD_DETAILVIEWSTYLE
350
21B
  3
ACAD_GROUP
350
D
  3
ACAD_LAYOUT
350
1A
  3
ACAD_MATERIAL
350
6A
  3
ACAD_MLEADERSTYLE
350
12D
  3
ACAD_MLINESTYLE
350
17
  3
ACAD_PLOTSETTINGS
350
19
  3
ACAD_PLOTSTYLENAME
350
E
  3
ACAD_RENDER_ACTIVE_RAPIDRT_SETTINGS
350
29C
  3
ACAD_RENDER_ACTIVE_SETTINGS
350
1456
  3
ACAD_SCALELIST
350
10C
  3
ACAD_SECTIONVIEWSTYLE
350
219
  3
ACAD_TABLESTYLE
350
7E
  3
ACAD_VISUALSTYLE
350
EF
  3
ACDB_RECOMPOSE_DATA
350
1468
  3
AcDbVariableDictionary
350
5E
  3
DWGPROPS
350
1469
  0
DICTIONARY
  5
13FC
330
8
100
AcDbDictionary
280
     1
281
     1
  0
DICTIONARY
  5
1FF
330
2
100
AcDbDictionary
280
     1
281
     1
  3
ACAD_LAYERSTATES
360
200
  0
DICTIONARY
  5
13C
330
10
100
AcDbDictionary
280
     1
281
     1
  0
DICTIONARY
  5
1CE
330
1F
100
AcDbDictionary
280
     1
281
     1
  3
ACAD_LAYOUTSELFREF
360
1404
  0
DICTIONARY
  5
13AF
330
D2
100
AcDbDictionary
280
     1
281
     1
  3
ACAD_LAYOUTSELFREF
360
140D
  0
DICTIONARY
  5
13B1
330
D6
100
AcDbDictionary
280
     1
281
     1
  3
ACAD_LAYOUTSELFREF
360
1410
  0
XRECORD
  5
216
102
{ACAD_REACTORS
330
C
102
}
330
C
100
AcDbXrecord
280
     1
300
ACD
300
2021
300
87393ACD_2021_0F
  0
DICTIONARY
  5
6B
102
{ACAD_REACTORS
330
C
102
}
330
C
100
AcDbDictionary
281
     1
  0
DICTIONARY
  5
21B
102
{ACAD_REACTORS
330
C
102
}
330
C
100
AcDbDictionary
281
     1
  3
Metric50
350
21C
  0
DICTIONARY
  5
D
102
{ACAD_REACTORS
330
C
102
}
330
C
100
AcDbDictionary
281
     1
  0
DICTIONARY
  5
1A
102
{ACAD_REACTORS
330
C
102
}
330
C
100
AcDbDictionary
281
     1
  3
Layout1
350
D3
  3
Layout2
350
D7
  3
Model
350
22
  0
DICTIONARY
  5
6A
102
{ACAD_REACTORS
330
C
102
}
330
C
100
AcDbDictionary
281
     1
  3
ByBlock
350
ED
  3
ByLayer
350
EC
  3
Global
350
EE
  0
DICTIONARY
  5
12D
102
{ACAD_REACTORS
330
C
102
}
330
C
100
AcDbDictionary
281
     1
  3
Annotative
350
13B
  3
Standard
350
12E
  0
DICTIONARY
  5
17
102
{ACAD_REACTORS
330
C
102
}
330
C
100
AcDbDictionary
281
     1
  3
Standard
350
18
  0
DICTIONARY
  5
19
102
{ACAD_REACTORS
330
C
102
}
330
C
100
AcDbDictionary
281
     1
  0
ACDBDICTIONARYWDFLT
  5
E
102
{ACAD_REACTORS
330
C
102
}
330
C
100
AcDbDictionary
281
     1
  3
Normal
350
F
100
AcDbDictionaryWithDefault
340
F
  0
RAPIDRTRENDERSETTINGS
  5
29C
102
{ACAD_REACTORS
330
C
102
}
330
C
100
AcDbRenderSettings
 90
        2
  1
Medium
290
     1
290
     0
290
     1
290
     1
  1

  1
Applies 5 rendering levels
 90
        0
100
AcDbRapidRTRenderSettings
 90
        3
 70
     0
 90
        5
 90
        1
 70
     1
 70
     2
 40
3.0
 40
3.0
290
     1
  0
MENTALRAYRENDERSETTINGS
  5
1456
102
{ACAD_XDICTIONARY
360
1457
102
}
102
{ACAD_REACTORS
330
C
102
}
330
C
100
AcDbRenderSettings
 90
        2
  1
Medium
290
     1
290
     1
290
     1
290
     1
  1

  1

 90
        0
100
AcDbMentalRayRenderSettings
 90
        2
 90
        0
 90
        1
 70
     2
 40
3.0
 40
3.0
 40
0.0500000007450581
 40
0.0500000007450581
 40
0.0500000007450581
 40
0.0500000007450581
 70
     0
290
     0
290
     1
 90
        5
 90
        5
 90
        5
290
     0
 90
      500
290
     0
 40
1.0
 90
    10000
 90
        5
 90
        5
 90
        5
290
     0
 90
      200
290
     0
290
     0
290
     0
 40
1.0
 40
1.0
 40
1500.0
 70
     0
 70
     0
 40
10.0
 70
     0
 70
     0
290
     0
  1

 90
       32
 70
     0
 90
     1048
290
     0
 40
1.0
  0
DICTIONARY
  5
10C
102
{ACAD_REACTORS
330
C
102
}
330
C
100
AcDbDictionary
281
     1
  3
A0
350
10D
  3
A1
350
1BE
  3
A2
350
1BF
  3
A3
350
1C0
  3
A4
350
1C1
  3
A5
350
1C2
  3
A6
350
1C3
  3
A7
350
1C4
  3
A8
350
1C5
  3
A9
350
1C6
  3
B0
350
1C7
  3
B1
350
1C8
  3
B2
350
1C9
  3
B3
350
1CA
  3
B4
350
1CB
  3
B5
350
1CC
  3
B6
350
1CD
  0
DICTIONARY
  5
219
102
{ACAD_REACTORS
330
C
102
}
330
C
100
AcDbDictionary
281
     1
  3
Metric50
350
21A
  0
DICTIONARY
  5
7E
102
{ACAD_REACTORS
330
C
102
}
330
C
100
AcDbDictionary
281
     1
  3
Standard
350
7F
  0
DICTIONARY
  5
EF
102
{ACAD_REACTORS
330
C
102
}
330
C
100
AcDbDictionary
281
     1
  3
2dWireframe
350
F5
  3
Basic
350
F4
  3
Brighten
350
FB
  3
ColorChange
350
FF
  3
Conceptual
350
F8
  3
Dim
350
FA
  3
EdgeColorOff
350
1E6
  3
Facepattern
350
FE
  3
Flat
350
F0
  3
FlatWithEdges
350
F1
  3
Gouraud
350
F2
  3
GouraudWithEdges
350
F3
  3
Hidden
350
F7
  3
JitterOff
350
1E4
  3
Linepattern
350
FD
  3
OverhangOff
350
1E5
  3
Realistic
350
F9
  3
Shaded
350
1F3
  3
Shaded with edges
350
1F2
  3
Shades of Gray
350
1EF
  3
Sketchy
350
1F0
  3
Thicken
350
FC
  3
Wireframe
350
F6
  3
X-Ray
350
1F1
  0
XRECORD
  5
1468
102
{ACAD_REACTORS
330
C
102
}
330
C
100
AcDbXrecord
280
     1
 90
        1
330
7F
  0
DICTIONARY
  5
5E
102
{ACAD_REACTORS
330
C
102
}
330
C
100
AcDbDictionary
281
     1
  3
CANNOSCALE
350
146
  3
CENTEREXE
350
259
  3
CENTERLTYPEFILE
350
25A
  3
CMLEADERSTYLE
350
145
  3
CTABLESTYLE
350
84
  3
CVIEWDETAILSTYLE
350
227
  3
CVIEWSECTIONSTYLE
350
228
  3
DIMASSOC
350
5F
  3
HIDETEXT
350
63
  3
INDEXCTL
350
145E
  3
LAYEREVAL
350
1AE
  3
LAYERNOTIFY
350
1AF
  3
LIGHTINGUNITS
350
145C
  3
MSLTSCALE
350
145B
  3
PSOLHEIGHT
350
1465
  3
PSOLWIDTH
350
1464
  3
SORTENTS
350
145D
  3
XCLIPFRAME
350
1466
  0
XRECORD
  5
1469
102
{ACAD_REACTORS
330
C
102
}
330
C
100
AcDbXrecord
280
     1
  1
DWGPROPS COOKIE
  2

  3

  4

  6

  7

  8
Autodesk
  9

300
=
301
=
302
=
303
=
304
=
305
=
306
=
307
=
308
=
309
=
 40
0.002025462962963
 41
2460441.436643518
 42
2460441.438668982
  1

 90
        0
  0
DICTIONARY
  5
200
102
{ACAD_REACTORS
330
1FF
102
}
330
1FF
100
AcDbDictionary
281
     1
  0
XRECORD
  5
1404
102
{ACAD_REACTORS
330
1CE
102
}
330
1CE
100
AcDbXrecord
280
     1
340
1F
  0
XRECORD
  5
140D
102
{ACAD_REACTORS
330
13AF
102
}
330
13AF
100
AcDbXrecord
280
     1
340
D2
  0
XRECORD
  5
1410
102
{ACAD_REACTORS
330
13B1
102
}
330
13B1
100
AcDbXrecord
280
     1
340
D6
  0
ACDBDETAILVIEWSTYLE
  5
21C
102
{ACAD_XDICTIONARY
360
14AA
102
}
102
{ACAD_REACTORS
330
21B
102
}
330
21B
100
AcDbModelDocViewStyle
 70
     0
  3
Metric50
290
     0
100
AcDbDetailViewStyle
 70
     0
 71
     0
 90
        3
 71
     1
340
11
 40
5.0
340
0
 40
5.0
300

 40
0.0
280
     1
 71
     2
340
16
 90
       25
 71
     3
340
11
 40
5.0
 90
        0
 40
15.0
 90
        1
300
%<\AcVar ViewDetailId>% (%<\AcVar ViewScale \f "%sn">%)
 71
     4
340
16
 90
       25
340
16
 90
       25
280
     0
  0
LAYOUT
  5
D3
102
{ACAD_XDICTIONARY
360
146D
102
}
102
{ACAD_REACTORS
330
1A
102
}
330
1A
100
AcDbPlotSettings
  1

  2
C:\Documents and Settings\basas\Application Data\Autodesk\AutoCAD 2005\R16.1\enu\plotters\Default Windows System Printer.pc3
  4

  6

 40
0.0
 41
0.0
 42
0.0
 43
0.0
 44
0.0
 45
0.0
 46
0.0
 47
0.0
 48
0.0
 49
0.0
140
0.0
141
0.0
142
1.0
143
1.0
 70
   688
 72
     0
 73
     0
 74
     5
  7

 75
    16
147
1.0
148
0.0
149
0.0
100
AcDbLayout
  1
Layout1
 70
     1
 71
     1
 10
0.0
 20
0.0
 11
12.0
 21
9.0
 12
0.0
 22
0.0
 32
0.0
 14
0.0
 24
0.0
 34
0.0
 15
0.0
 25
0.0
 35
0.0
146
0.0
 13
0.0
 23
0.0
 33
0.0
 16
1.0
 26
0.0
 36
0.0
 17
0.0
 27
1.0
 37
0.0
 76
     0
330
D2
  0
LAYOUT
  5
D7
102
{ACAD_XDICTIONARY
360
146F
102
}
102
{ACAD_REACTORS
330
1A
102
}
330
1A
100
AcDbPlotSettings
  1

  2
C:\Documents and Settings\basas\Application Data\Autodesk\AutoCAD 2005\R16.1\enu\plotters\Default Windows System Printer.pc3
  4

  6

 40
0.0
 41
0.0
 42
0.0
 43
0.0
 44
0.0
 45
0.0
 46
0.0
 47
0.0
 48
0.0
 49
0.0
140
0.0
141
0.0
142
1.0
143
1.0
 70
   688
 72
     0
 73
     0
 74
     5
  7

 75
    16
147
1.0
148
0.0
149
0.0
100
AcDbLayout
  1
Layout2
 70
     1
 71
     2
 10
0.0
 20
0.0
 11
12.0
 21
9.0
 12
0.0
 22
0.0
 32
0.0
 14
0.0
 24
0.0
 34
0.0
 15
0.0
 25
0.0
 35
0.0
146
0.0
 13
0.0
 23
0.0
 33
0.0
 16
1.0
 26
0.0
 36
0.0
 17
0.0
 27
1.0
 37
0.0
 76
     0
330
D6
  0
LAYOUT
  5
22
102
{ACAD_XDICTIONARY
360
146A
102
}
102
{ACAD_REACTORS
330
1A
102
}
330
1A
100
AcDbPlotSettings
  1

  2
none_device
  4
ISO_A4_(210.00_x_297.00_MM)
  6

 40
7.5
 41
20.0
 42
7.5
 43
20.0
 44
210.0
 45
297.0
 46
11.54999923706054
 47
-13.65000009536743
 48
0.0
 49
0.0
140
0.0
141
0.0
142
1.0
143
8.704084754739808
 70
 11952
 72
     1
 73
     0
 74
     0
  7

 75
     0
147
0.1148885871608098
148
0.0
149
0.0
100
AcDbLayout
  1
Model
 70
     1
 71
     0
 10
0.0
 20
0.0
 11
12.0
 21
9.0
 12
0.0
 22
0.0
 32
0.0
 14
0.0
 24
0.0
 34
0.0
 15
0.0
 25
0.0
 35
0.0
146
0.0
 13
0.0
 23
0.0
 33
0.0
 16
1.0
 26
0.0
 36
0.0
 17
0.0
 27
1.0
 37
0.0
 76
     0
330
1F
331
EA
1001
ACAD_PSEXT
1000
None
1000
None
1000
Not applicable
1000
The layout will not be plotted unless a new plotter configuration name is selected.
1070
     0
  0
MATERIAL
  5
ED
102
{ACAD_XDICTIONARY
360
1F9
102
}
102
{ACAD_REACTORS
330
6A
102
}
330
6A
100
AcDbMaterial
  1
ByBlock
  0
MATERIAL
  5
EC
102
{ACAD_XDICTIONARY
360
1F7
102
}
102
{ACAD_REACTORS
330
6A
102
}
330
6A
100
AcDbMaterial
  1
ByLayer
  0
MATERIAL
  5
EE
102
{ACAD_XDICTIONARY
360
173
102
}
102
{ACAD_REACTORS
330
6A
102
}
330
6A
100
AcDbMaterial
  1
Global
 43
0.0007999999797903
 43
0.0
 43
0.0
 43
0.0
 43
0.0
 43
0.0007999999797903
 43
0.0
 43
0.0
 43
0.0
 43
0.0
 43
1.0
 43
0.0
 43
0.0
 43
0.0
 43
0.0
 43
1.0
 49
0.0007999999797903
 49
0.0
 49
0.0
 49
0.0
 49
0.0
 49
0.0007999999797903
 49
0.0
 49
0.0
 49
0.0
 49
0.0
 49
1.0
 49
0.0
 49
0.0
 49
0.0
 49
0.0
 49
1.0
142
0.0007999999797903
142
0.0
142
0.0
142
0.0
142
0.0
142
0.0007999999797903
142
0.0
142
0.0
142
0.0
142
0.0
142
1.0
142
0.0
142
0.0
142
0.0
142
0.0
142
1.0
144
0.0007999999797903
144
0.0
144
0.0
144
0.0
144
0.0
144
0.0007999999797903
144
0.0
144
0.0
144
0.0
144
0.0
144
1.0
144
0.0
144
0.0
144
0.0
144
0.0
144
1.0
1001
ACAD
1070
    -1
1070
     3
1070
     0
1000

1071
        0
1070
     0
  0
MLEADERSTYLE
  5
13B
102
{ACAD_XDICTIONARY
360
1496
102
}
102
{ACAD_REACTORS
330
12D
102
}
330
12D
100
AcDbMLeaderStyle
170
     2
171
     1
172
     0
 90
        2
 40
0.0
 41
0.0
173
     1
 91
-1056964608
340
14
 92
       -2
290
     1
 42
2.0
291
     1
 43
8.0
  3
Standard
 44
4.0
300

342
11
174
     1
178
     1
175
     1
176
     0
 93
-1056964608
 45
4.0
292
     0
297
     0
 46
4.0
 94
-1056964608
 47
1.0
 49
1.0
140
1.0
293
     1
141
0.0
294
     1
177
     0
142
1.0
295
     0
296
     1
143
3.75
1001
ACAD_MLEADERVER
1070
     2
  0
MLEADERSTYLE
  5
12E
102
{ACAD_XDICTIONARY
360
1494
102
}
102
{ACAD_REACTORS
330
12D
102
}
330
12D
100
AcDbMLeaderStyle
170
     2
171
     1
172
     0
 90
        2
 40
0.0
 41
0.0
173
     1
 91
-1056964608
340
14
 92
       -2
290
     1
 42
2.0
291
     1
 43
8.0
  3
Standard
 44
4.0
300

342
11
174
     1
178
     1
175
     1
176
     0
 93
-1056964608
 45
4.0
292
     0
297
     0
 46
4.0
 94
-1056964608
 47
1.0
 49
1.0
140
1.0
293
     1
141
0.0
294
     1
177
     0
142
1.0
295
     0
296
     0
143
3.75
1001
ACAD_MLEADERVER
1070
     2
  0
MLINESTYLE
  5
18
102
{ACAD_REACTORS
330
17
102
}
330
17
100
AcDbMlineStyle
  2
STANDARD
 70
     0
  3

 62
   256
 51
90.0
 52
90.0
 71
     2
 49
0.5
 62
   256
  6
BYLAYER
 49
-0.5
 62
   256
  6
BYLAYER
  0
ACDBPLACEHOLDER
  5
F
102
{ACAD_REACTORS
330
E
102
}
330
E
  0
DICTIONARY
  5
1457
330
1456
100
AcDbDictionary
280
     1
281
     1
  3
ADSK_XREC_MENTALRAYSETTINGSINFO
360
1458
  0
SCALE
  5
10D
102
{ACAD_REACTORS
330
10C
102
}
330
10C
100
AcDbScale
 70
     0
300
1:1
140
1.0
141
1.0
290
     1
  0
SCALE
  5
1BE
102
{ACAD_REACTORS
330
10C
102
}
330
10C
100
AcDbScale
 70
     0
300
1:2
140
1.0
141
2.0
290
     0
  0
SCALE
  5
1BF
102
{ACAD_REACTORS
330
10C
102
}
330
10C
100
AcDbScale
 70
     0
300
1:4
140
1.0
141
4.0
290
     0
  0
SCALE
  5
1C0
102
{ACAD_REACTORS
330
10C
102
}
330
10C
100
AcDbScale
 70
     0
300
1:5
140
1.0
141
5.0
290
     0
  0
SCALE
  5
1C1
102
{ACAD_REACTORS
330
10C
102
}
330
10C
100
AcDbScale
 70
     0
300
1:8
140
1.0
141
8.0
290
     0
  0
SCALE
  5
1C2
102
{ACAD_REACTORS
330
10C
102
}
330
10C
100
AcDbScale
 70
     0
300
1:10
140
1.0
141
10.0
290
     0
  0
SCALE
  5
1C3
102
{ACAD_REACTORS
330
10C
102
}
330
10C
100
AcDbScale
 70
     0
300
1:16
140
1.0
141
16.0
290
     0
  0
SCALE
  5
1C4
102
{ACAD_REACTORS
330
10C
102
}
330
10C
100
AcDbScale
 70
     0
300
1:20
140
1.0
141
20.0
290
     0
  0
SCALE
  5
1C5
102
{ACAD_REACTORS
330
10C
102
}
330
10C
100
AcDbScale
 70
     0
300
1:30
140
1.0
141
30.0
290
     0
  0
SCALE
  5
1C6
102
{ACAD_REACTORS
330
10C
102
}
330
10C
100
AcDbScale
 70
     0
300
1:40
140
1.0
141
40.0
290
     0
  0
SCALE
  5
1C7
102
{ACAD_REACTORS
330
10C
102
}
330
10C
100
AcDbScale
 70
     0
300
1:50
140
1.0
141
50.0
290
     0
  0
SCALE
  5
1C8
102
{ACAD_REACTORS
330
10C
102
}
330
10C
100
AcDbScale
 70
     0
300
1:100
140
1.0
141
100.0
290
     0
  0
SCALE
  5
1C9
102
{ACAD_REACTORS
330
10C
102
}
330
10C
100
AcDbScale
 70
     0
300
2:1
140
2.0
141
1.0
290
     0
  0
SCALE
  5
1CA
102
{ACAD_REACTORS
330
10C
102
}
330
10C
100
AcDbScale
 70
     0
300
4:1
140
4.0
141
1.0
290
     0
  0
SCALE
  5
1CB
102
{ACAD_REACTORS
330
10C
102
}
330
10C
100
AcDbScale
 70
     0
300
8:1
140
8.0
141
1.0
290
     0
  0
SCALE
  5
1CC
102
{ACAD_REACTORS
330
10C
102
}
330
10C
100
AcDbScale
 70
     0
300
10:1
140
10.0
141
1.0
290
     0
  0
SCALE
  5
1CD
102
{ACAD_REACTORS
330
10C
102
}
330
10C
100
AcDbScale
 70
     0
300
100:1
140
100.0
141
1.0
290
     0
  0
ACDBSECTIONVIEWSTYLE
  5
21A
102
{ACAD_XDICTIONARY
360
14A8
102
}
102
{ACAD_REACTORS
330
219
102
}
330
219
100
AcDbModelDocViewStyle
 70
     0
  3
Metric50
290
     0
100
AcDbSectionViewStyle
 70
     0
 71
     0
 90
      102
 71
     1
340
11
 40
5.0
340
0
340
0
 40
5.0
300
I, O, Q, S, X, Z
 40
10.0
 90
        0
 40
2.5
 90
        0
 71
     2
340
16
 90
       25
340
16
 90
       50
 40
5.0
 40
2.5
 40
5.0
 71
     3
340
11
 40
5.0
 90
        0
 40
15.0
 90
        1
300
%<\AcVar ViewSectionStartId>%-%<\AcVar ViewSectionEndId>% (%<\AcVar ViewScale \f "%sn">%)
 71
     4
300
ANSI31
 40
1.0
 90
        0
290
     0
290
     0
 90
        6
 40
0.0
 40
1.570796326794896
 40
0.2617993877991494
 40
1.308996938995747
 40
-0.2617993877991494
 40
1.832595714594046
  0
TABLESTYLE
  5
7F
102
{ACAD_XDICTIONARY
360
162
102
}
102
{ACAD_REACTORS
330
7E
102
}
330
7E
100
AcDbTableStyle
  3
Standard
 70
     0
 71
     0
 40
1.5
 41
1.5
280
     0
281
     0
  7
Standard
140
4.5
170
     2
 62
     0
 63
     7
283
     0
274
    -2
284
     1
 64
     0
275
    -2
285
     1
 65
     0
276
    -2
286
     1
 66
     0
277
    -2
287
     1
 67
     0
278
    -2
288
     1
 68
     0
279
    -2
289
     1
 69
     0
  7
Standard
140
6.0
170
     5
 62
     0
 63
     7
283
     0
274
    -2
284
     1
 64
     0
275
    -2
285
     1
 65
     0
276
    -2
286
     1
 66
     0
277
    -2
287
     1
 67
     0
278
    -2
288
     1
 68
     0
279
    -2
289
     1
 69
     0
  7
Standard
140
4.5
170
     5
 62
     0
 63
     7
283
     0
274
    -2
284
     1
 64
     0
275
    -2
285
     1
 65
     0
276
    -2
286
     1
 66
     0
277
    -2
287
     1
 67
     0
278
    -2
288
     1
 68
     0
279
    -2
289
     1
 69
     0
  0
VISUALSTYLE
  5
F5
102
{ACAD_XDICTIONARY
360
147E
102
}
102
{ACAD_REACTORS
330
EF
102
}
330
EF
100
AcDbVisualStyle
  2
2dWireframe
 70
     4
 71
     0
 72
     2
 73
     1
 90
        0
 40
-0.6
 41
-30.0
 62
     5
 63
     7
 74
     1
 91
        4
 64
     7
 65
   257
 75
     1
175
     1
 42
1.0
 92
        0
 66
   257
 43
1.0
 76
     1
 77
     6
 78
     2
 67
     7
 79
     5
170
     0
171
     0
290
     0
174
     0
 93
        1
 44
0.0
173
     0
291
     0
 45
0.0
1001
ACAD
1000
AcDbSavedByObjectVersion
1070
     0
  0
VISUALSTYLE
  5
F4
102
{ACAD_XDICTIONARY
360
147C
102
}
102
{ACAD_REACTORS
330
EF
102
}
330
EF
100
AcDbVisualStyle
  2
Basic
 70
     7
 71
     1
 72
     0
 73
     1
 90
        0
 40
-0.6
 41
-30.0
 62
     5
 63
     7
 74
     0
 91
        4
 64
     7
 65
   257
 75
     1
175
     1
 42
1.0
 92
        8
 66
     7
 43
1.0
 76
     1
 77
     6
 78
     2
 67
     7
 79
     5
170
     0
171
     0
290
     0
174
     0
 93
        1
 44
0.0
173
     0
291
     1
 45
0.0
1001
ACAD
1000
AcDbSavedByObjectVersion
1070
     0
  0
VISUALSTYLE
  5
FB
102
{ACAD_XDICTIONARY
360
148A
102
}
102
{ACAD_REACTORS
330
EF
102
}
330
EF
100
AcDbVisualStyle
  2
Brighten
 70
    12
 71
     2
 72
     2
 73
     1
 90
        0
 40
-0.6
 41
-30.0
 62
     5
 63
     7
 74
     1
 91
        4
 64
     7
 65
   257
 75
     1
175
     1
 42
1.0
 92
        8
 66
     7
 43
1.0
 76
     1
 77
     6
 78
     2
 67
     7
 79
     5
170
     0
171
     0
290
     0
174
     0
 93
        1
 44
50.0
173
     0
291
     1
 45
0.0
1001
ACAD
1000
AcDbSavedByObjectVersion
1070
     0
  0
VISUALSTYLE
  5
FF
102
{ACAD_XDICTIONARY
360
1492
102
}
102
{ACAD_REACTORS
330
EF
102
}
330
EF
100
AcDbVisualStyle
  2
ColorChange
 70
    16
 71
     2
 72
     2
 73
     3
 90
        0
 40
-0.6
 41
-30.0
 62
     5
 63
     8
 74
     1
 91
        4
 64
     7
 65
   257
 75
     1
175
     1
 42
1.0
 92
        8
 66
     8
 43
1.0
 76
     1
 77
     6
 78
     2
 67
     7
 79
     5
170
     0
171
     0
290
     0
174
     0
 93
        1
 44
0.0
173
     0
291
     1
 45
0.0
1001
ACAD
1000
AcDbSavedByObjectVersion
1070
     0
  0
VISUALSTYLE
  5
F8
102
{ACAD_XDICTIONARY
360
1484
102
}
102
{ACAD_REACTORS
330
EF
102
}
330
EF
100
AcDbVisualStyle
  2
Conceptual
 70
     9
 71
     3
 72
     2
 73
     1
 90
        0
 40
-0.6
 41
-30.0
 62
     5
 63
     7
 74
     2
 91
        2
 64
     7
 65
   257
 75
     1
175
     1
 42
40.0
 92
        8
 66
     7
 43
1.0
 76
     1
 77
     6
 78
     2
 67
     7
 79
     3
170
     0
171
     0
290
     0
174
     0
 93
        1
 44
0.0
173
     0
291
     0
 45
0.0
1001
ACAD
1000
AcDbSavedByObjectVersion
1070
     0
  0
VISUALSTYLE
  5
FA
102
{ACAD_XDICTIONARY
360
1488
102
}
102
{ACAD_REACTORS
330
EF
102
}
330
EF
100
AcDbVisualStyle
  2
Dim
 70
    11
 71
     2
 72
     2
 73
     1
 90
        0
 40
-0.6
 41
-30.0
 62
     5
 63
     7
 74
     1
 91
        4
 64
     7
 65
   257
 75
     1
175
     1
 42
1.0
 92
        8
 66
     7
 43
1.0
 76
     1
 77
     6
 78
     2
 67
     7
 79
     5
170
     0
171
     0
290
     0
174
     0
 93
        1
 44
-50.0
173
     0
291
     1
 45
0.0
1001
ACAD
1000
AcDbSavedByObjectVersion
1070
     0
  0
VISUALSTYLE
  5
1E6
102
{ACAD_XDICTIONARY
360
149C
102
}
102
{ACAD_REACTORS
330
EF
102
}
330
EF
100
AcDbVisualStyle
  2
EdgeColorOff
 70
    22
 71
     2
 72
     2
 73
     0
 90
        0
 40
-0.6
 41
-30.0
 62
     5
 63
     7
 74
     1
 91
        4
 64
     7
 65
   257
 75
     1
175
     1
 42
1.0
 92
        8
 66
     7
 43
1.0
 76
     1
 77
     6
 78
     2
 67
     7
 79
     5
170
     0
171
     0
290
     0
174
     0
 93
        1
 44
0.0
173
     0
291
     1
 45
0.0
1001
ACAD
1000
AcDbSavedByObjectVersion
1070
     0
  0
VISUALSTYLE
  5
FE
102
{ACAD_XDICTIONARY
360
1490
102
}
102
{ACAD_REACTORS
330
EF
102
}
330
EF
100
AcDbVisualStyle
  2
Facepattern
 70
    15
 71
     2
 72
     2
 73
     1
 90
        0
 40
-0.6
 41
-30.0
 62
     5
 63
     7
 74
     1
 91
        4
 64
     7
 65
   257
 75
     1
175
     1
 42
1.0
 92
        8
 66
     7
 43
1.0
 76
     1
 77
     6
 78
     2
 67
     7
 79
     5
170
     0
171
     0
290
     0
174
     0
 93
        1
 44
0.0
173
     0
291
     1
 45
0.0
1001
ACAD
1000
AcDbSavedByObjectVersion
1070
     0
  0
VISUALSTYLE
  5
F0
102
{ACAD_XDICTIONARY
360
1474
102
}
102
{ACAD_REACTORS
330
EF
102
}
330
EF
100
AcDbVisualStyle
  2
Flat
 70
     0
 71
     2
 72
     1
 73
     1
 90
        2
 40
-0.6
 41
30.0
 62
     5
 63
     7
 74
     0
 91
        0
 64
     7
 65
   257
 75
     1
175
     1
 42
1.0
 92
        8
 66
     7
 43
1.0
 76
     1
 77
     6
 78
     2
 67
     7
 79
     5
170
     0
171
     0
290
     0
174
     0
 93
       13
 44
0.0
173
     0
291
     1
 45
0.0
1001
ACAD
1000
AcDbSavedByObjectVersion
1070
     0
  0
VISUALSTYLE
  5
F1
102
{ACAD_XDICTIONARY
360
1476
102
}
102
{ACAD_REACTORS
330
EF
102
}
330
EF
100
AcDbVisualStyle
  2
FlatWithEdges
 70
     1
 71
     2
 72
     1
 73
     1
 90
        2
 40
-0.6
 41
30.0
 62
     5
 63
     7
 74
     1
 91
        0
 64
     7
 65
   257
 75
     1
175
     1
 42
1.0
 92
        0
 66
   257
 43
1.0
 76
     1
 77
     6
 78
     2
 67
     7
 79
     5
170
     0
171
     0
290
     0
174
     0
 93
       13
 44
0.0
173
     0
291
     1
 45
0.0
1001
ACAD
1000
AcDbSavedByObjectVersion
1070
     0
  0
VISUALSTYLE
  5
F2
102
{ACAD_XDICTIONARY
360
1478
102
}
102
{ACAD_REACTORS
330
EF
102
}
330
EF
100
AcDbVisualStyle
  2
Gouraud
 70
     2
 71
     2
 72
     2
 73
     1
 90
        2
 40
-0.6
 41
30.0
 62
     5
 63
     7
 74
     0
 91
        0
 64
     7
 65
   257
 75
     1
175
     1
 42
1.0
 92
        0
 66
     7
 43
1.0
 76
     1
 77
     6
 78
     2
 67
     7
 79
     5
170
     0
171
     0
290
     0
174
     0
 93
       13
 44
0.0
173
     0
291
     1
 45
0.0
1001
ACAD
1000
AcDbSavedByObjectVersion
1070
     0
  0
VISUALSTYLE
  5
F3
102
{ACAD_XDICTIONARY
360
147A
102
}
102
{ACAD_REACTORS
330
EF
102
}
330
EF
100
AcDbVisualStyle
  2
GouraudWithEdges
 70
     3
 71
     2
 72
     2
 73
     1
 90
        2
 40
-0.6
 41
30.0
 62
     5
 63
     7
 74
     1
 91
        0
 64
     7
 65
   257
 75
     1
175
     1
 42
1.0
 92
        0
 66
   257
 43
1.0
 76
     1
 77
     6
 78
     2
 67
     7
 79
     5
170
     0
171
     0
290
     0
174
     0
 93
       13
 44
0.0
173
     0
291
     1
 45
0.0
1001
ACAD
1000
AcDbSavedByObjectVersion
1070
     0
  0
VISUALSTYLE
  5
F7
102
{ACAD_XDICTIONARY
360
1482
102
}
102
{ACAD_REACTORS
330
EF
102
}
330
EF
100
AcDbVisualStyle
  2
Hidden
 70
     6
 71
     1
 72
     2
 73
     2
 90
        0
 40
-0.6
 41
-30.0
 62
     5
 63
     7
 74
     2
 91
        2
 64
     7
 65
   257
 75
     2
175
     1
 42
40.0
 92
        0
 66
   257
 43
1.0
 76
     1
 77
     6
 78
     2
 67
     7
 79
     3
170
     0
171
     0
290
     0
174
     0
 93
        1
 44
0.0
173
     0
291
     0
 45
0.0
1001
ACAD
1000
AcDbSavedByObjectVersion
1070
     0
  0
VISUALSTYLE
  5
1E4
102
{ACAD_XDICTIONARY
360
1498
102
}
102
{ACAD_REACTORS
330
EF
102
}
330
EF
100
AcDbVisualStyle
  2
JitterOff
 70
    20
 71
     2
 72
     2
 73
     0
 90
        0
 40
-0.6
 41
-30.0
 62
     5
 63
     7
 74
     1
 91
        4
 64
     7
 65
   257
 75
     1
175
     1
 42
1.0
 92
       10
 66
     7
 43
1.0
 76
     1
 77
     6
 78
     2
 67
     7
 79
     5
170
     0
171
     0
290
     0
174
     0
 93
        1
 44
0.0
173
     0
291
     1
 45
0.0
1001
ACAD
1000
AcDbSavedByObjectVersion
1070
     0
  0
VISUALSTYLE
  5
FD
102
{ACAD_XDICTIONARY
360
148E
102
}
102
{ACAD_REACTORS
330
EF
102
}
330
EF
100
AcDbVisualStyle
  2
Linepattern
 70
    14
 71
     2
 72
     2
 73
     1
 90
        0
 40
-0.6
 41
-30.0
 62
     5
 63
     7
 74
     1
 91
        4
 64
     7
 65
   257
 75
     7
175
     7
 42
1.0
 92
        8
 66
     7
 43
1.0
 76
     1
 77
     6
 78
     2
 67
     7
 79
     5
170
     0
171
     0
290
     0
174
     0
 93
        1
 44
0.0
173
     0
291
     1
 45
0.0
1001
ACAD
1000
AcDbSavedByObjectVersion
1070
     0
  0
VISUALSTYLE
  5
1E5
102
{ACAD_XDICTIONARY
360
149A
102
}
102
{ACAD_REACTORS
330
EF
102
}
330
EF
100
AcDbVisualStyle
  2
OverhangOff
 70
    21
 71
     2
 72
     2
 73
     0
 90
        0
 40
-0.6
 41
-30.0
 62
     5
 63
     7
 74
     1
 91
        4
 64
     7
 65
   257
 75
     1
175
     1
 42
1.0
 92
        9
 66
     7
 43
1.0
 76
     1
 77
     6
 78
     2
 67
     7
 79
     5
170
     0
171
     0
290
     0
174
     0
 93
        1
 44
0.0
173
     0
291
     1
 45
0.0
1001
ACAD
1000
AcDbSavedByObjectVersion
1070
     0
  0
VISUALSTYLE
  5
F9
102
{ACAD_XDICTIONARY
360
1486
102
}
102
{ACAD_REACTORS
330
EF
102
}
330
EF
100
AcDbVisualStyle
  2
Realistic
 70
     8
 71
     2
 72
     2
 73
     0
 90
        2
 40
-0.6
 41
30.0
 62
     5
 63
     7
 74
     0
 91
        0
 64
     7
 65
   257
 75
     1
175
     1
 42
1.0
 92
        8
 66
   257
 43
1.0
 76
     1
 77
     6
 78
     2
 67
     7
 79
     3
170
     0
171
     0
290
     0
174
     0
 93
       13
 44
0.0
173
     0
291
     0
 45
0.0
1001
ACAD
1000
AcDbSavedByObjectVersion
1070
     0
  0
VISUALSTYLE
  5
1F3
102
{ACAD_XDICTIONARY
360
14A6
102
}
102
{ACAD_REACTORS
330
EF
102
}
330
EF
100
AcDbVisualStyle
  2
Shaded
 70
    27
 71
     2
 72
     2
 73
     1
 90
        2
 40
-0.6
 41
30.0
 62
     5
 63
     7
 74
     0
 91
        4
 64
     7
 65
   257
 75
     1
175
     1
 42
1.0
 92
        8
 66
   257
 43
1.0
 76
     1
 77
     6
 78
     2
 67
     8
 79
     3
170
     0
171
     0
290
     0
174
     0
 93
        5
 44
0.0
173
     0
291
     0
 45
0.0
1001
ACAD
1000
AcDbSavedByObjectVersion
1070
     0
  0
VISUALSTYLE
  5
1F2
102
{ACAD_XDICTIONARY
360
14A4
102
}
102
{ACAD_REACTORS
330
EF
102
}
330
EF
100
AcDbVisualStyle
  2
Shaded with edges
 70
    26
 71
     2
 72
     2
 73
     1
 90
        2
 40
-0.6
 41
30.0
 62
     5
 63
     7
 74
     1
 91
        2
 64
     7
 65
   257
 75
     2
175
     1
 42
1.0
 92
        8
 66
   257
 43
1.0
 76
     1
 77
     6
 78
     2
 67
     7
 79
     3
170
     0
171
     0
290
     0
174
     0
 93
        5
 44
0.0
173
     0
291
     0
 45
0.0
1001
ACAD
1000
AcDbSavedByObjectVersion
1070
     0
  0
VISUALSTYLE
  5
1EF
102
{ACAD_XDICTIONARY
360
149E
102
}
102
{ACAD_REACTORS
330
EF
102
}
330
EF
100
AcDbVisualStyle
  2
Shades of Gray
 70
    23
 71
     2
 72
     2
 73
     3
 90
        0
 40
-0.6
 41
-30.0
 62
     5
 63
     7
 74
     2
 91
        2
 64
     7
 65
     7
 75
     1
175
     1
 42
40.0
 92
        8
 66
     7
 43
1.0
 76
     1
 77
     6
 78
     2
 67
     7
 79
     3
170
     0
171
     0
290
     0
174
     0
 93
        1
 44
0.0
173
     0
291
     0
 45
0.0
1001
ACAD
1000
AcDbSavedByObjectVersion
1070
     0
  0
VISUALSTYLE
  5
1F0
102
{ACAD_XDICTIONARY
360
14A0
102
}
102
{ACAD_REACTORS
330
EF
102
}
330
EF
100
AcDbVisualStyle
  2
Sketchy
 70
    24
 71
     1
 72
     2
 73
     2
 90
        0
 40
-0.6
 41
-30.0
 62
     5
 63
     7
 74
     2
 91
        2
 64
     7
 65
     7
 75
     1
175
     1
 42
40.0
 92
       11
 66
     7
 43
1.0
 76
     1
 77
     6
 78
     2
 67
     7
 79
     6
170
     0
171
     0
290
     0
174
     0
 93
        1
 44
0.0
173
     0
291
     0
 45
0.0
1001
ACAD
1000
AcDbSavedByObjectVersion
1070
     0
  0
VISUALSTYLE
  5
FC
102
{ACAD_XDICTIONARY
360
148C
102
}
102
{ACAD_REACTORS
330
EF
102
}
330
EF
100
AcDbVisualStyle
  2
Thicken
 70
    13
 71
     2
 72
     2
 73
     1
 90
        0
 40
-0.6
 41
-30.0
 62
     5
 63
     7
 74
     1
 91
        4
 64
     7
 65
   257
 75
     1
175
     1
 42
1.0
 92
       12
 66
     7
 43
1.0
 76
     1
 77
     6
 78
     2
 67
     7
 79
     5
170
     0
171
     0
290
     0
174
     0
 93
        1
 44
0.0
173
     0
291
     1
 45
0.0
1001
ACAD
1000
AcDbSavedByObjectVersion
1070
     0
  0
VISUALSTYLE
  5
F6
102
{ACAD_XDICTIONARY
360
1480
102
}
102
{ACAD_REACTORS
330
EF
102
}
330
EF
100
AcDbVisualStyle
  2
Wireframe
 70
     5
 71
     0
 72
     2
 73
     0
 90
        0
 40
-0.6
 41
-30.0
 62
     5
 63
     7
 74
     1
 91
        4
 64
     7
 65
   257
 75
     1
175
     1
 42
1.0
 92
        0
 66
   257
 43
1.0
 76
     1
 77
     6
 78
     2
 67
     7
 79
     3
170
     0
171
     0
290
     0
174
     0
 93
        1
 44
0.0
173
     0
291
     0
 45
0.0
1001
ACAD
1000
AcDbSavedByObjectVersion
1070
     0
  0
VISUALSTYLE
  5
1F1
102
{ACAD_XDICTIONARY
360
14A2
102
}
102
{ACAD_REACTORS
330
EF
102
}
330
EF
100
AcDbVisualStyle
  2
X-Ray
 70
    25
 71
     2
 72
     2
 73
     1
 90
        1
 40
0.5
 41
-30.0
 62
     5
 63
     7
 74
     1
 91
        0
 64
     7
 65
   257
 75
     1
175
     1
 42
1.0
 92
        8
 66
     7
 43
1.0
 76
     1
 77
     6
 78
     2
 67
     7
 79
     3
170
     0
171
     0
290
     0
174
     0
 93
       13
 44
0.0
173
     0
291
     0
 45
0.0
1001
ACAD
1000
AcDbSavedByObjectVersion
1070
     0
  0
DICTIONARYVAR
  5
146
102
{ACAD_REACTORS
330
5E
102
}
330
5E
100
DictionaryVariables
280
     0
  1
1:1
  0
DICTIONARYVAR
  5
259
102
{ACAD_REACTORS
330
5E
102
}
330
5E
100
DictionaryVariables
280
     0
  1
3.500000
  0
DICTIONARYVAR
  5
25A
102
{ACAD_REACTORS
330
5E
102
}
330
5E
100
DictionaryVariables
280
     0
  1
acadiso.lin
  0
DICTIONARYVAR
  5
145
102
{ACAD_REACTORS
330
5E
102
}
330
5E
100
DictionaryVariables
280
     0
  1
STANDARD
  0
DICTIONARYVAR
  5
84
102
{ACAD_REACTORS
330
5E
102
}
330
5E
100
DictionaryVariables
280
     0
  1
STANDARD
  0
DICTIONARYVAR
  5
227
102
{ACAD_REACTORS
330
5E
102
}
330
5E
100
DictionaryVariables
280
     0
  1
Metric50
  0
DICTIONARYVAR
  5
228
102
{ACAD_REACTORS
330
5E
102
}
330
5E
100
DictionaryVariables
280
     0
  1
Metric50
  0
DICTIONARYVAR
  5
5F
102
{ACAD_REACTORS
330
5E
102
}
330
5E
100
DictionaryVariables
280
     0
  1
2
  0
DICTIONARYVAR
  5
63
102
{ACAD_REACTORS
330
5E
102
}
330
5E
100
DictionaryVariables
280
     0
  1
1
  0
DICTIONARYVAR
  5
145E
102
{ACAD_REACTORS
330
5E
102
}
330
5E
100
DictionaryVariables
280
     0
  1
0
  0
DICTIONARYVAR
  5
1AE
102
{ACAD_REACTORS
330
5E
102
}
330
5E
100
DictionaryVariables
280
     0
  1
0
  0
DICTIONARYVAR
  5
1AF
102
{ACAD_REACTORS
330
5E
102
}
330
5E
100
DictionaryVariables
280
     0
  1
0
  0
DICTIONARYVAR
  5
145C
102
{ACAD_REACTORS
330
5E
102
}
330
5E
100
DictionaryVariables
280
     0
  1
2
  0
DICTIONARYVAR
  5
145B
102
{ACAD_REACTORS
330
5E
102
}
330
5E
100
DictionaryVariables
280
     0
  1
1
  0
DICTIONARYVAR
  5
1465
102
{ACAD_REACTORS
330
5E
102
}
330
5E
100
DictionaryVariables
280
     0
  1
80.000000
  0
DICTIONARYVAR
  5
1464
102
{ACAD_REACTORS
330
5E
102
}
330
5E
100
DictionaryVariables
280
     0
  1
5.000000
  0
DICTIONARYVAR
  5
145D
102
{ACAD_REACTORS
330
5E
102
}
330
5E
100
DictionaryVariables
280
     0
  1
127
  0
DICTIONARYVAR
  5
1466
102
{ACAD_REACTORS
330
5E
102
}
330
5E
100
DictionaryVariables
280
     0
  1
2
  0
DICTIONARY
  5
14AA
330
21C
100
AcDbDictionary
280
     1
281
     1
  3
ACAD_XREC_ROUNDTRIP
360
14AB
  0
DICTIONARY
  5
146D
330
D3
100
AcDbDictionary
280
     1
281
     1
  3
ACAD_XREC_ROUNDTRIP
360
146E
  0
DICTIONARY
  5
146F
330
D7
100
AcDbDictionary
280
     1
281
     1
  3
ACAD_XREC_ROUNDTRIP
360
1470
  0
DICTIONARY
  5
146A
330
22
100
AcDbDictionary
280
     1
281
     1
  3
ACAD_XREC_ROUNDTRIP
360
146B
  0
DICTIONARY
  5
1F9
330
ED
100
AcDbDictionary
280
     1
281
     1
  3
ACAD_XREC_ROUNDTRIP
360
1472
  3
FBXASSET
360
1FA
  0
DICTIONARY
  5
1F7
330
EC
100
AcDbDictionary
280
     1
281
     1
  3
ACAD_XREC_ROUNDTRIP
360
1471
  3
FBXASSET
360
1F8
  0
DICTIONARY
  5
173
330
EE
100
AcDbDictionary
280
     1
281
     1
  3
ACAD_XREC_ROUNDTRIP
360
1473
  3
BUMPTILE
360
175
  3
DIFFUSETILE
360
174
  3
FBXASSET
360
1FB
  3
OPACITYTILE
360
176
  3
REFLECTIONTILE
360
177
  0
DICTIONARY
  5
1496
330
13B
100
AcDbDictionary
280
     1
281
     1
  3
ACAD_XREC_ROUNDTRIP
360
1497
  0
DICTIONARY
  5
1494
330
12E
100
AcDbDictionary
280
     1
281
     1
  3
ACAD_XREC_ROUNDTRIP
360
1495
  0
XRECORD
  5
1458
102
{ACAD_REACTORS
330
1457
102
}
330
1457
100
AcDbXrecord
280
     1
 70
     2
 71
     3
 72
     0
  0
DICTIONARY
  5
14A8
330
21A
100
AcDbDictionary
280
     1
281
     1
  3
ACAD_XREC_ROUNDTRIP
360
14A9
  0
DICTIONARY
  5
162
330
7F
100
AcDbDictionary
280
     1
281
     1
  3
ACAD_ROUNDTRIP_2008_TABLESTYLE_CELLSTYLEMAP
360
1467
  3
ACAD_XREC_ROUNDTRIP
360
146C
  0
DICTIONARY
  5
147E
330
F5
100
AcDbDictionary
280
     1
281
     1
  3
ACAD_XREC_ROUNDTRIP
360
147F
  0
DICTIONARY
  5
147C
330
F4
100
AcDbDictionary
280
     1
281
     1
  3
ACAD_XREC_ROUNDTRIP
360
147D
  0
DICTIONARY
  5
148A
330
FB
100
AcDbDictionary
280
     1
281
     1
  3
ACAD_XREC_ROUNDTRIP
360
148B
  0
DICTIONARY
  5
1492
330
FF
100
AcDbDictionary
280
     1
281
     1
  3
ACAD_XREC_ROUNDTRIP
360
1493
  0
DICTIONARY
  5
1484
330
F8
100
AcDbDictionary
280
     1
281
     1
  3
ACAD_XREC_ROUNDTRIP
360
1485
  0
DICTIONARY
  5
1488
330
FA
100
AcDbDictionary
280
     1
281
     1
  3
ACAD_XREC_ROUNDTRIP
360
1489
  0
DICTIONARY
  5
149C
330
1E6
100
AcDbDictionary
280
     1
281
     1
  3
ACAD_XREC_ROUNDTRIP
360
149D
  0
DICTIONARY
  5
1490
330
FE
100
AcDbDictionary
280
     1
281
     1
  3
ACAD_XREC_ROUNDTRIP
360
1491
  0
DICTIONARY
  5
1474
330
F0
100
AcDbDictionary
280
     1
281
     1
  3
ACAD_XREC_ROUNDTRIP
360
1475
  0
DICTIONARY
  5
1476
330
F1
100
AcDbDictionary
280
     1
281
     1
  3
ACAD_XREC_ROUNDTRIP
360
1477
  0
DICTIONARY
  5
1478
330
F2
100
AcDbDictionary
280
     1
281
     1
  3
ACAD_XREC_ROUNDTRIP
360
1479
  0
DICTIONARY
  5
147A
330
F3
100
AcDbDictionary
280
     1
281
     1
  3
ACAD_XREC_ROUNDTRIP
360
147B
  0
DICTIONARY
  5
1482
330
F7
100
AcDbDictionary
280
     1
281
     1
  3
ACAD_XREC_ROUNDTRIP
360
1483
  0
DICTIONARY
  5
1498
330
1E4
100
AcDbDictionary
280
     1
281
     1
  3
ACAD_XREC_ROUNDTRIP
360
1499
  0
DICTIONARY
  5
148E
330
FD
100
AcDbDictionary
280
     1
281
     1
  3
ACAD_XREC_ROUNDTRIP
360
148F
  0
DICTIONARY
  5
149A
330
1E5
100
AcDbDictionary
280
     1
281
     1
  3
ACAD_XREC_ROUNDTRIP
360
149B
  0
DICTIONARY
  5
1486
330
F9
100
AcDbDictionary
280
     1
281
     1
  3
ACAD_XREC_ROUNDTRIP
360
1487
  0
DICTIONARY
  5
14A6
330
1F3
100
AcDbDictionary
280
     1
281
     1
  3
ACAD_XREC_ROUNDTRIP
360
14A7
  0
DICTIONARY
  5
14A4
330
1F2
100
AcDbDictionary
280
     1
281
     1
  3
ACAD_XREC_ROUNDTRIP
360
14A5
  0
DICTIONARY
  5
149E
330
1EF
100
AcDbDictionary
280
     1
281
     1
  3
ACAD_XREC_ROUNDTRIP
360
149F
  0
DICTIONARY
  5
14A0
330
1F0
100
AcDbDictionary
280
     1
281
     1
  3
ACAD_XREC_ROUNDTRIP
360
14A1
  0
DICTIONARY
  5
148C
330
FC
100
AcDbDictionary
280
     1
281
     1
  3
ACAD_XREC_ROUNDTRIP
360
148D
  0
DICTIONARY
  5
1480
330
F6
100
AcDbDictionary
280
     1
281
     1
  3
ACAD_XREC_ROUNDTRIP
360
1481
  0
DICTIONARY
  5
14A2
330
1F1
100
AcDbDictionary
280
     1
281
     1
  3
ACAD_XREC_ROUNDTRIP
360
14A3
  0
XRECORD
  5
14AB
102
{ACAD_REACTORS
330
14AA
102
}
330
14AA
100
AcDbXrecord
280
     1
102
DISPLAYNAME
  1
Metric50
102
FLAGS
 90
        0
  0
XRECORD
  5
146E
102
{ACAD_REACTORS
330
146D
102
}
330
146D
100
AcDbXrecord
280
     1
102
SHADEPLOT
 70
     0
102
SHADEPLOTRESLEVEL
 70
     2
102
SHADEPLOTCUSTOMDPI
 70
   300
  0
XRECORD
  5
1470
102
{ACAD_REACTORS
330
146F
102
}
330
146F
100
AcDbXrecord
280
     1
102
SHADEPLOT
 70
     0
102
SHADEPLOTRESLEVEL
 70
     2
102
SHADEPLOTCUSTOMDPI
 70
   300
  0
XRECORD
  5
146B
102
{ACAD_REACTORS
330
146A
102
}
330
146A
100
AcDbXrecord
280
     1
102
SHADEPLOT
 70
     0
102
SHADEPLOTRESLEVEL
 70
     2
102
SHADEPLOTCUSTOMDPI
 70
   300
  0
XRECORD
  5
1472
102
{ACAD_REACTORS
330
1F9
102
}
330
1F9
100
AcDbXrecord
280
     1
102
MATERIAL
148
0.0
149
0.0
149
0.0
 93
        0
 94
       63
282
     0
 72
     1
 77
     1
171
     1
175
     1
179
     1
273
     0
  0
XRECORD
  5
1FA
102
{ACAD_REACTORS
330
1F9
102
}
330
1F9
100
AcDbXrecord
280
     1
 70
     1
 90
429727718
  1
D62C5603-E3A1-4AEA-B7FB-FE5D8D0755AF
310
504B03040A0000080000CC70623B3DEE336E79000000790000001B0000006175746F6465736B2D64657369676E2D7061636B6167652E786D6C3C3F786D6C2076657273696F6E3D22312E302220656E636F64696E673D227574662D3822203F3E3C666F726D6174733E3C666F726D61743E687474703A2F2F736368656D612E
310
6175746F6465736B2E636F6D2F64657369676E2D7061636B6167652F323030393C2F666F726D61743E3C2F666F726D6174733E504B0304140006080800CC70623BD486FD9CA0000000F4000000130000005B436F6E74656E745F54797065735D2E786D6C7D8EC10E82300C865F65E91D8A1E8C310C0EEA1BF002731658846E
310
D98AC1B77784ABF1D8FE5FBFBF75BBCE937A534CCEB38643598122B6FEE978D0B0485F9C41B54DDD7D022595594E1A469170414C76A4D9A4D207E29CF43ECE46F218070CC6BECC4078ACAA135ACF422C856C0E68EA1BF5669944DDD7BCDE7B1F8E415D77AECB980613C2E4AC91FC167A2B244592486606FC29C8FD7F045B9A
310
EF7053A7E60B504B0304140006080800CC70623B853B8169EB0000007C01000008000000636F72652E786D6C8D90416EC3201045AF62CDB6C206821CC7C244919D9CA01740401C94182C03558F5F9C3852BBEB6A467FFE9B197D7EFC9E1EC5975982F5AE035262288C535E5B377690E21535501C055FBC8FBF6C503839990E
310
5619041F179FE64D52DE45E362569DD7661365082642A11EB9E920A89B99642953CC8E702F67A9EE7234257977194EC9EAE275C4EABCCF5EAD5940D4AC6F0E35A568B8F43562CD7046CD199FD07E60174276A7BE677B5EADB0E0D14EEFFB6A31321A0D82627C4084204C3F096B71DD52F6819B16635EADF63F509AF53FA164
310
5DDCD1EDDD17164090FCC8732078B56691CB33A85CD7DCC40F504B0304140006080800CC70623B55019EA25F0000007C00000007000000636E782E786D6C4DCB3B0E80201045D1AD90E915ED2CF8AC45050C11660C8261F98AB1B07AC9C97D42D718D865D3E909258CFD00CCE24AC6E326A164D74DC0B4128928FF32603847
310
2BA13128B1252AC747C6BAB984FC68F0B87FE8960A5C09FE86CFB69FBA01504B0304140006080800CC70623BDBABAAF470010000D40300000C0000006662782F636F72652E786D6CC553D16E823014FD95A6AF4B694182CC941A83FA05FB810A9511A125A5257EFE2E82712ECEB8A7F100CD39F7F69E734AF9FADC366850B6
310
AF8DCE7018308C942E4C59EB2AC3DE1D498AD15A706B8CFB56869196ADCAF00863C12B6B7C374385D14E6907A836A59A41D9F7CA615434B0C8705F7CAA5606D23BA8E84F41278B93AC54100640439DE0BDB320004D43C63716C7C399D30917DCFBBA9CD9BA8469F5B156168B24CED3F7248AC8769F27244EB73B92EED8862C
310
B7F13E0C179B3C8F979C8ECD82BBBABDAA2BAC924E9558448CBD9330242CFA08E3154B5651FCC6D215639C8EE5774DBE2B5F6CF2B5768B68963BB5F5588420E442FC700B1139D4CB01F450C1E918227C2E09DF070D8140C84E1E9AAB8F1340832A9CB13130A5F1376A908D57309505ECF2A0DF179C4E9D30F5B239B87E3823
310
7A79C6F31DE1A8A5AEC08474B03C7837EAE4938639B44E5932B833D2C6B6B279CDC613877FA26EE21F4A2A4C63EC7F29A2F301D1F9F7A0E37D145F504B0304140006080800CC70623B9C113CC27E0000009D0000000B0000006662782F636E782E786D6C4DCCDF0A83201C86E15B91DFB94BFB330DD428C8FB886521330DA7
310
6397BF1A1DECE883878F57749FCDA1B7892F1BBC047A23808C7F84D9FA55424E0BE6803A256208E9EF06C84F9B91703228B1C690F78B66B34CD9A5439DF5CF0BFBF65E35BCA1B8D6A5C6F540381E886698B5741C695F9503EBA150A2F8958E3DC3EA0B504B0304140006080800CC70623B7DF2F77C2A010000120200003100
310
00006662782F41393633353835312D344632462D344230382D423046372D3739314545314133324237412F636F72652E786D6C8D51DB8EC22014FC15C2939B0D2DB4B45643319AE817EC0F6041255A68B86CFCFC856D4D76DF7CE190393373060EDB3DC707F856CE6B6B7A480A0C81328395DA5C7B18C3057510EC3873D686
310
3F34088C18550F330C39BB3A1BA7051AAC09CA84841A2BD5020AEF55806078A44B0FFD7053A328440C89E1EFC52486BBB8AA8214A99D789CF9E05200300FC927E4FB4D5B375D43103D5527440FB843077C5AA3F5861C8F645F5787F59E95B390B318B55CE45AA638FAA2957BD7248B390B7A7CC51F9C124149C82B8C378810
310
84AB2F42B7B8DD56F413775B8C5999E9FF4471926F8AA236A1AE96B8B3CC434E5839373893369E1FAF30EA395917409EB7F26AF8801C171837A4A6AC9C89E9F9C9B1A58BA30FD6A5EF5DDDCF894B9AD9B6A59C957943A9FCAE2FD5BC4DFE03504B0304140006080800CC70623BAD7543B64E01000033030000300000006662
310
782F41393633353835312D344632462D344230382D423046372D3739314545314133324237412F636E782E786D6CD593CD6EC32010845F0571AD6CE3D48AD20813A9873E410FBD12D82434182C7EAAE6EDBB2424CD25871E7B41D6EC30B3FA84F9E67BB2E40B4234DE8DB46F1925E094D7C6ED479AD3AE5951B2113C789FEE
310
6C943839C1488B4C05DF079FE72A69D8C96C13AAD6B8631503449F83828872B949AC57D26200B826A308D316B4064D6E46FCDA41C05550DC9E483A00797BFD207EFB092A45DE9514C1BBD22178396BD39D891265658C238DEA00936C654E5E433CB65A26D9F6EDB5EBC14EBF49A45CB856E66048291F6939A9A81BB5C89177
310
38143CA680F4AA299D66A042CEB3354A2684DC9D8D178FE0D9B8B41CAAD720F880EE7EF93C0C18769E099ECC04D5A102C8049A8A05632F4DDF376CF1DE0F6BB65C2F8627B65A33C6BB62177CEBBDAD973006829F89F22E814B54F4BC2BE347F8AA8F681390B50FA73F804400B5F542E796F19FF974E7F78DB802FE05E20750
310
4B0304140006080800CC70623BE75B7789680500003C100000340000006662782F41393633353835312D344632462D344230382D423046372D3739314545314133324237412F6F626A656374732E786D6CAD575B8F9B3818FD2B887D06C22499CB8AA1CA655245D5B455A356FB305264C061D8018C6C3393D95FBFC7600890
310
A4CD5EF210B0B1BFEBF98E3F7B1FF6596ABC522E1296DF9BAE3D320D9A872C4AF2F8DE2CE5CEBA358D0FBEC719939D65A691938CDE9B6ADAF4BD98B3B2D05311DD91329583D9D5FC0F438434A7A611A644887B5384CF34233629258BA878B12322891DEFF6B66BD70BFB62634E8AE781D082709A4B588AF91C528CDA28B73F
310
1C998EEF39EABBEFA97FBD6A7C7E9553F9D3D79FE442923C3C523610337627CB87ABE99D359D4CC6D6E4FACAB5E6ABF9D2726FC6A3C5F56271377BB88362213924694B38DD99FE47C48627A1E7D49F5A8BB5E1A74C0A599ED3B0F21F1E56366B89112D681E218F0915D0D6F17AD41FBA2A369DCF6335D62ABBD39779D5DDD1
310
11D4D8DE3CBB96B2E04FB8202E41051754A1AA8E8F76B4C6DFE810B580B1547F4B84911149794252234D024EF8BBE963A95AE27B3D310A9D5C215C7960FAEE415ED75694C6AFB17BCACA5D99A60A9AA65F217B0BFC53292ACB92BF283FAD0D3621576592CB5BED907C2FA8E9DF794E35E97BEA31BED21FEB401ABB94C44839
310
DCACBF0E1C5DA8DA5B2F4DFFD32AD86F543D9E565E7056502E157C00AD2671CD534549AB752FCA9CDA00677A313F04E51B22FF19E57B300579E3C97EB29F682D92935CEC18CF901B7B54FD8C51F362B56FC72FE0B3C1EAE335EDCCBF5AEC39ADB17DC238973F804BA5E6F6BFE7AF1FB32E523BE9F3BD571418E3631DCA4D48
310
5250CF639223210A9446CA30052EDF057BD35F8329C1ECD84552BF0DC8D18BE7BCE23BFE6BD960AB4A7DE79923A103BEBD80F911CBAA2C60DB19B01CF164A5583B772EE6D3FFA56666CBCDA74DC97724A48F9A58967497E489C4D979006FD7A05E227A1EBDD0F737C623387A9C844D3709995625106D157315F8B8392CD4E0
310
A0B9A720C4BE9829CEF37EA1E13111214D53925356365ADA634861B52519DD27A00AEB808EAF0628E6F435519D446F45CF2C9CF5214F0A15B2F6D06B79DA3EE3CBF7F56780D2F4E7EF73A0F5E5B02A38D07DC852C6B7C1FBB6664213E0C39E3EBA7FF4E1AD23EA2829407C85E586727488B751B2DB9502BC7B228A3FD68B6E
310
A65A22397E690AA8D158D7E404EC8CDA235CC3B7D1898680131CEC2CDF2638C65196279577750F15884AEE19F94199155B92B13297978469D4F8D358DF0AEF7631E28DC8F0D9F437D5D39A83B2231A1D52D543813A824EF8D44BCFF2FA6A31BD1E8DAD87F1CCB526B3879935BF59CDADD5C37479BB1CDD4CA7B3556B516589
310
EF352754B706114D9C885EC9131DE6EFEB43D99AFE2391C2F958179413D7CFEF6B1B6DB1E7600F00DE6E5C67454A339A4BA2E0FBA85ED26F045D454F463DBFCE484C2F90F2E5E3666003662ED8F755951A7D1BECD5B30B550B2785C8E7320B7292A4838DDA71BBC863ED7613CAF659337A3354231D4FF4A182A54904C2898C
310
98B28C4AD0CE056CCF332A80986E571EE9DBC305BB5FEB7E509220A58D25CF042D712A806AC0AD0C657FDEF80D2D9CEAA2EE4D1C76F60BFE74219A06527D6F82DF6412526107381E55E353090704D085B52408A8913C4ED159D79BDA71BB4BC506F4831350EB6F975CD22D69BF7AC49B91A2C0A9DDA3D5CA36AD20FC478E37
310
E61844E2352865EBCB61A275A65283CAAA9DD27703B4102F5AF51EF5F573B75CBB5AD38BC845F7A49F82A0966A49C2E3EA5EA0ECD326CD965F1DB402C6FA8B51A4658C5C5E2EC9E214602E55810345408596591009A82E7E7FFACA19EEA299B14A0081A705CB3296EBC14CDF658DCD336EA6D1136881AAEB87B81AB9EE53D5
310
F5EB8BC8362082DA24122F98680A4E7930C01A0079749CEA14382A0783E5EBA5A10F8C098456A03D6A4AEB6BB881E2513747552A5DB22C7EDAF83BD5528081A365F7FF06504B0304140006080000CC70623B000000000000000000000000350000006662782F41393633353835312D344632462D344230382D423046372D37
310
39314545314133324237412F76657274696365732E62696E504B0304140006080800CC70623BF270F1330600000004000000360000006662782F41393633353835312D344632462D344230382D423046372D3739314545314133324237412F747269616E676C65732E62696E636660600000504B0304140006080000CC7062
310
3B000000000000000000000000370000006662782F41393633353835312D344632462D344230382D423046372D3739314545314133324237412F617474726962757465732E62696E504B0304140006080800CC70623B08DA0BD19000000041010000360000006662782F41393633353835312D344632462D344230382D4230
310
46372D3739314545314133324237412F6469726563746F72792E786D6C858F410AC3201045AF22B36F53E9A60B35CBEEBAE80D244E44489C6234F4F835464A48035D0DF398FF9F8AF63D0E6CC63039F212F8F9020C7D47C6792B21C5FE7403D62A1188E2E60C98D7234A5830286103A55745067B9D86B8A3CF9C7F90C11DE6
310
07FB144396D7B6A82D282E9A152AD114D5EF2CB866EEE831B8EEA07A7BB5A8D7D61A2BAAEB7FD5F70921FF497D00504B0304140006080800CC70623BEDD1DC58FD000000A00100003B0000006662782F41393633353835312D344632462D344230382D423046372D3739314545314133324237412F7265736F75726365732F
310
636F72652E786D6C8D504B6E833010BD0A9A6D65B00922041947112427E8052C33A156828DFCA97AFC9A40A576D7CDCCE87D344F8F9FBFE667F689CE6B6B3A6039850C8DB2A336530731DC4903D95970676DF82583CCC8193B5861107C72362E3BA4AC096842428D1D7107A5F7182053CF7474E0D507CE32973124857FE48B
310
540F3961CEF244279DE03EB81420DB9EAC1384436FA353E879B1B182C7A8C75DA3C7F453DF353A1075D537A7BA6464B8F535A99AE14A9A2BBD90E350DD183B5CFABE3AF262350B1EF4FC9351399401471025A527C218A1E53BAB5A5AB765F5469B96525EACF23FA6B88CFF34456DC2A1DCE36E360F82A5202F42F062ED2BAD
310
579969AFDD8A6F504B010214000A0000080000CC70623B3DEE336E79000000790000001B00000000000000000000000000000000006175746F6465736B2D64657369676E2D7061636B6167652E786D6C504B01021400140006080800CC70623BD486FD9CA0000000F40000001300000000000000000000000000B20000005B
310
436F6E74656E745F54797065735D2E786D6C504B01021400140006080800CC70623B853B8169EB0000007C010000080000000000000000000000000083010000636F72652E786D6C504B01021400140006080800CC70623B55019EA25F0000007C000000070000000000000000000000000094020000636E782E786D6C504B
310
01021400140006080800CC70623BDBABAAF470010000D40300000C00000000000000000000000000180300006662782F636F72652E786D6C504B01021400140006080800CC70623B9C113CC27E0000009D0000000B00000000000000000000000000B20400006662782F636E782E786D6C504B01021400140006080800CC70
310
623B7DF2F77C2A010000120200003100000000000000000000000000590500006662782F41393633353835312D344632462D344230382D423046372D3739314545314133324237412F636F72652E786D6C504B01021400140006080800CC70623BAD7543B64E010000330300003000000000000000000000000000D2060000
310
6662782F41393633353835312D344632462D344230382D423046372D3739314545314133324237412F636E782E786D6C504B01021400140006080800CC70623BE75B7789680500003C10000034000000000000000000000000006E0800006662782F41393633353835312D344632462D344230382D423046372D3739314545
310
314133324237412F6F626A656374732E786D6C504B01021400140006080000CC70623B0000000000000000000000003500000000000000000000000000280E00006662782F41393633353835312D344632462D344230382D423046372D3739314545314133324237412F76657274696365732E62696E504B01021400140006
310
080800CC70623BF270F133060000000400000036000000000000000000000000007B0E00006662782F41393633353835312D344632462D344230382D423046372D3739314545314133324237412F747269616E676C65732E62696E504B01021400140006080000CC70623B0000000000000000000000003700000000000000
310
000000000000D50E00006662782F41393633353835312D344632462D344230382D423046372D3739314545314133324237412F617474726962757465732E62696E504B01021400140006080800CC70623B08DA0BD1900000004101000036000000000000000000000000002A0F00006662782F41393633353835312D344632
310
462D344230382D423046372D3739314545314133324237412F6469726563746F72792E786D6C504B01021400140006080800CC70623BEDD1DC58FD000000A00100003B000000000000000000000000000E1000006662782F41393633353835312D344632462D344230382D423046372D3739314545314133324237412F7265
310
736F75726365732F636F72652E786D6C504B0506000000000E000E0080040000641100000000
  0
XRECORD
  5
1471
102
{ACAD_REACTORS
330
1F7
102
}
330
1F7
100
AcDbXrecord
280
     1
102
MATERIAL
148
0.0
149
0.0
149
0.0
 93
        0
 94
       63
282
     0
 72
     1
 77
     1
171
     1
175
     1
179
     1
273
     0
  0
XRECORD
  5
1F8
102
{ACAD_REACTORS
330
1F7
102
}
330
1F7
100
AcDbXrecord
280
     1
 70
     1
 90
429727718
  1
30362254-06B7-45E0-A893-8CFA70E3D6BC
310
504B03040A0000080000CC70623B3DEE336E79000000790000001B0000006175746F6465736B2D64657369676E2D7061636B6167652E786D6C3C3F786D6C2076657273696F6E3D22312E302220656E636F64696E673D227574662D3822203F3E3C666F726D6174733E3C666F726D61743E687474703A2F2F736368656D612E
310
6175746F6465736B2E636F6D2F64657369676E2D7061636B6167652F323030393C2F666F726D61743E3C2F666F726D6174733E504B0304140006080800CC70623BD486FD9CA0000000F4000000130000005B436F6E74656E745F54797065735D2E786D6C7D8EC10E82300C865F65E91D8A1E8C310C0EEA1BF002731658846E
310
D98AC1B77784ABF1D8FE5FBFBF75BBCE937A534CCEB38643598122B6FEE978D0B0485F9C41B54DDD7D022595594E1A469170414C76A4D9A4D207E29CF43ECE46F218070CC6BECC4078ACAA135ACF422C856C0E68EA1BF5669944DDD7BCDE7B1F8E415D77AECB980613C2E4AC91FC167A2B244592486606FC29C8FD7F045B9A
310
EF7053A7E60B504B0304140006080800CC70623B1EC5D7A3EB0000007C01000008000000636F72652E786D6C8D90416EC3201045AF82665B6103C6756C6122AB4D4ED00B204C5C94182C03558F5F9C3852BBEB6A467FFE9B197D71FC9E6FE8CBACC17AD7032D0820E3B41FAD9B7A48F1820F808E52ACDEC75F36404ECDA687
310
4D0629A6D5A76597B477D1B89855E747B38B2A041301E95B6E7A08FAD3CCAA50296647B8168BD2573599823EBB0CA76447F43862C7BCCF5EAC59410E4DDD9C7973C2755553CCCFA4C603E3040F1565ED3B1FDE4E432BCA0D9622DAF9795FAF464533826484B498524CD807E51D79ED187F21878E10516EF63F505AC67F42C9
310
BA58B1FDDD071640D2FCC87D2045B96591CB3DA85CB7DCE40F504B0304140006080800CC70623B55019EA25F0000007C00000007000000636E782E786D6C4DCB3B0E80201045D1AD90E915ED2CF8AC45050C11660C8261F98AB1B07AC9C97D42D718D865D3E909258CFD00CCE24AC6E326A164D74DC0B4128928FF32603847
310
2BA13128B1252AC747C6BAB984FC68F0B87FE8960A5C09FE86CFB69FBA01504B0304140006080800CC70623B8C9102E971010000D40300000C0000006662782F636F72652E786D6CC5535B6E833010BC8AE5DF0A6C08340F1947A84D4ED00B38C6A128602363A31CBFCB234A53A551FA553EC09AD9F5CE8C31DB9E9B1AF5CA
310
7695D1198E428A91D2D214952E33ECDD315861B4E5CC1AE3BE9561A445A3323CC098B3D21ADFCE9034DA29ED00D5A6503328BA4E398C640D8B0C77F253352214DE4145770A5B214FA2546114020D759C75CE8200340D19DE981F0F6746269C33EFAB6266AB02A655C74A59CCF365BADC27CB5D902ED22848F6340DF238A141
310
BE88E2F57B92BFEDF23523433367AE6A2EEAA455C2A902F398D2751045018D3FA264435F3771F242571B4A1919CA6F9A7C5B3CD9E42BED16F12C776AEB308F40C848FC700B1139D4891EF410CEC810227CC6846F8386402064270EF5C5C709A05E49676C024C61FC95EA45ED154CA5211D1FF4FB8291A913A68E9B83EBBB33
310
E2A7673CDE118E5AE8124C0807CB8377834E366998436B950D7A7746DAD846D4CFD978E0F04FD455FC5D49D2D4C6FE9722321F10997F0F32DC47FE05504B0304140006080800CC70623BFFEA85907E0000009D0000000B0000006662782F636E782E786D6C4DCCD10A83201886E15B91FFDC95D95A811AB6F23E625948A6C3
310
E9D8E5AF46073BFAE0E1E365ED67B3E8ADC3CB78C7815C7240DA3DFC64DCC221C519D7805AC182F7F1EF06C88D9BE6703008B6049F9E274D7A1E938DBB5AE3D6131B2589BA0D3D965551E0B2EA732C9B9A624AAEB41E3A557677029960D9AFB4EF11165F504B0304140006080800CC70623B4FEEA4082C0100001202000031
310
0000006662782F39464131463745442D413632322D343644302D413938332D3331353338454246344243312F636F72652E786D6C8D515B6EC32010BC0AE2AB55850DD871ED0813254D72825EC00192A2C460F1A872FC42ED48ED5F7E00CDCECCCEB26C731F6FE05B39AFADE921293004CA082BB5B9F43086336A21D870E6AC
310
0D7F68109861543DCC30E4ECE26C9C164858139409093556AA051CBC570102714B8F1E7AF1A5C6A11862480C7F2DA6415C878B2A4891CA89C7990F2E050073937C42DE1DB7E4F87ED8A36D4329AA9B3D46DBAEAD504556557BD81DEBDD0761E52CE42C462D17B996298E3E6BE59E35C962CE821E1FF18553435012728A7187
310
0841987E927A8D9B35ADDF70BBC6989599FE4F1427F9A4286A132ABAC49D651EF234CD5CE04CDA78BA3DC2A8FB645D00B9DF8B57E215725C60BCA2A463E54C4CE327C7A65E1C7DB02E7DEFCBF594B864C5CA6CDBD49C957943E9FA5D5FBAF336F90F504B0304140006080800CC70623BAD7543B64E01000033030000300000
310
006662782F39464131463745442D413632322D343644302D413938332D3331353338454246344243312F636E782E786D6CD593CD6EC32010845F0571AD6CE3D48AD20813A9873E410FBD12D82434182C7EAAE6EDBB2424CD25871E7B41D6EC30B3FA84F9E67BB2E40B4234DE8DB46F1925E094D7C6ED479AD3AE5951B2113C
310
789FEE6C943839C1488B4C05DF079FE72A69D8C96C13AAD6B8631503449F83828872B949AC57D26200B826A308D316B4064D6E46FCDA41C05550DC9E483A00797BFD207EFB092A45DE9514C1BBD22178396BD39D891265658C238DEA00936C654E5E433CB65A26D9F6EDB5EBC14EBF49A45CB856E66048291F6939A9A81BB5
310
C8917738143CA680F4AA299D66A042CEB3354A2684DC9D8D178FE0D9B8B41CAAD720F880EE7EF93C0C18769E099ECC04D5A102C8049A8A05632F4DDF376CF1DE0F6BB65C2F8627B65A33C6BB62177CEBBDAD973006829F89F22E814B54F4BC2BE347F8AA8F681390B50FA73F804400B5F542E796F19FF974E7F78DB802FE05
310
E207504B0304140006080800CC70623B16AB87BA640500003C100000340000006662782F39464131463745442D413632322D343644302D413938332D3331353338454246344243312F6F626A656374732E786D6CAD575B6FA33818FD2B887DE6924B3BED8A326A92B68A663B534DD4D13E548A0C38942D60649B369D5FBFC7
310
600890A493BDE42160637FD7F31D7FF63E6FB3D478A55C242CBF3247B66B1A340F5994E4F19559CA8D75611A9F7D8F33263BCB4C232719BD32D5B4E97B316765A1A722BA21652A07B3B7B33F0D11D29C9A46981221AE4C113ED38CD8A4942CA2E2C58E882476BCD9DA23BB5ED8171B73523C0F841684D35CC252CCE79062D4
310
468DFA43D7747CCF51DF7D4FFDEB5593E3AB9CCA9FBEFE241792E4E19EB28198C968BAB8199F5D5A67D3E9C49A9E8F47D6EC76B6B0469F26EEFC7C3EBFBCBEB98462213924694B38DD98FE1D62C393D073EA4FADC5DAF04326852CCF6958F90F0F2B9BB5C48816348F90C7840A68EB78EDF68723159BCEE7891A6B95DDE9D3
310
BCEAEEE8086A6C6F9E5D4B59F0175C10A7A0820BAA5055C7473B5AE3CFDD452D602CD5DF12616444529E90D448938013FE6EFA58AA96F85E4F8C42275708571E98FE6827AF6B2B4AE3D7D83D64E5A64C53054DD3AF90BD06FEA9149565C94FCA0F6B834DC85599E4F2423B24DF0B6AFA979E534DFA9E7A4CC6FA631D486393
310
921829879BF5D781A373557BCB85E97FB90DB62B558F8795179C15944B051F40AB495CF35451D26A4727654E6D8033BD98EF82F21D91FF8AF2DD9982BCF1643BDD4EB516C9492E368C67C88DED563FC36D5EACF66DFF057C3658BDBFA69DF9578B3DA735B64F18C7F20770A9D45CFCF7FCF563D6456A277DBEF78A02637CA2
310
43B90A490AEAB94F72244481D24819A6C0E59B606BFA4B3025981DBB48EAB701D97BF19C577CC77F2D1B6C55A9EF3C732474C0B727303F625995056C3B02963D9EAC146BE78EC5FCEC7FA999EBC5EACBAAE41B12D27B4D2C0BBA49F244E2ECDC81B76B502F113D8F5EE8FB1BE3111CDD4FC2AA9B844CAB1288B68AB90A7CDC
310
1C166AB0D3DC5310625FCC14E779BFD0709F8890A629C9292B1B2DED31A4B0DA928CEE135085754027E3018A397D4D5427D15BD1330B677DC8934285AC3DF45A9EB68FF8F2B8FC0A509AFEECFD0FF2DE25CC6047F7214B195F07EFEB9A094D800F7BFAE8FED187B78EA8A3A400F115961BCAD1215E47C966530AF0EE8128FE
310
58CEBB996A8964FFA529A046635D9353B0336A8F700DDF46271A024E70B0B37C9DE01847591E54DED53D54202AB947E4076556AC49C6CA5C9E1226B7F1A7B1BE15DEED62C41B91E1B3E9AFAAA735036547343A925075041DF0A9979E893B391F8FCFA6967B3EFB644DCF6E5CEBFAE272625DCC6FAF3FB93793C5F90CE1EF57
310
407342756B10D1C489E8953CD1617E5CEECAD6F4EF8914CE5D5D504E5C3F1F9736DA62CFC11E00BCDDB8CC8A9466349744C1F75EBDA4DF09BA8A9E8C7A7E9991989E20E5DBDD6A6003664ED8F7A04A8DBE0DF6EAD9B9AA858342E47399053949D2C146EDB85DE4B176BB0965FBAC19BD19AA918E27FA50C1D22402E144464C
310
59462568E704B6E71915404CB72B8FF4EDE184DDAF753F284990D2C6926782963815403548A70C657FDEF80D2D9CEAA2AE4C1C76F60BFE74219A06527D6582DF6412526107381E55E353090704D085B52408D0933C4ED159D79BDA71BB4BC506F4831350EB6F979CD22D69BF7AC49B91A2C0A9DDA3D5CA36AD20FC478E37E6
310
1844E2352865EBCB6EA275A652E3836BE04EFB400BF1A2556F515F1FBB35B2AB35BD889C744FFA1004B5544B121E57F70215746DD2F5E2C1412B602CBF19455AC6C8E5E9922C4E01E65215385004546899059180EAFCF7A707CE7017CD8CDB0410789AB32C63B91E5CEBBBACB17AC6CD347A022D5075FD106377347AAABA7E
310
7D11590744509B44E205134DC1290F06580320F78E537D3D73540E06CB970B431F185308AD40BBD794D6D77003C5A36E8EAA54BA64597CD8F83BD552A080A365F7FF06504B0304140006080000CC70623B000000000000000000000000350000006662782F39464131463745442D413632322D343644302D413938332D3331
310
353338454246344243312F76657274696365732E62696E504B0304140006080800CC70623BF270F1330600000004000000360000006662782F39464131463745442D413632322D343644302D413938332D3331353338454246344243312F747269616E676C65732E62696E636660600000504B0304140006080000CC70623B
310
000000000000000000000000370000006662782F39464131463745442D413632322D343644302D413938332D3331353338454246344243312F617474726962757465732E62696E504B0304140006080800CC70623B08DA0BD19000000041010000360000006662782F39464131463745442D413632322D343644302D413938
310
332D3331353338454246344243312F6469726563746F72792E786D6C858F410AC3201045AF22B36F53E9A60B35CBEEBAE80D244E44489C6234F4F835464A48035D0DF398FF9F8AF63D0E6CC63039F212F8F9020C7D47C6792B21C5FE7403D62A1188E2E60C98D7234A5830286103A55745067B9D86B8A3CF9C7F90C11DE607
310
FB144396D7B6A82D282E9A152AD114D5EF2CB866EEE831B8EEA07A7BB5A8D7D61A2BAAEB7FD5F70921FF497D00504B0304140006080800CC70623B0D6EF93BFE000000A00100003B0000006662782F39464131463745442D413632322D343644302D413938332D3331353338454246344243312F7265736F75726365732F63
310
6F72652E786D6C8D50596E833010BD0A9ADFCA60B334011947A8694ED00B586642AC041B79A97AFC9A40A5F6AF3F33A3B7689E1E3F7DCD8FEC139DD7D6F4C0720A191A65476DA61E62B892236427C19DB5E1970C322367EC618541F0C9D9B8EC90B226A009093576C41D94DE63804C3DD2D18357379C652E63480A7FCF17A9
310
EE72C29CE5894E3AC17D702940B63D59270887DE46A7D0F36263058F518FBB468FE9A7BE6A7420864373B8D4873369AA8691FA421B3294352543C5CAF65C0F6FEF43CB8BD52C78D0F34F46E550061C419494B6843142CB0F5677F4B52BEB177AEC28E5C52AFF638ACBF84F53D42654E51E77B379102C05791282176B5F693D
310
CB4C7BED567C03504B010214000A0000080000CC70623B3DEE336E79000000790000001B00000000000000000000000000000000006175746F6465736B2D64657369676E2D7061636B6167652E786D6C504B01021400140006080800CC70623BD486FD9CA0000000F40000001300000000000000000000000000B20000005B
310
436F6E74656E745F54797065735D2E786D6C504B01021400140006080800CC70623B1EC5D7A3EB0000007C010000080000000000000000000000000083010000636F72652E786D6C504B01021400140006080800CC70623B55019EA25F0000007C000000070000000000000000000000000094020000636E782E786D6C504B
310
01021400140006080800CC70623B8C9102E971010000D40300000C00000000000000000000000000180300006662782F636F72652E786D6C504B01021400140006080800CC70623BFFEA85907E0000009D0000000B00000000000000000000000000B30400006662782F636E782E786D6C504B01021400140006080800CC70
310
623B4FEEA4082C0100001202000031000000000000000000000000005A0500006662782F39464131463745442D413632322D343644302D413938332D3331353338454246344243312F636F72652E786D6C504B01021400140006080800CC70623BAD7543B64E010000330300003000000000000000000000000000D5060000
310
6662782F39464131463745442D413632322D343644302D413938332D3331353338454246344243312F636E782E786D6C504B01021400140006080800CC70623B16AB87BA640500003C1000003400000000000000000000000000710800006662782F39464131463745442D413632322D343644302D413938332D3331353338
310
454246344243312F6F626A656374732E786D6C504B01021400140006080000CC70623B0000000000000000000000003500000000000000000000000000270E00006662782F39464131463745442D413632322D343644302D413938332D3331353338454246344243312F76657274696365732E62696E504B01021400140006
310
080800CC70623BF270F133060000000400000036000000000000000000000000007A0E00006662782F39464131463745442D413632322D343644302D413938332D3331353338454246344243312F747269616E676C65732E62696E504B01021400140006080000CC70623B0000000000000000000000003700000000000000
310
000000000000D40E00006662782F39464131463745442D413632322D343644302D413938332D3331353338454246344243312F617474726962757465732E62696E504B01021400140006080800CC70623B08DA0BD190000000410100003600000000000000000000000000290F00006662782F39464131463745442D413632
310
322D343644302D413938332D3331353338454246344243312F6469726563746F72792E786D6C504B01021400140006080800CC70623B0D6EF93BFE000000A00100003B000000000000000000000000000D1000006662782F39464131463745442D413632322D343644302D413938332D3331353338454246344243312F7265
310
736F75726365732F636F72652E786D6C504B0506000000000E000E0080040000641100000000
  0
XRECORD
  5
1473
102
{ACAD_REACTORS
330
173
102
}
330
173
100
AcDbXrecord
280
     1
102
MATERIAL
148
0.0
149
0.0
149
0.0
 93
        0
 94
       63
282
     0
 72
     1
 77
     1
171
     1
175
     1
179
     1
273
     0
  0
XRECORD
  5
175
102
{ACAD_REACTORS
330
173
102
}
330
173
100
AcDbXrecord
280
     1
270
     1
271
     1
  0
XRECORD
  5
174
102
{ACAD_REACTORS
330
173
102
}
330
173
100
AcDbXrecord
280
     1
270
     1
271
     1
  0
XRECORD
  5
1FB
102
{ACAD_REACTORS
330
173
102
}
330
173
100
AcDbXrecord
280
     1
 70
     0
 90
1673772943
  1
ECE7A1D2-D628-4531-984C-D00F80459256
310
504B03040A0000080000CC70623B3DEE336E79000000790000001B0000006175746F6465736B2D64657369676E2D7061636B6167652E786D6C3C3F786D6C2076657273696F6E3D22312E302220656E636F64696E673D227574662D3822203F3E3C666F726D6174733E3C666F726D61743E687474703A2F2F736368656D612E
310
6175746F6465736B2E636F6D2F64657369676E2D7061636B6167652F323030393C2F666F726D61743E3C2F666F726D6174733E504B0304140006080800CC70623BD486FD9CA0000000F4000000130000005B436F6E74656E745F54797065735D2E786D6C7D8EC10E82300C865F65E91D8A1E8C310C0EEA1BF002731658846E
310
D98AC1B77784ABF1D8FE5FBFBF75BBCE937A534CCEB38643598122B6FEE978D0B0485F9C41B54DDD7D022595594E1A469170414C76A4D9A4D207E29CF43ECE46F218070CC6BECC4078ACAA135ACF422C856C0E68EA1BF5669944DDD7BCDE7B1F8E415D77AECB980613C2E4AC91FC167A2B244592486606FC29C8FD7F045B9A
310
EF7053A7E60B504B0304140006080800CC70623BD9DDAED0EC0000007C01000008000000636F72652E786D6C8D90416EC3201045AF82665B61836D9CD8C2444DD39CA01740405C94182C03558F5F9C3852BBEB6A467FFE9B197D7EF89E6EE8CB2CC17A37002D0820E394D7D68D03A478C17B4007C117EFE32F1B20272733C0
310
2A83E0E3E2D3BC49CABB685CCCAAF3DA6CA20CC14440EA969B0182FA34932C648AD911AEC52CD5558EA6A0CF2EC329598D1E47ACCEFBECC59A050463A7EA5833865FEBDD0E37353BE3EE8DBDE3F6786A48D375FBF6CC78B9C282473B3DEFABC5C86834888A900E538A49F5419B9EB47DD5BC907D4F082F57FB1F28CDFA9F50
310
B22ED6D5F6EE030B20687EE43E10BC5CB3C8E51E54AE6B6EE207504B0304140006080800CC70623B55019EA25F0000007C00000007000000636E782E786D6C4DCB3B0E80201045D1AD90E915ED2CF8AC45050C11660C8261F98AB1B07AC9C97D42D718D865D3E909258CFD00CCE24AC6E326A164D74DC0B4128928FF326038
310
472BA13128B1252AC747C6BAB984FC68F0B87FE8960A5C09FE86CFB69FBA01504B0304140006080800CC70623BA24EB22D72010000D40300000C0000006662782F636F72652E786D6CC5535B6E833010BC8AE5DF0A6C5E49888CA3A6694ED00B38E05014B091B1518EDFE511A5A9D228FD2A1F60CDEC7A67C6986DCE4D8D7A
310
69BA4AAB0C073EC548AA5C17952A33ECECD15B61B4E1CC686DBF9561A44423333CC098B3D268D7CE50AE9595CA02AA74216750749DB418E5352C32DCE59FB211BE70162ABA93DF8AFC244AE9073ED050C759670D0840D390E18DF9F1706664C23973AE2A66B62A605A75ACA4C13C4976E1364A12EF355A2EBD384AF65EFA96
310
BC7B8BED2EA6719AAE16FB8491A199335B351775B991C2CA02F390D2D40B028F861F41BCA68B7518BFD0D59A524686F29B26D7164F36B94AD9289CE54E6D1DE6010819891F6E21228B3AD1831EC219194284CF98F06DD01008846CC5A1BEF83801D4CBDC6A1303536877A57A513B0953A94FC707FDBE6064EA84A9E3E6E0FA
310
EE8CF0E9198F7784A316AA0413C2C2F2E0ECA0934D1AE6D05A69BCDE9E91D2A611F573361E38FC1375157F5752AE6B6DFE4B11990F88CCBF0719EE23FF02504B0304140006080800CC70623B408A7D3B7C0000009D0000000B0000006662782F636E782E786D6C4DCCD10A83201886E15B91FFDC552A92A0064DBC8F581632
310
D3703A76F9ABD1C18E3E78F878E5F0D9027ABBFCF2292AE86E2D20171F69F6715550CB827B40839639A5F2770314A7CD293819B45C73AAFB45B35BA61ACAA1C1C7E7855C58C15BC331339661262CC762340413D68D77DA5B42298546CBE6573AF60CEB2F504B0304140006080800CC70623B449FB9BD290100001202000031
310
0000006662782F36394639363044362D344446342D343946362D394244322D3234314243333846323333332F636F72652E786D6C8D515B6EC32010BC0AE22B55850D98B871848994463E412FE002495162B07854397EA176A4F62F3F2C9A9D991D587EB84F37F0AD7D30CEF6905418026DA553C65E7A98E219ED203808EE9D
310
8B7F6810D871D23D2C3014FCE25D9A57483A1BB58D19B54EE9151C43D0110279CB971E06F9A5A7B11A53CC8C70ADE6515EC78BAE4895DB992778883E0700CB907242D17643D7E2538BD869608875438BBAE38922CAC8F1BDD90DB4691A5E2F42C153326A951B95E398B3D1FE599322163C9AE9115F7A3D46ADA0A018778810
310
84E907617BDCEE297BC5BB3DC6BC2EF47FA234AB2745C9D8D8D035EE220B50105E2F0DC1954B9FB747187D9F9D8FA0CCDB042D5FA0C015C65B42DF78BD10F3F3B363CB56C7109DCFDFBBB97E662ED92EB62D13BC2E1BCAE5777DB9966D8A1F504B0304140006080800CC70623BAD7543B64E01000033030000300000006662
310
782F36394639363044362D344446342D343946362D394244322D3234314243333846323333332F636E782E786D6CD593CD6EC32010845F0571AD6CE3D48AD20813A9873E410FBD12D82434182C7EAAE6EDBB2424CD25871E7B41D6EC30B3FA84F9E67BB2E40B4234DE8DB46F1925E094D7C6ED479AD3AE5951B2113C789FEE
310
6C943839C1488B4C05DF079FE72A69D8C96C13AAD6B8631503449F83828872B949AC57D26200B826A308D316B4064D6E46FCDA41C05550DC9E483A00797BFD207EFB092A45DE9514C1BBD22178396BD39D891265658C238DEA00936C654E5E433CB65A26D9F6EDB5EBC14EBF49A45CB856E66048291F6939A9A81BB5C89177
310
38143CA680F4AA299D66A042CEB3354A2684DC9D8D178FE0D9B8B41CAAD720F880EE7EF93C0C18769E099ECC04D5A102C8049A8A05632F4DDF376CF1DE0F6BB65C2F8627B65A33C6BB62177CEBBDAD973006829F89F22E814B54F4BC2BE347F8AA8F681390B50FA73F804400B5F542E796F19FF974E7F78DB802FE05E20750
310
4B0304140006080800CC70623B8D05915C650500003B100000340000006662782F36394639363044362D344446342D343946362D394244322D3234314243333846323333332F6F626A656374732E786D6CAD575B6FA33814FE2B887D06429276DA1565D4266D158D3A339A6846FB502932E050B66023DB74D2FDF5FB190C01
310
9276B2973C046C8ECFF53B17071F77456EBD502133CEAE6CDF9DD81665314F32965ED995DA3A17B6F5310C04E7AA47665B8C14F4CAD6DB7618A48257A5D94AE89654B91AEDDEDDFC61C998326A5B714EA4BCB265FC440BE2924AF184CA6737218AB8E976E7FA6E4338649B0A523E8D98964450A6A029F619B8588D52FE7039
310
B1BD30F0F4F730D0FF866AF6369557DB33949F31A9088B0F848DD8CCFCF9F2767A76E99CCDE733677E3EF59D9BBB9BA5E37F984D16E78BC5E5F5ED25044B25C0C96822E8D60EEFE11B91C581D77CEA34368A1F5329E68CD1B8B61F16D63A1B8E092D294B10C78C4A48EB593D192E7DED9BDEE7995E1B91FDEDD3ACEA9FE831
310
6A756F9F7D4D79F4274C90A7A04248AA51D5F8C718DAE06FB2F75AC4796EBE65D22A88A22223B995679120E2D50E41AA49C260C046A35368846B0BECD0DFF3EBEB8AD4F835768F69B9ADF25C43D30E6B646F807FAA64AD59F61715C7A54127C4AACA98BA3006A9D792DAE165E0D59B61A01FB3A9F9D838D2DAE62445C86166
310
F37564E842E7DE6A69879FEEA2DD5AE7E371E1A5E025154AC307D06A03D73EB5978C58FFA4C8E9033066E0F3BD53BEC1F39F91BE7B55103791EDE6BBB991A2046172CB4581D8B893FA674DDA17A77B3B7C413D1B511FD2743BFF8A38F03A658705E3ADF8015C3A3417FF3D7E439FF591DA0B5F18BC20C1B8981957AE6392A3
310
F43C640C01D1A0B4728E2DD4F26DB4B3C3152A252A3B4E913CEC1C72F012782FF88EFF8637AA552DBEF76408E8A8DE9E50F9E1CB3A2DA0DB1B6039A893B56063DC5B3E3FFB5F72E67AB9FEB4AEC496C4F4C1149625DD662C53E89D7BF0F6151A046260D1337DFDC94502430F83B0EE07A130A224BCAD7DAE1D9FB6CD422FF6
310
920702629C4BB9AE79C12F243C6432A6794E18E5552BA56B431AAB5D91317302B2B071E86C3A42B1A02F999E24061403B5D0EB639195DA655DD3EBEAB4FB862DDF579F014AD0E73C22F99E28DA57FB98E75C6CA2D74D53086D600F4786E0FE3144B771A8A7B900F03594DB8A633CBC49B2EDB69228BB479CF863B5E807AAAB
310
23872F6DFEB4129B949CA33823F58830E86D65621E10047D9DB34D862E8EAC3C2ABC2F7B2C40D67CDFE01F5545B92105AF983AC54D93D69E56FB8E797F88913F898A9FEC705D3F9D1B54EC8426FB500D40A03BD0119B06E1B95DDC7EB8F6975367793EBD70E66733DFB9BC982F9CE564727731999F5D4ECFCE3B8D6A4DC2A0
310
6D50FD148437D110834A64C6CDDF57FBACB5C307A2A477DFE4939736CFEF2B175371E0E10CF0DD1D5C15654E0BCA14D1E87DD02FF93782A162C0A3D95F1524A52770F972BF1EE9809D13CE7DD599467F8ECE9ADD85CE85A34CD45355448C64F9E8A031DC2D596ACC6E5DD93D9B82DE2EF5CAF81363A8E47996A0DE24564A79
310
4115AACE09C55E14540231FDA13C319787134EBF34E3A022514E5B4D9E0826E25C02D5805B15ABE1BEF51B26383D445DD9E875EE33FE4C22DA16427D65A3BCA92CA6D28DD01DF5DC53330704308475351050232CCD31583787BA75774AFB06E5070DD0C8EF484E19968C5D83BA5B90B244D31E54D55A372320FE4786B7EA58
310
44E135AA5467CB7EA333A61683CC6A8C3257034C10CF46F40EF9F5BE59BE5BD30C3C72D235E95D10345C1D45445A5F0BB47E46A5EBE5570F9380B5FA629579952296A773720405982B9DE04011506178964401AA8BDF1FBF0A8EAB6861DD6580C0E38217056766716DAEB2D6FA0917D3E4116581EADB879C4E7CFFB11EFACD
310
3D641311495D92C8676CB409A72D18610D803CE8A626049E8EC1887CB5B44CC39883690DDA8399B4B9855B481E7D71D4A9D22F96E5BB73BF5793020C02137BF837504B0304140006080000CC70623B000000000000000000000000350000006662782F36394639363044362D344446342D343946362D394244322D32343142
310
43333846323333332F76657274696365732E62696E504B0304140006080800CC70623BF270F1330600000004000000360000006662782F36394639363044362D344446342D343946362D394244322D3234314243333846323333332F747269616E676C65732E62696E636660600000504B0304140006080000CC70623B0000
310
00000000000000000000370000006662782F36394639363044362D344446342D343946362D394244322D3234314243333846323333332F617474726962757465732E62696E504B0304140006080800CC70623B08DA0BD19000000041010000360000006662782F36394639363044362D344446342D343946362D394244322D
310
3234314243333846323333332F6469726563746F72792E786D6C858F410AC3201045AF22B36F53E9A60B35CBEEBAE80D244E44489C6234F4F835464A48035D0DF398FF9F8AF63D0E6CC63039F212F8F9020C7D47C6792B21C5FE7403D62A1188E2E60C98D7234A5830286103A55745067B9D86B8A3CF9C7F90C11DE607FB14
310
4396D7B6A82D282E9A152AD114D5EF2CB866EEE831B8EEA07A7BB5A8D7D61A2BAAEB7FD5F70921FF497D00504B0304140006080800CC70623BCA768048FE000000A00100003B0000006662782F36394639363044362D344446342D343946362D394244322D3234314243333846323333332F7265736F75726365732F636F72
310
652E786D6C8D50596E833010BD0A9ADFCA60D600328E9AA639412F609909B1126CE4A5EAF16B0295DABFFECC8CDEA2797AECF8353F924FB44E193D409E5248504B332A3D0D10FC95B4901C39B3C6F85F3248B49871801506CE266BC2B243D2688FDA47549B11775038871E12F988C7004EDE7016A9083E2ADC3D5D84BC8B09
310
D33C8D74D471E6BC8D0192EDC93A815B742658898E651BCB59086ADC356A8C3FD555A1055ED7E7E254D615792D0F075295F585746FF53B694EE78A565DD736979A65AB9933AFE69F8CD2A2F038022F28ED489E135A7CE4554F9BBEA85E68DB53CAB255FEC71496F19FA6A0B42F8B3DEE6673C0F318E4497096AD7DC5F52C33
310
EEB55BFE0D504B010214000A0000080000CC70623B3DEE336E79000000790000001B00000000000000000000000000000000006175746F6465736B2D64657369676E2D7061636B6167652E786D6C504B01021400140006080800CC70623BD486FD9CA0000000F40000001300000000000000000000000000B20000005B436F
310
6E74656E745F54797065735D2E786D6C504B01021400140006080800CC70623BD9DDAED0EC0000007C010000080000000000000000000000000083010000636F72652E786D6C504B01021400140006080800CC70623B55019EA25F0000007C000000070000000000000000000000000095020000636E782E786D6C504B0102
310
1400140006080800CC70623BA24EB22D72010000D40300000C00000000000000000000000000190300006662782F636F72652E786D6C504B01021400140006080800CC70623B408A7D3B7C0000009D0000000B00000000000000000000000000B50400006662782F636E782E786D6C504B01021400140006080800CC70623B
310
449FB9BD290100001202000031000000000000000000000000005A0500006662782F36394639363044362D344446342D343946362D394244322D3234314243333846323333332F636F72652E786D6C504B01021400140006080800CC70623BAD7543B64E010000330300003000000000000000000000000000D20600006662
310
782F36394639363044362D344446342D343946362D394244322D3234314243333846323333332F636E782E786D6C504B01021400140006080800CC70623B8D05915C650500003B10000034000000000000000000000000006E0800006662782F36394639363044362D344446342D343946362D394244322D32343142433338
310
46323333332F6F626A656374732E786D6C504B01021400140006080000CC70623B0000000000000000000000003500000000000000000000000000250E00006662782F36394639363044362D344446342D343946362D394244322D3234314243333846323333332F76657274696365732E62696E504B010214001400060808
310
00CC70623BF270F13306000000040000003600000000000000000000000000780E00006662782F36394639363044362D344446342D343946362D394244322D3234314243333846323333332F747269616E676C65732E62696E504B01021400140006080000CC70623B00000000000000000000000037000000000000000000
310
00000000D20E00006662782F36394639363044362D344446342D343946362D394244322D3234314243333846323333332F617474726962757465732E62696E504B01021400140006080800CC70623B08DA0BD190000000410100003600000000000000000000000000270F00006662782F36394639363044362D344446342D
310
343946362D394244322D3234314243333846323333332F6469726563746F72792E786D6C504B01021400140006080800CC70623BCA768048FE000000A00100003B000000000000000000000000000B1000006662782F36394639363044362D344446342D343946362D394244322D3234314243333846323333332F7265736F
310
75726365732F636F72652E786D6C504B0506000000000E000E0080040000621100000000
  0
XRECORD
  5
176
102
{ACAD_REACTORS
330
173
102
}
330
173
100
AcDbXrecord
280
     1
270
     1
271
     1
  0
XRECORD
  5
177
102
{ACAD_REACTORS
330
173
102
}
330
173
100
AcDbXrecord
280
     1
270
     1
271
     1
  0
XRECORD
  5
1497
102
{ACAD_REACTORS
330
1496
102
}
330
1496
100
AcDbXrecord
280
     1
102
ACAD_ROUNDTRIP_2012_MLEADER_STYLE
298
     1
  0
XRECORD
  5
1495
102
{ACAD_REACTORS
330
1494
102
}
330
1494
100
AcDbXrecord
280
     1
102
ACAD_ROUNDTRIP_2012_MLEADER_STYLE
298
     1
  0
XRECORD
  5
14A9
102
{ACAD_REACTORS
330
14A8
102
}
330
14A8
100
AcDbXrecord
280
     1
102
DISPLAYNAME
  1
Metric50
102
FLAGS
 90
        0
  0
CELLSTYLEMAP
  5
1467
102
{ACAD_REACTORS
330
162
102
}
330
162
100
AcDbCellStyleMap
 90
        3
300
CELLSTYLE
  1
TABLEFORMAT_BEGIN
 90
        5
170
     1
 91
        0
 92
    32768
 62
   257
 93
        1
300
CONTENTFORMAT
  1
CONTENTFORMAT_BEGIN
 90
        0
 91
        0
 92
      512
 93
        0
300

 40
0.0
140
1.0
 94
        5
 62
     0
340
11
144
6.0
309
CONTENTFORMAT_END
171
     1
301
MARGIN
  1
CELLMARGIN_BEGIN
 40
1.5
 40
1.5
 40
1.5
 40
1.5
 40
4.5
 40
4.5
309
CELLMARGIN_END
 94
        6
 95
        1
302
GRIDFORMAT
  1
GRIDFORMAT_BEGIN
 90
        0
 91
        1
 62
     0
 92
       -2
340
14
 93
        0
 40
1.125
309
GRIDFORMAT_END
 95
        2
302
GRIDFORMAT
  1
GRIDFORMAT_BEGIN
 90
        0
 91
        1
 62
     0
 92
       -2
340
14
 93
        0
 40
1.125
309
GRIDFORMAT_END
 95
        4
302
GRIDFORMAT
  1
GRIDFORMAT_BEGIN
 90
        0
 91
        1
 62
     0
 92
       -2
340
14
 93
        0
 40
1.125
309
GRIDFORMAT_END
 95
        8
302
GRIDFORMAT
  1
GRIDFORMAT_BEGIN
 90
        0
 91
        1
 62
     0
 92
       -2
340
14
 93
        0
 40
1.125
309
GRIDFORMAT_END
 95
       16
302
GRIDFORMAT
  1
GRIDFORMAT_BEGIN
 90
        0
 91
        1
 62
     0
 92
       -2
340
14
 93
        0
 40
1.125
309
GRIDFORMAT_END
 95
       32
302
GRIDFORMAT
  1
GRIDFORMAT_BEGIN
 90
        0
 91
        1
 62
     0
 92
       -2
340
14
 93
        0
 40
1.125
309
GRIDFORMAT_END
309
TABLEFORMAT_END
  1
CELLSTYLE_BEGIN
 90
        1
 91
        1
300
_TITLE
309
CELLSTYLE_END
300
CELLSTYLE
  1
TABLEFORMAT_BEGIN
 90
        5
170
     1
 91
        0
 92
        0
 62
   257
 93
        1
300
CONTENTFORMAT
  1
CONTENTFORMAT_BEGIN
 90
        0
 91
        0
 92
      512
 93
        0
300

 40
0.0
140
1.0
 94
        5
 62
     0
340
11
144
4.5
309
CONTENTFORMAT_END
171
     1
301
MARGIN
  1
CELLMARGIN_BEGIN
 40
1.5
 40
1.5
 40
1.5
 40
1.5
 40
4.5
 40
4.5
309
CELLMARGIN_END
 94
        6
 95
        1
302
GRIDFORMAT
  1
GRIDFORMAT_BEGIN
 90
        0
 91
        1
 62
     0
 92
       -2
340
14
 93
        0
 40
1.125
309
GRIDFORMAT_END
 95
        2
302
GRIDFORMAT
  1
GRIDFORMAT_BEGIN
 90
        0
 91
        1
 62
     0
 92
       -2
340
14
 93
        0
 40
1.125
309
GRIDFORMAT_END
 95
        4
302
GRIDFORMAT
  1
GRIDFORMAT_BEGIN
 90
        0
 91
        1
 62
     0
 92
       -2
340
14
 93
        0
 40
1.125
309
GRIDFORMAT_END
 95
        8
302
GRIDFORMAT
  1
GRIDFORMAT_BEGIN
 90
        0
 91
        1
 62
     0
 92
       -2
340
14
 93
        0
 40
1.125
309
GRIDFORMAT_END
 95
       16
302
GRIDFORMAT
  1
GRIDFORMAT_BEGIN
 90
        0
 91
        1
 62
     0
 92
       -2
340
14
 93
        0
 40
1.125
309
GRIDFORMAT_END
 95
       32
302
GRIDFORMAT
  1
GRIDFORMAT_BEGIN
 90
        0
 91
        1
 62
     0
 92
       -2
340
14
 93
        0
 40
1.125
309
GRIDFORMAT_END
309
TABLEFORMAT_END
  1
CELLSTYLE_BEGIN
 90
        2
 91
        1
300
_HEADER
309
CELLSTYLE_END
300
CELLSTYLE
  1
TABLEFORMAT_BEGIN
 90
        5
170
     1
 91
        0
 92
        0
 62
   257
 93
        1
300
CONTENTFORMAT
  1
CONTENTFORMAT_BEGIN
 90
        0
 91
        0
 92
      512
 93
        0
300

 40
0.0
140
1.0
 94
        2
 62
     0
340
11
144
4.5
309
CONTENTFORMAT_END
171
     1
301
MARGIN
  1
CELLMARGIN_BEGIN
 40
1.5
 40
1.5
 40
1.5
 40
1.5
 40
4.5
 40
4.5
309
CELLMARGIN_END
 94
        6
 95
        1
302
GRIDFORMAT
  1
GRIDFORMAT_BEGIN
 90
        0
 91
        1
 62
     0
 92
       -2
340
14
 93
        0
 40
1.125
309
GRIDFORMAT_END
 95
        2
302
GRIDFORMAT
  1
GRIDFORMAT_BEGIN
 90
        0
 91
        1
 62
     0
 92
       -2
340
14
 93
        0
 40
1.125
309
GRIDFORMAT_END
 95
        4
302
GRIDFORMAT
  1
GRIDFORMAT_BEGIN
 90
        0
 91
        1
 62
     0
 92
       -2
340
14
 93
        0
 40
1.125
309
GRIDFORMAT_END
 95
        8
302
GRIDFORMAT
  1
GRIDFORMAT_BEGIN
 90
        0
 91
        1
 62
     0
 92
       -2
340
14
 93
        0
 40
1.125
309
GRIDFORMAT_END
 95
       16
302
GRIDFORMAT
  1
GRIDFORMAT_BEGIN
 90
        0
 91
        1
 62
     0
 92
       -2
340
14
 93
        0
 40
1.125
309
GRIDFORMAT_END
 95
       32
302
GRIDFORMAT
  1
GRIDFORMAT_BEGIN
 90
        0
 91
        1
 62
     0
 92
       -2
340
14
 93
        0
 40
1.125
309
GRIDFORMAT_END
309
TABLEFORMAT_END
  1
CELLSTYLE_BEGIN
 90
        3
 91
        2
300
_DATA
309
CELLSTYLE_END
  0
XRECORD
  5
146C
102
{ACAD_REACTORS
330
162
102
}
330
162
100
AcDbXrecord
280
     1
102
ACAD_ROUNDTRIP_PRE2007_TABLESTYLE
 90
      512
 91
        0
  1

 92
      512
 93
        0
  2

 94
      512
 95
        0
  3

  0
XRECORD
  5
147F
102
{ACAD_REACTORS
330
147E
102
}
330
147E
100
AcDbXrecord
280
     1
102
RTVSPost2010Prop28
280
     1
102
RTVSPost2010PropOp28
 70
     1
102
RTVSPost2010Prop29
280
     1
102
RTVSPost2010PropOp29
 70
     1
102
RTVSPost2010Prop30
280
     0
102
RTVSPost2010PropOp30
 70
     1
102
RTVSPost2010Prop31
280
     0
102
RTVSPost2010PropOp31
 70
     1
102
RTVSPost2010Prop32
280
     0
102
RTVSPost2010PropOp32
 70
     1
102
RTVSPost2010Prop33
280
     0
102
RTVSPost2010PropOp33
 70
     1
102
RTVSPost2010Prop34
280
     0
102
RTVSPost2010PropOp34
 70
     1
102
RTVSPost2010Prop35
280
     0
102
RTVSPost2010PropOp35
 70
     1
102
RTVSPost2010Prop36
280
     0
102
RTVSPost2010PropOp36
 70
     1
102
RTVSPost2010Prop37
 90
       50
102
RTVSPost2010PropOp37
 70
     1
102
RTVSPost2010Prop38
140
0.0
102
RTVSPost2010PropOp38
 70
     1
102
RTVSPost2010Prop39
140
1.0
102
RTVSPost2010PropOp39
 70
     1
102
RTVSPost2010Prop40
 90
        0
102
RTVSPost2010PropOp40
 70
     1
102
RTVSPost2010Prop41ColorIndex
 90
       18
102
RTVSPost2010Prop41ColorRGB
 90
        0
102
RTVSPost2010PropOp41
 70
     1
102
RTVSPost2010Prop42
 90
       50
102
RTVSPost2010PropOp42
 70
     1
102
RTVSPost2010Prop43
 90
        3
102
RTVSPost2010PropOp43
 70
     1
102
RTVSPost2010Prop44ColorIndex
 90
        5
102
RTVSPost2010Prop44ColorRGB
 90
      255
102
RTVSPost2010PropOp44
 70
     1
102
RTVSPost2010Prop45
280
     0
102
RTVSPost2010PropOp45
 70
     1
102
RTVSPost2010Prop46
 90
       50
102
RTVSPost2010PropOp46
 70
     1
102
RTVSPost2010Prop47
 90
       50
102
RTVSPost2010PropOp47
 70
     1
102
RTVSPost2010Prop48
 90
       50
102
RTVSPost2010PropOp48
 70
     1
102
RTVSPost2010Prop49
280
     0
102
RTVSPost2010PropOp49
 70
     1
102
RTVSPost2010Prop50
 90
       50
102
RTVSPost2010PropOp50
 70
     1
102
RTVSPost2010Prop51ColorIndex
 90
      256
102
RTVSPost2010Prop51ColorRGB
 90
-16777216
102
RTVSPost2010PropOp51
 70
     0
102
RTVSPost2010Prop52
140
1.0
102
RTVSPost2010PropOp52
 70
     0
102
RTVSPost2010Prop53
 90
        2
102
RTVSPost2010PropOp53
 70
     1
102
RTVSPost2010Prop54
  1
strokes_ogs.tif
102
RTVSPost2010PropOp54
 70
     1
102
RTVSPost2010Prop55
280
     0
102
RTVSPost2010PropOp55
 70
     1
102
RTVSPost2010Prop56
140
1.0
102
RTVSPost2010PropOp56
 70
     1
102
RTVSPost2010Prop57
140
1.0
102
RTVSPost2010PropOp57
 70
     1
102
RTVSPropertyOp0
 70
     1
102
RTVSPropertyOp1
 70
     1
102
RTVSPropertyOp2
 70
     1
102
RTVSPropertyOp3
 70
     1
102
RTVSPropertyOp4
 70
     1
102
RTVSPropertyOp5
 70
     1
102
RTVSPropertyOp6
 70
     1
102
RTVSPropertyOp7
 70
     1
102
RTVSPropertyOp8
 70
     1
102
RTVSPropertyOp9
 70
     1
102
RTVSPropertyOp10
 70
     1
102
RTVSPropertyOp11
 70
     1
102
RTVSPropertyOp12
 70
     1
102
RTVSPropertyOp13
 70
     1
102
RTVSPropertyOp14
 70
     1
102
RTVSPropertyOp15
 70
     1
102
RTVSPropertyOp16
 70
     1
102
RTVSPropertyOp17
 70
     1
102
RTVSPropertyOp18
 70
     1
102
RTVSPropertyOp19
 70
     1
102
RTVSPropertyOp20
 70
     1
102
RTVSPropertyOp21
 70
     1
102
RTVSPropertyOp22
 70
     1
102
RTVSPropertyOp23
 70
     1
102
RTVSPropertyOp24
 70
     1
102
RTVSPropertyOp25
 70
     1
102
RTVSPropertyOp26
 70
     1
102
RTVSPropertyOp27
 70
     1
102
RTVSPropertyOp28
 70
     1
102
RTVSPropertyOp29
 70
     1
102
RTVSPropertyOp30
 70
     1
102
RTVSPropertyOp31
 70
     1
102
RTVSPropertyOp32
 70
     1
102
RTVSPropertyOp33
 70
     1
102
RTVSPropertyOp34
 70
     1
102
RTVSPropertyOp35
 70
     1
102
RTVSPropertyOp36
 70
     1
102
RTVSPropertyOp37
 70
     1
102
RTVSPropertyOp38
 70
     1
102
RTVSPropertyOp39
 70
     1
102
RTVSPropertyOp40
 70
     1
102
RTVSPropertyOp41
 70
     1
102
RTVSPropertyOp42
 70
     1
102
RTVSPropertyOp43
 70
     1
102
RTVSPropertyOp44
 70
     1
102
RTVSPropertyOp45
 70
     1
102
RTVSPropertyOp46
 70
     1
102
RTVSPropertyOp47
 70
     1
102
RTVSPropertyOp48
 70
     1
102
RTVSPropertyOp49
 70
     1
102
RTVSPropertyOp50
 70
     1
102
RTVSPropertyOp51
 70
     0
102
RTVSPropertyOp52
 70
     0
102
RTVSPropertyOp53
 70
     1
102
RTVSPropertyOp54
 70
     1
102
RTVSPropertyOp55
 70
     1
102
RTVSPropertyOp56
 70
     1
102
RTVSPropertyOp57
 70
     1
102
RTVSPropertyOp58
 70
     1
102
RTVSPropertyOp59
 70
     1
102
RTVSPropertyOp60
 70
     1
102
RTVSPropertyOp61
 70
     1
102
RTVSPropertyOp62
 70
     1
  0
XRECORD
  5
147D
102
{ACAD_REACTORS
330
147C
102
}
330
147C
100
AcDbXrecord
280
     1
102
RTVSPost2010Prop28
280
     0
102
RTVSPost2010PropOp28
 70
     1
102
RTVSPost2010Prop29
280
     1
102
RTVSPost2010PropOp29
 70
     1
102
RTVSPost2010Prop30
280
     1
102
RTVSPost2010PropOp30
 70
     1
102
RTVSPost2010Prop31
280
     0
102
RTVSPost2010PropOp31
 70
     1
102
RTVSPost2010Prop32
280
     0
102
RTVSPost2010PropOp32
 70
     1
102
RTVSPost2010Prop33
280
     0
102
RTVSPost2010PropOp33
 70
     1
102
RTVSPost2010Prop34
280
     0
102
RTVSPost2010PropOp34
 70
     1
102
RTVSPost2010Prop35
280
     0
102
RTVSPost2010PropOp35
 70
     1
102
RTVSPost2010Prop36
280
     0
102
RTVSPost2010PropOp36
 70
     1
102
RTVSPost2010Prop37
 90
       50
102
RTVSPost2010PropOp37
 70
     1
102
RTVSPost2010Prop38
140
0.0
102
RTVSPost2010PropOp38
 70
     1
102
RTVSPost2010Prop39
140
1.0
102
RTVSPost2010PropOp39
 70
     1
102
RTVSPost2010Prop40
 90
        0
102
RTVSPost2010PropOp40
 70
     1
102
RTVSPost2010Prop41ColorIndex
 90
       18
102
RTVSPost2010Prop41ColorRGB
 90
        0
102
RTVSPost2010PropOp41
 70
     1
102
RTVSPost2010Prop42
 90
       50
102
RTVSPost2010PropOp42
 70
     1
102
RTVSPost2010Prop43
 90
        3
102
RTVSPost2010PropOp43
 70
     1
102
RTVSPost2010Prop44ColorIndex
 90
        5
102
RTVSPost2010Prop44ColorRGB
 90
      255
102
RTVSPost2010PropOp44
 70
     1
102
RTVSPost2010Prop45
280
     0
102
RTVSPost2010PropOp45
 70
     1
102
RTVSPost2010Prop46
 90
       50
102
RTVSPost2010PropOp46
 70
     1
102
RTVSPost2010Prop47
 90
       50
102
RTVSPost2010PropOp47
 70
     1
102
RTVSPost2010Prop48
 90
       50
102
RTVSPost2010PropOp48
 70
     1
102
RTVSPost2010Prop49
280
     0
102
RTVSPost2010PropOp49
 70
     1
102
RTVSPost2010Prop50
 90
       50
102
RTVSPost2010PropOp50
 70
     1
102
RTVSPost2010Prop51ColorIndex
 90
      256
102
RTVSPost2010Prop51ColorRGB
 90
-16777216
102
RTVSPost2010PropOp51
 70
     0
102
RTVSPost2010Prop52
140
1.0
102
RTVSPost2010PropOp52
 70
     0
102
RTVSPost2010Prop53
 90
        2
102
RTVSPost2010PropOp53
 70
     1
102
RTVSPost2010Prop54
  1
strokes_ogs.tif
102
RTVSPost2010PropOp54
 70
     1
102
RTVSPost2010Prop55
280
     0
102
RTVSPost2010PropOp55
 70
     1
102
RTVSPost2010Prop56
140
1.0
102
RTVSPost2010PropOp56
 70
     1
102
RTVSPost2010Prop57
140
1.0
102
RTVSPost2010PropOp57
 70
     1
102
RTVSPropertyOp0
 70
     1
102
RTVSPropertyOp1
 70
     1
102
RTVSPropertyOp2
 70
     1
102
RTVSPropertyOp3
 70
     1
102
RTVSPropertyOp4
 70
     1
102
RTVSPropertyOp5
 70
     1
102
RTVSPropertyOp6
 70
     1
102
RTVSPropertyOp7
 70
     1
102
RTVSPropertyOp8
 70
     1
102
RTVSPropertyOp9
 70
     1
102
RTVSPropertyOp10
 70
     1
102
RTVSPropertyOp11
 70
     1
102
RTVSPropertyOp12
 70
     1
102
RTVSPropertyOp13
 70
     1
102
RTVSPropertyOp14
 70
     1
102
RTVSPropertyOp15
 70
     1
102
RTVSPropertyOp16
 70
     1
102
RTVSPropertyOp17
 70
     1
102
RTVSPropertyOp18
 70
     1
102
RTVSPropertyOp19
 70
     1
102
RTVSPropertyOp20
 70
     1
102
RTVSPropertyOp21
 70
     1
102
RTVSPropertyOp22
 70
     1
102
RTVSPropertyOp23
 70
     1
102
RTVSPropertyOp24
 70
     1
102
RTVSPropertyOp25
 70
     1
102
RTVSPropertyOp26
 70
     1
102
RTVSPropertyOp27
 70
     1
102
RTVSPropertyOp28
 70
     1
102
RTVSPropertyOp29
 70
     1
102
RTVSPropertyOp30
 70
     1
102
RTVSPropertyOp31
 70
     1
102
RTVSPropertyOp32
 70
     1
102
RTVSPropertyOp33
 70
     1
102
RTVSPropertyOp34
 70
     1
102
RTVSPropertyOp35
 70
     1
102
RTVSPropertyOp36
 70
     1
102
RTVSPropertyOp37
 70
     1
102
RTVSPropertyOp38
 70
     1
102
RTVSPropertyOp39
 70
     1
102
RTVSPropertyOp40
 70
     1
102
RTVSPropertyOp41
 70
     1
102
RTVSPropertyOp42
 70
     1
102
RTVSPropertyOp43
 70
     1
102
RTVSPropertyOp44
 70
     1
102
RTVSPropertyOp45
 70
     1
102
RTVSPropertyOp46
 70
     1
102
RTVSPropertyOp47
 70
     1
102
RTVSPropertyOp48
 70
     1
102
RTVSPropertyOp49
 70
     1
102
RTVSPropertyOp50
 70
     1
102
RTVSPropertyOp51
 70
     0
102
RTVSPropertyOp52
 70
     0
102
RTVSPropertyOp53
 70
     1
102
RTVSPropertyOp54
 70
     1
102
RTVSPropertyOp55
 70
     1
102
RTVSPropertyOp56
 70
     1
102
RTVSPropertyOp57
 70
     1
102
RTVSPropertyOp58
 70
     1
102
RTVSPropertyOp59
 70
     1
102
RTVSPropertyOp60
 70
     1
102
RTVSPropertyOp61
 70
     1
102
RTVSPropertyOp62
 70
     1
  0
XRECORD
  5
148B
102
{ACAD_REACTORS
330
148A
102
}
330
148A
100
AcDbXrecord
280
     1
102
RTVSPost2010Prop28
280
     0
102
RTVSPost2010PropOp28
 70
     1
102
RTVSPost2010Prop29
280
     1
102
RTVSPost2010PropOp29
 70
     1
102
RTVSPost2010Prop30
280
     1
102
RTVSPost2010PropOp30
 70
     1
102
RTVSPost2010Prop31
280
     0
102
RTVSPost2010PropOp31
 70
     1
102
RTVSPost2010Prop32
280
     0
102
RTVSPost2010PropOp32
 70
     1
102
RTVSPost2010Prop33
280
     0
102
RTVSPost2010PropOp33
 70
     1
102
RTVSPost2010Prop34
280
     0
102
RTVSPost2010PropOp34
 70
     1
102
RTVSPost2010Prop35
280
     0
102
RTVSPost2010PropOp35
 70
     1
102
RTVSPost2010Prop36
280
     0
102
RTVSPost2010PropOp36
 70
     1
102
RTVSPost2010Prop37
 90
       50
102
RTVSPost2010PropOp37
 70
     1
102
RTVSPost2010Prop38
140
0.0
102
RTVSPost2010PropOp38
 70
     1
102
RTVSPost2010Prop39
140
1.0
102
RTVSPost2010PropOp39
 70
     1
102
RTVSPost2010Prop40
 90
        0
102
RTVSPost2010PropOp40
 70
     1
102
RTVSPost2010Prop41ColorIndex
 90
       18
102
RTVSPost2010Prop41ColorRGB
 90
        0
102
RTVSPost2010PropOp41
 70
     1
102
RTVSPost2010Prop42
 90
       50
102
RTVSPost2010PropOp42
 70
     1
102
RTVSPost2010Prop43
 90
        3
102
RTVSPost2010PropOp43
 70
     1
102
RTVSPost2010Prop44ColorIndex
 90
        5
102
RTVSPost2010Prop44ColorRGB
 90
      255
102
RTVSPost2010PropOp44
 70
     1
102
RTVSPost2010Prop45
280
     0
102
RTVSPost2010PropOp45
 70
     1
102
RTVSPost2010Prop46
 90
       50
102
RTVSPost2010PropOp46
 70
     1
102
RTVSPost2010Prop47
 90
       50
102
RTVSPost2010PropOp47
 70
     1
102
RTVSPost2010Prop48
 90
       50
102
RTVSPost2010PropOp48
 70
     1
102
RTVSPost2010Prop49
280
     0
102
RTVSPost2010PropOp49
 70
     1
102
RTVSPost2010Prop50
 90
       50
102
RTVSPost2010PropOp50
 70
     1
102
RTVSPost2010Prop51ColorIndex
 90
      256
102
RTVSPost2010Prop51ColorRGB
 90
-16777216
102
RTVSPost2010PropOp51
 70
     0
102
RTVSPost2010Prop52
140
1.0
102
RTVSPost2010PropOp52
 70
     0
102
RTVSPost2010Prop53
 90
        2
102
RTVSPost2010PropOp53
 70
     1
102
RTVSPost2010Prop54
  1
strokes_ogs.tif
102
RTVSPost2010PropOp54
 70
     1
102
RTVSPost2010Prop55
280
     0
102
RTVSPost2010PropOp55
 70
     1
102
RTVSPost2010Prop56
140
1.0
102
RTVSPost2010PropOp56
 70
     1
102
RTVSPost2010Prop57
140
1.0
102
RTVSPost2010PropOp57
 70
     1
102
RTVSPropertyOp0
 70
     1
102
RTVSPropertyOp1
 70
     1
102
RTVSPropertyOp2
 70
     1
102
RTVSPropertyOp3
 70
     1
102
RTVSPropertyOp4
 70
     1
102
RTVSPropertyOp5
 70
     1
102
RTVSPropertyOp6
 70
     1
102
RTVSPropertyOp7
 70
     1
102
RTVSPropertyOp8
 70
     1
102
RTVSPropertyOp9
 70
     1
102
RTVSPropertyOp10
 70
     1
102
RTVSPropertyOp11
 70
     1
102
RTVSPropertyOp12
 70
     1
102
RTVSPropertyOp13
 70
     1
102
RTVSPropertyOp14
 70
     1
102
RTVSPropertyOp15
 70
     1
102
RTVSPropertyOp16
 70
     1
102
RTVSPropertyOp17
 70
     1
102
RTVSPropertyOp18
 70
     1
102
RTVSPropertyOp19
 70
     1
102
RTVSPropertyOp20
 70
     1
102
RTVSPropertyOp21
 70
     1
102
RTVSPropertyOp22
 70
     1
102
RTVSPropertyOp23
 70
     1
102
RTVSPropertyOp24
 70
     1
102
RTVSPropertyOp25
 70
     1
102
RTVSPropertyOp26
 70
     1
102
RTVSPropertyOp27
 70
     1
102
RTVSPropertyOp28
 70
     1
102
RTVSPropertyOp29
 70
     1
102
RTVSPropertyOp30
 70
     1
102
RTVSPropertyOp31
 70
     1
102
RTVSPropertyOp32
 70
     1
102
RTVSPropertyOp33
 70
     1
102
RTVSPropertyOp34
 70
     1
102
RTVSPropertyOp35
 70
     1
102
RTVSPropertyOp36
 70
     1
102
RTVSPropertyOp37
 70
     1
102
RTVSPropertyOp38
 70
     1
102
RTVSPropertyOp39
 70
     1
102
RTVSPropertyOp40
 70
     1
102
RTVSPropertyOp41
 70
     1
102
RTVSPropertyOp42
 70
     1
102
RTVSPropertyOp43
 70
     1
102
RTVSPropertyOp44
 70
     1
102
RTVSPropertyOp45
 70
     1
102
RTVSPropertyOp46
 70
     1
102
RTVSPropertyOp47
 70
     1
102
RTVSPropertyOp48
 70
     1
102
RTVSPropertyOp49
 70
     1
102
RTVSPropertyOp50
 70
     1
102
RTVSPropertyOp51
 70
     0
102
RTVSPropertyOp52
 70
     0
102
RTVSPropertyOp53
 70
     1
102
RTVSPropertyOp54
 70
     1
102
RTVSPropertyOp55
 70
     1
102
RTVSPropertyOp56
 70
     1
102
RTVSPropertyOp57
 70
     1
102
RTVSPropertyOp58
 70
     1
102
RTVSPropertyOp59
 70
     1
102
RTVSPropertyOp60
 70
     1
102
RTVSPropertyOp61
 70
     1
102
RTVSPropertyOp62
 70
     1
  0
XRECORD
  5
1493
102
{ACAD_REACTORS
330
1492
102
}
330
1492
100
AcDbXrecord
280
     1
102
RTVSPost2010Prop28
280
     0
102
RTVSPost2010PropOp28
 70
     1
102
RTVSPost2010Prop29
280
     1
102
RTVSPost2010PropOp29
 70
     1
102
RTVSPost2010Prop30
280
     1
102
RTVSPost2010PropOp30
 70
     1
102
RTVSPost2010Prop31
280
     0
102
RTVSPost2010PropOp31
 70
     1
102
RTVSPost2010Prop32
280
     0
102
RTVSPost2010PropOp32
 70
     1
102
RTVSPost2010Prop33
280
     0
102
RTVSPost2010PropOp33
 70
     1
102
RTVSPost2010Prop34
280
     0
102
RTVSPost2010PropOp34
 70
     1
102
RTVSPost2010Prop35
280
     0
102
RTVSPost2010PropOp35
 70
     1
102
RTVSPost2010Prop36
280
     0
102
RTVSPost2010PropOp36
 70
     1
102
RTVSPost2010Prop37
 90
       50
102
RTVSPost2010PropOp37
 70
     1
102
RTVSPost2010Prop38
140
0.0
102
RTVSPost2010PropOp38
 70
     1
102
RTVSPost2010Prop39
140
1.0
102
RTVSPost2010PropOp39
 70
     1
102
RTVSPost2010Prop40
 90
        0
102
RTVSPost2010PropOp40
 70
     1
102
RTVSPost2010Prop41ColorIndex
 90
       18
102
RTVSPost2010Prop41ColorRGB
 90
        0
102
RTVSPost2010PropOp41
 70
     1
102
RTVSPost2010Prop42
 90
       50
102
RTVSPost2010PropOp42
 70
     1
102
RTVSPost2010Prop43
 90
        3
102
RTVSPost2010PropOp43
 70
     1
102
RTVSPost2010Prop44ColorIndex
 90
        5
102
RTVSPost2010Prop44ColorRGB
 90
      255
102
RTVSPost2010PropOp44
 70
     1
102
RTVSPost2010Prop45
280
     0
102
RTVSPost2010PropOp45
 70
     1
102
RTVSPost2010Prop46
 90
       50
102
RTVSPost2010PropOp46
 70
     1
102
RTVSPost2010Prop47
 90
       50
102
RTVSPost2010PropOp47
 70
     1
102
RTVSPost2010Prop48
 90
       50
102
RTVSPost2010PropOp48
 70
     1
102
RTVSPost2010Prop49
280
     0
102
RTVSPost2010PropOp49
 70
     1
102
RTVSPost2010Prop50
 90
       50
102
RTVSPost2010PropOp50
 70
     1
102
RTVSPost2010Prop51ColorIndex
 90
      256
102
RTVSPost2010Prop51ColorRGB
 90
-16777216
102
RTVSPost2010PropOp51
 70
     0
102
RTVSPost2010Prop52
140
1.0
102
RTVSPost2010PropOp52
 70
     0
102
RTVSPost2010Prop53
 90
        2
102
RTVSPost2010PropOp53
 70
     1
102
RTVSPost2010Prop54
  1
strokes_ogs.tif
102
RTVSPost2010PropOp54
 70
     1
102
RTVSPost2010Prop55
280
     0
102
RTVSPost2010PropOp55
 70
     1
102
RTVSPost2010Prop56
140
1.0
102
RTVSPost2010PropOp56
 70
     1
102
RTVSPost2010Prop57
140
1.0
102
RTVSPost2010PropOp57
 70
     1
102
RTVSPropertyOp0
 70
     1
102
RTVSPropertyOp1
 70
     1
102
RTVSPropertyOp2
 70
     1
102
RTVSPropertyOp3
 70
     1
102
RTVSPropertyOp4
 70
     1
102
RTVSPropertyOp5
 70
     1
102
RTVSPropertyOp6
 70
     1
102
RTVSPropertyOp7
 70
     1
102
RTVSPropertyOp8
 70
     1
102
RTVSPropertyOp9
 70
     1
102
RTVSPropertyOp10
 70
     1
102
RTVSPropertyOp11
 70
     1
102
RTVSPropertyOp12
 70
     1
102
RTVSPropertyOp13
 70
     1
102
RTVSPropertyOp14
 70
     1
102
RTVSPropertyOp15
 70
     1
102
RTVSPropertyOp16
 70
     1
102
RTVSPropertyOp17
 70
     1
102
RTVSPropertyOp18
 70
     1
102
RTVSPropertyOp19
 70
     1
102
RTVSPropertyOp20
 70
     1
102
RTVSPropertyOp21
 70
     1
102
RTVSPropertyOp22
 70
     1
102
RTVSPropertyOp23
 70
     1
102
RTVSPropertyOp24
 70
     1
102
RTVSPropertyOp25
 70
     1
102
RTVSPropertyOp26
 70
     1
102
RTVSPropertyOp27
 70
     1
102
RTVSPropertyOp28
 70
     1
102
RTVSPropertyOp29
 70
     1
102
RTVSPropertyOp30
 70
     1
102
RTVSPropertyOp31
 70
     1
102
RTVSPropertyOp32
 70
     1
102
RTVSPropertyOp33
 70
     1
102
RTVSPropertyOp34
 70
     1
102
RTVSPropertyOp35
 70
     1
102
RTVSPropertyOp36
 70
     1
102
RTVSPropertyOp37
 70
     1
102
RTVSPropertyOp38
 70
     1
102
RTVSPropertyOp39
 70
     1
102
RTVSPropertyOp40
 70
     1
102
RTVSPropertyOp41
 70
     1
102
RTVSPropertyOp42
 70
     1
102
RTVSPropertyOp43
 70
     1
102
RTVSPropertyOp44
 70
     1
102
RTVSPropertyOp45
 70
     1
102
RTVSPropertyOp46
 70
     1
102
RTVSPropertyOp47
 70
     1
102
RTVSPropertyOp48
 70
     1
102
RTVSPropertyOp49
 70
     1
102
RTVSPropertyOp50
 70
     1
102
RTVSPropertyOp51
 70
     0
102
RTVSPropertyOp52
 70
     0
102
RTVSPropertyOp53
 70
     1
102
RTVSPropertyOp54
 70
     1
102
RTVSPropertyOp55
 70
     1
102
RTVSPropertyOp56
 70
     1
102
RTVSPropertyOp57
 70
     1
102
RTVSPropertyOp58
 70
     1
102
RTVSPropertyOp59
 70
     1
102
RTVSPropertyOp60
 70
     1
102
RTVSPropertyOp61
 70
     1
102
RTVSPropertyOp62
 70
     1
  0
XRECORD
  5
1485
102
{ACAD_REACTORS
330
1484
102
}
330
1484
100
AcDbXrecord
280
     1
102
RTVSPost2010Prop28
280
     0
102
RTVSPost2010PropOp28
 70
     1
102
RTVSPost2010Prop29
280
     1
102
RTVSPost2010PropOp29
 70
     1
102
RTVSPost2010Prop30
280
     1
102
RTVSPost2010PropOp30
 70
     1
102
RTVSPost2010Prop31
280
     0
102
RTVSPost2010PropOp31
 70
     1
102
RTVSPost2010Prop32
280
     0
102
RTVSPost2010PropOp32
 70
     1
102
RTVSPost2010Prop33
280
     0
102
RTVSPost2010PropOp33
 70
     1
102
RTVSPost2010Prop34
280
     0
102
RTVSPost2010PropOp34
 70
     1
102
RTVSPost2010Prop35
280
     0
102
RTVSPost2010PropOp35
 70
     1
102
RTVSPost2010Prop36
280
     0
102
RTVSPost2010PropOp36
 70
     1
102
RTVSPost2010Prop37
 90
       50
102
RTVSPost2010PropOp37
 70
     1
102
RTVSPost2010Prop38
140
0.0
102
RTVSPost2010PropOp38
 70
     1
102
RTVSPost2010Prop39
140
1.0
102
RTVSPost2010PropOp39
 70
     1
102
RTVSPost2010Prop40
 90
        0
102
RTVSPost2010PropOp40
 70
     1
102
RTVSPost2010Prop41ColorIndex
 90
       18
102
RTVSPost2010Prop41ColorRGB
 90
        0
102
RTVSPost2010PropOp41
 70
     1
102
RTVSPost2010Prop42
 90
       50
102
RTVSPost2010PropOp42
 70
     1
102
RTVSPost2010Prop43
 90
        3
102
RTVSPost2010PropOp43
 70
     1
102
RTVSPost2010Prop44ColorIndex
 90
        5
102
RTVSPost2010Prop44ColorRGB
 90
      255
102
RTVSPost2010PropOp44
 70
     1
102
RTVSPost2010Prop45
280
     0
102
RTVSPost2010PropOp45
 70
     1
102
RTVSPost2010Prop46
 90
       50
102
RTVSPost2010PropOp46
 70
     1
102
RTVSPost2010Prop47
 90
       50
102
RTVSPost2010PropOp47
 70
     1
102
RTVSPost2010Prop48
 90
       50
102
RTVSPost2010PropOp48
 70
     1
102
RTVSPost2010Prop49
280
     0
102
RTVSPost2010PropOp49
 70
     1
102
RTVSPost2010Prop50
 90
       50
102
RTVSPost2010PropOp50
 70
     1
102
RTVSPost2010Prop51ColorIndex
 90
      256
102
RTVSPost2010Prop51ColorRGB
 90
-16777216
102
RTVSPost2010PropOp51
 70
     0
102
RTVSPost2010Prop52
140
1.0
102
RTVSPost2010PropOp52
 70
     0
102
RTVSPost2010Prop53
 90
        2
102
RTVSPost2010PropOp53
 70
     1
102
RTVSPost2010Prop54
  1
strokes_ogs.tif
102
RTVSPost2010PropOp54
 70
     1
102
RTVSPost2010Prop55
280
     0
102
RTVSPost2010PropOp55
 70
     1
102
RTVSPost2010Prop56
140
1.0
102
RTVSPost2010PropOp56
 70
     1
102
RTVSPost2010Prop57
140
1.0
102
RTVSPost2010PropOp57
 70
     1
102
RTVSPropertyOp0
 70
     1
102
RTVSPropertyOp1
 70
     1
102
RTVSPropertyOp2
 70
     1
102
RTVSPropertyOp3
 70
     1
102
RTVSPropertyOp4
 70
     1
102
RTVSPropertyOp5
 70
     1
102
RTVSPropertyOp6
 70
     1
102
RTVSPropertyOp7
 70
     1
102
RTVSPropertyOp8
 70
     1
102
RTVSPropertyOp9
 70
     1
102
RTVSPropertyOp10
 70
     1
102
RTVSPropertyOp11
 70
     1
102
RTVSPropertyOp12
 70
     1
102
RTVSPropertyOp13
 70
     1
102
RTVSPropertyOp14
 70
     1
102
RTVSPropertyOp15
 70
     1
102
RTVSPropertyOp16
 70
     1
102
RTVSPropertyOp17
 70
     1
102
RTVSPropertyOp18
 70
     1
102
RTVSPropertyOp19
 70
     1
102
RTVSPropertyOp20
 70
     1
102
RTVSPropertyOp21
 70
     1
102
RTVSPropertyOp22
 70
     1
102
RTVSPropertyOp23
 70
     1
102
RTVSPropertyOp24
 70
     1
102
RTVSPropertyOp25
 70
     1
102
RTVSPropertyOp26
 70
     1
102
RTVSPropertyOp27
 70
     1
102
RTVSPropertyOp28
 70
     1
102
RTVSPropertyOp29
 70
     1
102
RTVSPropertyOp30
 70
     1
102
RTVSPropertyOp31
 70
     1
102
RTVSPropertyOp32
 70
     1
102
RTVSPropertyOp33
 70
     1
102
RTVSPropertyOp34
 70
     1
102
RTVSPropertyOp35
 70
     1
102
RTVSPropertyOp36
 70
     1
102
RTVSPropertyOp37
 70
     1
102
RTVSPropertyOp38
 70
     1
102
RTVSPropertyOp39
 70
     1
102
RTVSPropertyOp40
 70
     1
102
RTVSPropertyOp41
 70
     1
102
RTVSPropertyOp42
 70
     1
102
RTVSPropertyOp43
 70
     1
102
RTVSPropertyOp44
 70
     1
102
RTVSPropertyOp45
 70
     1
102
RTVSPropertyOp46
 70
     1
102
RTVSPropertyOp47
 70
     1
102
RTVSPropertyOp48
 70
     1
102
RTVSPropertyOp49
 70
     1
102
RTVSPropertyOp50
 70
     1
102
RTVSPropertyOp51
 70
     0
102
RTVSPropertyOp52
 70
     0
102
RTVSPropertyOp53
 70
     1
102
RTVSPropertyOp54
 70
     1
102
RTVSPropertyOp55
 70
     1
102
RTVSPropertyOp56
 70
     1
102
RTVSPropertyOp57
 70
     1
102
RTVSPropertyOp58
 70
     1
102
RTVSPropertyOp59
 70
     1
102
RTVSPropertyOp60
 70
     1
102
RTVSPropertyOp61
 70
     1
102
RTVSPropertyOp62
 70
     1
  0
XRECORD
  5
1489
102
{ACAD_REACTORS
330
1488
102
}
330
1488
100
AcDbXrecord
280
     1
102
RTVSPost2010Prop28
280
     0
102
RTVSPost2010PropOp28
 70
     1
102
RTVSPost2010Prop29
280
     1
102
RTVSPost2010PropOp29
 70
     1
102
RTVSPost2010Prop30
280
     1
102
RTVSPost2010PropOp30
 70
     1
102
RTVSPost2010Prop31
280
     0
102
RTVSPost2010PropOp31
 70
     1
102
RTVSPost2010Prop32
280
     0
102
RTVSPost2010PropOp32
 70
     1
102
RTVSPost2010Prop33
280
     0
102
RTVSPost2010PropOp33
 70
     1
102
RTVSPost2010Prop34
280
     0
102
RTVSPost2010PropOp34
 70
     1
102
RTVSPost2010Prop35
280
     0
102
RTVSPost2010PropOp35
 70
     1
102
RTVSPost2010Prop36
280
     0
102
RTVSPost2010PropOp36
 70
     1
102
RTVSPost2010Prop37
 90
       50
102
RTVSPost2010PropOp37
 70
     1
102
RTVSPost2010Prop38
140
0.0
102
RTVSPost2010PropOp38
 70
     1
102
RTVSPost2010Prop39
140
1.0
102
RTVSPost2010PropOp39
 70
     1
102
RTVSPost2010Prop40
 90
        0
102
RTVSPost2010PropOp40
 70
     1
102
RTVSPost2010Prop41ColorIndex
 90
       18
102
RTVSPost2010Prop41ColorRGB
 90
        0
102
RTVSPost2010PropOp41
 70
     1
102
RTVSPost2010Prop42
 90
       50
102
RTVSPost2010PropOp42
 70
     1
102
RTVSPost2010Prop43
 90
        3
102
RTVSPost2010PropOp43
 70
     1
102
RTVSPost2010Prop44ColorIndex
 90
        5
102
RTVSPost2010Prop44ColorRGB
 90
      255
102
RTVSPost2010PropOp44
 70
     1
102
RTVSPost2010Prop45
280
     0
102
RTVSPost2010PropOp45
 70
     1
102
RTVSPost2010Prop46
 90
       50
102
RTVSPost2010PropOp46
 70
     1
102
RTVSPost2010Prop47
 90
       50
102
RTVSPost2010PropOp47
 70
     1
102
RTVSPost2010Prop48
 90
       50
102
RTVSPost2010PropOp48
 70
     1
102
RTVSPost2010Prop49
280
     0
102
RTVSPost2010PropOp49
 70
     1
102
RTVSPost2010Prop50
 90
       50
102
RTVSPost2010PropOp50
 70
     1
102
RTVSPost2010Prop51ColorIndex
 90
      256
102
RTVSPost2010Prop51ColorRGB
 90
-16777216
102
RTVSPost2010PropOp51
 70
     0
102
RTVSPost2010Prop52
140
1.0
102
RTVSPost2010PropOp52
 70
     0
102
RTVSPost2010Prop53
 90
        2
102
RTVSPost2010PropOp53
 70
     1
102
RTVSPost2010Prop54
  1
strokes_ogs.tif
102
RTVSPost2010PropOp54
 70
     1
102
RTVSPost2010Prop55
280
     0
102
RTVSPost2010PropOp55
 70
     1
102
RTVSPost2010Prop56
140
1.0
102
RTVSPost2010PropOp56
 70
     1
102
RTVSPost2010Prop57
140
1.0
102
RTVSPost2010PropOp57
 70
     1
102
RTVSPropertyOp0
 70
     1
102
RTVSPropertyOp1
 70
     1
102
RTVSPropertyOp2
 70
     1
102
RTVSPropertyOp3
 70
     1
102
RTVSPropertyOp4
 70
     1
102
RTVSPropertyOp5
 70
     1
102
RTVSPropertyOp6
 70
     1
102
RTVSPropertyOp7
 70
     1
102
RTVSPropertyOp8
 70
     1
102
RTVSPropertyOp9
 70
     1
102
RTVSPropertyOp10
 70
     1
102
RTVSPropertyOp11
 70
     1
102
RTVSPropertyOp12
 70
     1
102
RTVSPropertyOp13
 70
     1
102
RTVSPropertyOp14
 70
     1
102
RTVSPropertyOp15
 70
     1
102
RTVSPropertyOp16
 70
     1
102
RTVSPropertyOp17
 70
     1
102
RTVSPropertyOp18
 70
     1
102
RTVSPropertyOp19
 70
     1
102
RTVSPropertyOp20
 70
     1
102
RTVSPropertyOp21
 70
     1
102
RTVSPropertyOp22
 70
     1
102
RTVSPropertyOp23
 70
     1
102
RTVSPropertyOp24
 70
     1
102
RTVSPropertyOp25
 70
     1
102
RTVSPropertyOp26
 70
     1
102
RTVSPropertyOp27
 70
     1
102
RTVSPropertyOp28
 70
     1
102
RTVSPropertyOp29
 70
     1
102
RTVSPropertyOp30
 70
     1
102
RTVSPropertyOp31
 70
     1
102
RTVSPropertyOp32
 70
     1
102
RTVSPropertyOp33
 70
     1
102
RTVSPropertyOp34
 70
     1
102
RTVSPropertyOp35
 70
     1
102
RTVSPropertyOp36
 70
     1
102
RTVSPropertyOp37
 70
     1
102
RTVSPropertyOp38
 70
     1
102
RTVSPropertyOp39
 70
     1
102
RTVSPropertyOp40
 70
     1
102
RTVSPropertyOp41
 70
     1
102
RTVSPropertyOp42
 70
     1
102
RTVSPropertyOp43
 70
     1
102
RTVSPropertyOp44
 70
     1
102
RTVSPropertyOp45
 70
     1
102
RTVSPropertyOp46
 70
     1
102
RTVSPropertyOp47
 70
     1
102
RTVSPropertyOp48
 70
     1
102
RTVSPropertyOp49
 70
     1
102
RTVSPropertyOp50
 70
     1
102
RTVSPropertyOp51
 70
     0
102
RTVSPropertyOp52
 70
     0
102
RTVSPropertyOp53
 70
     1
102
RTVSPropertyOp54
 70
     1
102
RTVSPropertyOp55
 70
     1
102
RTVSPropertyOp56
 70
     1
102
RTVSPropertyOp57
 70
     1
102
RTVSPropertyOp58
 70
     1
102
RTVSPropertyOp59
 70
     1
102
RTVSPropertyOp60
 70
     1
102
RTVSPropertyOp61
 70
     1
102
RTVSPropertyOp62
 70
     1
  0
XRECORD
  5
149D
102
{ACAD_REACTORS
330
149C
102
}
330
149C
100
AcDbXrecord
280
     1
102
RTVSPost2010Prop28
280
     0
102
RTVSPost2010PropOp28
 70
     1
102
RTVSPost2010Prop29
280
     1
102
RTVSPost2010PropOp29
 70
     1
102
RTVSPost2010Prop30
280
     1
102
RTVSPost2010PropOp30
 70
     1
102
RTVSPost2010Prop31
280
     0
102
RTVSPost2010PropOp31
 70
     1
102
RTVSPost2010Prop32
280
     0
102
RTVSPost2010PropOp32
 70
     1
102
RTVSPost2010Prop33
280
     0
102
RTVSPost2010PropOp33
 70
     1
102
RTVSPost2010Prop34
280
     0
102
RTVSPost2010PropOp34
 70
     1
102
RTVSPost2010Prop35
280
     0
102
RTVSPost2010PropOp35
 70
     1
102
RTVSPost2010Prop36
280
     0
102
RTVSPost2010PropOp36
 70
     1
102
RTVSPost2010Prop37
 90
       50
102
RTVSPost2010PropOp37
 70
     1
102
RTVSPost2010Prop38
140
0.0
102
RTVSPost2010PropOp38
 70
     1
102
RTVSPost2010Prop39
140
1.0
102
RTVSPost2010PropOp39
 70
     1
102
RTVSPost2010Prop40
 90
        0
102
RTVSPost2010PropOp40
 70
     1
102
RTVSPost2010Prop41ColorIndex
 90
       18
102
RTVSPost2010Prop41ColorRGB
 90
        0
102
RTVSPost2010PropOp41
 70
     1
102
RTVSPost2010Prop42
 90
       50
102
RTVSPost2010PropOp42
 70
     1
102
RTVSPost2010Prop43
 90
        3
102
RTVSPost2010PropOp43
 70
     1
102
RTVSPost2010Prop44ColorIndex
 90
        5
102
RTVSPost2010Prop44ColorRGB
 90
      255
102
RTVSPost2010PropOp44
 70
     1
102
RTVSPost2010Prop45
280
     0
102
RTVSPost2010PropOp45
 70
     1
102
RTVSPost2010Prop46
 90
       50
102
RTVSPost2010PropOp46
 70
     1
102
RTVSPost2010Prop47
 90
       50
102
RTVSPost2010PropOp47
 70
     1
102
RTVSPost2010Prop48
 90
       50
102
RTVSPost2010PropOp48
 70
     1
102
RTVSPost2010Prop49
280
     0
102
RTVSPost2010PropOp49
 70
     1
102
RTVSPost2010Prop50
 90
       50
102
RTVSPost2010PropOp50
 70
     1
102
RTVSPost2010Prop51ColorIndex
 90
      256
102
RTVSPost2010Prop51ColorRGB
 90
-16777216
102
RTVSPost2010PropOp51
 70
     0
102
RTVSPost2010Prop52
140
1.0
102
RTVSPost2010PropOp52
 70
     0
102
RTVSPost2010Prop53
 90
        2
102
RTVSPost2010PropOp53
 70
     1
102
RTVSPost2010Prop54
  1
strokes_ogs.tif
102
RTVSPost2010PropOp54
 70
     1
102
RTVSPost2010Prop55
280
     0
102
RTVSPost2010PropOp55
 70
     1
102
RTVSPost2010Prop56
140
1.0
102
RTVSPost2010PropOp56
 70
     1
102
RTVSPost2010Prop57
140
1.0
102
RTVSPost2010PropOp57
 70
     1
102
RTVSPropertyOp0
 70
     0
102
RTVSPropertyOp1
 70
     0
102
RTVSPropertyOp2
 70
     0
102
RTVSPropertyOp3
 70
     0
102
RTVSPropertyOp4
 70
     0
102
RTVSPropertyOp5
 70
     0
102
RTVSPropertyOp6
 70
     0
102
RTVSPropertyOp7
 70
     0
102
RTVSPropertyOp8
 70
     0
102
RTVSPropertyOp9
 70
     0
102
RTVSPropertyOp10
 70
     0
102
RTVSPropertyOp11
 70
     0
102
RTVSPropertyOp12
 70
     0
102
RTVSPropertyOp13
 70
     0
102
RTVSPropertyOp14
 70
     2
102
RTVSPropertyOp15
 70
     0
102
RTVSPropertyOp16
 70
     0
102
RTVSPropertyOp17
 70
     0
102
RTVSPropertyOp18
 70
     0
102
RTVSPropertyOp19
 70
     0
102
RTVSPropertyOp20
 70
     0
102
RTVSPropertyOp21
 70
     0
102
RTVSPropertyOp22
 70
     0
102
RTVSPropertyOp23
 70
     0
102
RTVSPropertyOp24
 70
     0
102
RTVSPropertyOp25
 70
     0
102
RTVSPropertyOp26
 70
     0
102
RTVSPropertyOp27
 70
     0
102
RTVSPropertyOp28
 70
     1
102
RTVSPropertyOp29
 70
     1
102
RTVSPropertyOp30
 70
     1
102
RTVSPropertyOp31
 70
     1
102
RTVSPropertyOp32
 70
     1
102
RTVSPropertyOp33
 70
     1
102
RTVSPropertyOp34
 70
     1
102
RTVSPropertyOp35
 70
     1
102
RTVSPropertyOp36
 70
     1
102
RTVSPropertyOp37
 70
     1
102
RTVSPropertyOp38
 70
     1
102
RTVSPropertyOp39
 70
     1
102
RTVSPropertyOp40
 70
     1
102
RTVSPropertyOp41
 70
     1
102
RTVSPropertyOp42
 70
     1
102
RTVSPropertyOp43
 70
     1
102
RTVSPropertyOp44
 70
     1
102
RTVSPropertyOp45
 70
     1
102
RTVSPropertyOp46
 70
     1
102
RTVSPropertyOp47
 70
     1
102
RTVSPropertyOp48
 70
     1
102
RTVSPropertyOp49
 70
     1
102
RTVSPropertyOp50
 70
     1
102
RTVSPropertyOp51
 70
     0
102
RTVSPropertyOp52
 70
     0
102
RTVSPropertyOp53
 70
     1
102
RTVSPropertyOp54
 70
     1
102
RTVSPropertyOp55
 70
     1
102
RTVSPropertyOp56
 70
     1
102
RTVSPropertyOp57
 70
     1
102
RTVSPropertyOp58
 70
     1
102
RTVSPropertyOp59
 70
     1
102
RTVSPropertyOp60
 70
     1
102
RTVSPropertyOp61
 70
     1
102
RTVSPropertyOp62
 70
     1
  0
XRECORD
  5
1491
102
{ACAD_REACTORS
330
1490
102
}
330
1490
100
AcDbXrecord
280
     1
102
RTVSPost2010Prop28
280
     0
102
RTVSPost2010PropOp28
 70
     1
102
RTVSPost2010Prop29
280
     1
102
RTVSPost2010PropOp29
 70
     1
102
RTVSPost2010Prop30
280
     1
102
RTVSPost2010PropOp30
 70
     1
102
RTVSPost2010Prop31
280
     0
102
RTVSPost2010PropOp31
 70
     1
102
RTVSPost2010Prop32
280
     0
102
RTVSPost2010PropOp32
 70
     1
102
RTVSPost2010Prop33
280
     0
102
RTVSPost2010PropOp33
 70
     1
102
RTVSPost2010Prop34
280
     0
102
RTVSPost2010PropOp34
 70
     1
102
RTVSPost2010Prop35
280
     0
102
RTVSPost2010PropOp35
 70
     1
102
RTVSPost2010Prop36
280
     0
102
RTVSPost2010PropOp36
 70
     1
102
RTVSPost2010Prop37
 90
       50
102
RTVSPost2010PropOp37
 70
     1
102
RTVSPost2010Prop38
140
0.0
102
RTVSPost2010PropOp38
 70
     1
102
RTVSPost2010Prop39
140
1.0
102
RTVSPost2010PropOp39
 70
     1
102
RTVSPost2010Prop40
 90
        0
102
RTVSPost2010PropOp40
 70
     1
102
RTVSPost2010Prop41ColorIndex
 90
       18
102
RTVSPost2010Prop41ColorRGB
 90
        0
102
RTVSPost2010PropOp41
 70
     1
102
RTVSPost2010Prop42
 90
       50
102
RTVSPost2010PropOp42
 70
     1
102
RTVSPost2010Prop43
 90
        3
102
RTVSPost2010PropOp43
 70
     1
102
RTVSPost2010Prop44ColorIndex
 90
        5
102
RTVSPost2010Prop44ColorRGB
 90
      255
102
RTVSPost2010PropOp44
 70
     1
102
RTVSPost2010Prop45
280
     0
102
RTVSPost2010PropOp45
 70
     1
102
RTVSPost2010Prop46
 90
       50
102
RTVSPost2010PropOp46
 70
     1
102
RTVSPost2010Prop47
 90
       50
102
RTVSPost2010PropOp47
 70
     1
102
RTVSPost2010Prop48
 90
       50
102
RTVSPost2010PropOp48
 70
     1
102
RTVSPost2010Prop49
280
     0
102
RTVSPost2010PropOp49
 70
     1
102
RTVSPost2010Prop50
 90
       50
102
RTVSPost2010PropOp50
 70
     1
102
RTVSPost2010Prop51ColorIndex
 90
      256
102
RTVSPost2010Prop51ColorRGB
 90
-16777216
102
RTVSPost2010PropOp51
 70
     0
102
RTVSPost2010Prop52
140
1.0
102
RTVSPost2010PropOp52
 70
     0
102
RTVSPost2010Prop53
 90
        2
102
RTVSPost2010PropOp53
 70
     1
102
RTVSPost2010Prop54
  1
strokes_ogs.tif
102
RTVSPost2010PropOp54
 70
     1
102
RTVSPost2010Prop55
280
     0
102
RTVSPost2010PropOp55
 70
     1
102
RTVSPost2010Prop56
140
1.0
102
RTVSPost2010PropOp56
 70
     1
102
RTVSPost2010Prop57
140
1.0
102
RTVSPost2010PropOp57
 70
     1
102
RTVSPropertyOp0
 70
     1
102
RTVSPropertyOp1
 70
     1
102
RTVSPropertyOp2
 70
     1
102
RTVSPropertyOp3
 70
     1
102
RTVSPropertyOp4
 70
     1
102
RTVSPropertyOp5
 70
     1
102
RTVSPropertyOp6
 70
     1
102
RTVSPropertyOp7
 70
     1
102
RTVSPropertyOp8
 70
     1
102
RTVSPropertyOp9
 70
     1
102
RTVSPropertyOp10
 70
     1
102
RTVSPropertyOp11
 70
     1
102
RTVSPropertyOp12
 70
     1
102
RTVSPropertyOp13
 70
     1
102
RTVSPropertyOp14
 70
     1
102
RTVSPropertyOp15
 70
     1
102
RTVSPropertyOp16
 70
     1
102
RTVSPropertyOp17
 70
     1
102
RTVSPropertyOp18
 70
     1
102
RTVSPropertyOp19
 70
     1
102
RTVSPropertyOp20
 70
     1
102
RTVSPropertyOp21
 70
     1
102
RTVSPropertyOp22
 70
     1
102
RTVSPropertyOp23
 70
     1
102
RTVSPropertyOp24
 70
     1
102
RTVSPropertyOp25
 70
     1
102
RTVSPropertyOp26
 70
     1
102
RTVSPropertyOp27
 70
     1
102
RTVSPropertyOp28
 70
     1
102
RTVSPropertyOp29
 70
     1
102
RTVSPropertyOp30
 70
     1
102
RTVSPropertyOp31
 70
     1
102
RTVSPropertyOp32
 70
     1
102
RTVSPropertyOp33
 70
     1
102
RTVSPropertyOp34
 70
     1
102
RTVSPropertyOp35
 70
     1
102
RTVSPropertyOp36
 70
     1
102
RTVSPropertyOp37
 70
     1
102
RTVSPropertyOp38
 70
     1
102
RTVSPropertyOp39
 70
     1
102
RTVSPropertyOp40
 70
     1
102
RTVSPropertyOp41
 70
     1
102
RTVSPropertyOp42
 70
     1
102
RTVSPropertyOp43
 70
     1
102
RTVSPropertyOp44
 70
     1
102
RTVSPropertyOp45
 70
     1
102
RTVSPropertyOp46
 70
     1
102
RTVSPropertyOp47
 70
     1
102
RTVSPropertyOp48
 70
     1
102
RTVSPropertyOp49
 70
     1
102
RTVSPropertyOp50
 70
     1
102
RTVSPropertyOp51
 70
     0
102
RTVSPropertyOp52
 70
     0
102
RTVSPropertyOp53
 70
     1
102
RTVSPropertyOp54
 70
     1
102
RTVSPropertyOp55
 70
     1
102
RTVSPropertyOp56
 70
     1
102
RTVSPropertyOp57
 70
     1
102
RTVSPropertyOp58
 70
     1
102
RTVSPropertyOp59
 70
     1
102
RTVSPropertyOp60
 70
     1
102
RTVSPropertyOp61
 70
     1
102
RTVSPropertyOp62
 70
     1
  0
XRECORD
  5
1475
102
{ACAD_REACTORS
330
1474
102
}
330
1474
100
AcDbXrecord
280
     1
102
RTVSPost2010Prop28
280
     0
102
RTVSPost2010PropOp28
 70
     1
102
RTVSPost2010Prop29
280
     1
102
RTVSPost2010PropOp29
 70
     1
102
RTVSPost2010Prop30
280
     1
102
RTVSPost2010PropOp30
 70
     1
102
RTVSPost2010Prop31
280
     0
102
RTVSPost2010PropOp31
 70
     1
102
RTVSPost2010Prop32
280
     0
102
RTVSPost2010PropOp32
 70
     1
102
RTVSPost2010Prop33
280
     0
102
RTVSPost2010PropOp33
 70
     1
102
RTVSPost2010Prop34
280
     0
102
RTVSPost2010PropOp34
 70
     1
102
RTVSPost2010Prop35
280
     0
102
RTVSPost2010PropOp35
 70
     1
102
RTVSPost2010Prop36
280
     0
102
RTVSPost2010PropOp36
 70
     1
102
RTVSPost2010Prop37
 90
       50
102
RTVSPost2010PropOp37
 70
     1
102
RTVSPost2010Prop38
140
0.0
102
RTVSPost2010PropOp38
 70
     1
102
RTVSPost2010Prop39
140
1.0
102
RTVSPost2010PropOp39
 70
     1
102
RTVSPost2010Prop40
 90
        0
102
RTVSPost2010PropOp40
 70
     1
102
RTVSPost2010Prop41ColorIndex
 90
       18
102
RTVSPost2010Prop41ColorRGB
 90
        0
102
RTVSPost2010PropOp41
 70
     1
102
RTVSPost2010Prop42
 90
       50
102
RTVSPost2010PropOp42
 70
     1
102
RTVSPost2010Prop43
 90
        3
102
RTVSPost2010PropOp43
 70
     1
102
RTVSPost2010Prop44ColorIndex
 90
        5
102
RTVSPost2010Prop44ColorRGB
 90
      255
102
RTVSPost2010PropOp44
 70
     1
102
RTVSPost2010Prop45
280
     0
102
RTVSPost2010PropOp45
 70
     1
102
RTVSPost2010Prop46
 90
       50
102
RTVSPost2010PropOp46
 70
     1
102
RTVSPost2010Prop47
 90
       50
102
RTVSPost2010PropOp47
 70
     1
102
RTVSPost2010Prop48
 90
       50
102
RTVSPost2010PropOp48
 70
     1
102
RTVSPost2010Prop49
280
     0
102
RTVSPost2010PropOp49
 70
     1
102
RTVSPost2010Prop50
 90
       50
102
RTVSPost2010PropOp50
 70
     1
102
RTVSPost2010Prop51ColorIndex
 90
      256
102
RTVSPost2010Prop51ColorRGB
 90
-16777216
102
RTVSPost2010PropOp51
 70
     0
102
RTVSPost2010Prop52
140
1.0
102
RTVSPost2010PropOp52
 70
     0
102
RTVSPost2010Prop53
 90
        2
102
RTVSPost2010PropOp53
 70
     1
102
RTVSPost2010Prop54
  1
strokes_ogs.tif
102
RTVSPost2010PropOp54
 70
     1
102
RTVSPost2010Prop55
280
     0
102
RTVSPost2010PropOp55
 70
     1
102
RTVSPost2010Prop56
140
1.0
102
RTVSPost2010PropOp56
 70
     1
102
RTVSPost2010Prop57
140
1.0
102
RTVSPost2010PropOp57
 70
     1
102
RTVSPropertyOp0
 70
     1
102
RTVSPropertyOp1
 70
     1
102
RTVSPropertyOp2
 70
     1
102
RTVSPropertyOp3
 70
     1
102
RTVSPropertyOp4
 70
     1
102
RTVSPropertyOp5
 70
     1
102
RTVSPropertyOp6
 70
     1
102
RTVSPropertyOp7
 70
     1
102
RTVSPropertyOp8
 70
     1
102
RTVSPropertyOp9
 70
     1
102
RTVSPropertyOp10
 70
     1
102
RTVSPropertyOp11
 70
     1
102
RTVSPropertyOp12
 70
     1
102
RTVSPropertyOp13
 70
     1
102
RTVSPropertyOp14
 70
     1
102
RTVSPropertyOp15
 70
     1
102
RTVSPropertyOp16
 70
     1
102
RTVSPropertyOp17
 70
     1
102
RTVSPropertyOp18
 70
     1
102
RTVSPropertyOp19
 70
     1
102
RTVSPropertyOp20
 70
     1
102
RTVSPropertyOp21
 70
     1
102
RTVSPropertyOp22
 70
     1
102
RTVSPropertyOp23
 70
     1
102
RTVSPropertyOp24
 70
     1
102
RTVSPropertyOp25
 70
     1
102
RTVSPropertyOp26
 70
     1
102
RTVSPropertyOp27
 70
     1
102
RTVSPropertyOp28
 70
     1
102
RTVSPropertyOp29
 70
     1
102
RTVSPropertyOp30
 70
     1
102
RTVSPropertyOp31
 70
     1
102
RTVSPropertyOp32
 70
     1
102
RTVSPropertyOp33
 70
     1
102
RTVSPropertyOp34
 70
     1
102
RTVSPropertyOp35
 70
     1
102
RTVSPropertyOp36
 70
     1
102
RTVSPropertyOp37
 70
     1
102
RTVSPropertyOp38
 70
     1
102
RTVSPropertyOp39
 70
     1
102
RTVSPropertyOp40
 70
     1
102
RTVSPropertyOp41
 70
     1
102
RTVSPropertyOp42
 70
     1
102
RTVSPropertyOp43
 70
     1
102
RTVSPropertyOp44
 70
     1
102
RTVSPropertyOp45
 70
     1
102
RTVSPropertyOp46
 70
     1
102
RTVSPropertyOp47
 70
     1
102
RTVSPropertyOp48
 70
     1
102
RTVSPropertyOp49
 70
     1
102
RTVSPropertyOp50
 70
     1
102
RTVSPropertyOp51
 70
     0
102
RTVSPropertyOp52
 70
     0
102
RTVSPropertyOp53
 70
     1
102
RTVSPropertyOp54
 70
     1
102
RTVSPropertyOp55
 70
     1
102
RTVSPropertyOp56
 70
     1
102
RTVSPropertyOp57
 70
     1
102
RTVSPropertyOp58
 70
     1
102
RTVSPropertyOp59
 70
     1
102
RTVSPropertyOp60
 70
     1
102
RTVSPropertyOp61
 70
     1
102
RTVSPropertyOp62
 70
     1
  0
XRECORD
  5
1477
102
{ACAD_REACTORS
330
1476
102
}
330
1476
100
AcDbXrecord
280
     1
102
RTVSPost2010Prop28
280
     0
102
RTVSPost2010PropOp28
 70
     1
102
RTVSPost2010Prop29
280
     1
102
RTVSPost2010PropOp29
 70
     1
102
RTVSPost2010Prop30
280
     1
102
RTVSPost2010PropOp30
 70
     1
102
RTVSPost2010Prop31
280
     0
102
RTVSPost2010PropOp31
 70
     1
102
RTVSPost2010Prop32
280
     0
102
RTVSPost2010PropOp32
 70
     1
102
RTVSPost2010Prop33
280
     0
102
RTVSPost2010PropOp33
 70
     1
102
RTVSPost2010Prop34
280
     0
102
RTVSPost2010PropOp34
 70
     1
102
RTVSPost2010Prop35
280
     0
102
RTVSPost2010PropOp35
 70
     1
102
RTVSPost2010Prop36
280
     0
102
RTVSPost2010PropOp36
 70
     1
102
RTVSPost2010Prop37
 90
       50
102
RTVSPost2010PropOp37
 70
     1
102
RTVSPost2010Prop38
140
0.0
102
RTVSPost2010PropOp38
 70
     1
102
RTVSPost2010Prop39
140
1.0
102
RTVSPost2010PropOp39
 70
     1
102
RTVSPost2010Prop40
 90
        0
102
RTVSPost2010PropOp40
 70
     1
102
RTVSPost2010Prop41ColorIndex
 90
       18
102
RTVSPost2010Prop41ColorRGB
 90
        0
102
RTVSPost2010PropOp41
 70
     1
102
RTVSPost2010Prop42
 90
       50
102
RTVSPost2010PropOp42
 70
     1
102
RTVSPost2010Prop43
 90
        3
102
RTVSPost2010PropOp43
 70
     1
102
RTVSPost2010Prop44ColorIndex
 90
        5
102
RTVSPost2010Prop44ColorRGB
 90
      255
102
RTVSPost2010PropOp44
 70
     1
102
RTVSPost2010Prop45
280
     0
102
RTVSPost2010PropOp45
 70
     1
102
RTVSPost2010Prop46
 90
       50
102
RTVSPost2010PropOp46
 70
     1
102
RTVSPost2010Prop47
 90
       50
102
RTVSPost2010PropOp47
 70
     1
102
RTVSPost2010Prop48
 90
       50
102
RTVSPost2010PropOp48
 70
     1
102
RTVSPost2010Prop49
280
     0
102
RTVSPost2010PropOp49
 70
     1
102
RTVSPost2010Prop50
 90
       50
102
RTVSPost2010PropOp50
 70
     1
102
RTVSPost2010Prop51ColorIndex
 90
      256
102
RTVSPost2010Prop51ColorRGB
 90
-16777216
102
RTVSPost2010PropOp51
 70
     0
102
RTVSPost2010Prop52
140
1.0
102
RTVSPost2010PropOp52
 70
     0
102
RTVSPost2010Prop53
 90
        2
102
RTVSPost2010PropOp53
 70
     1
102
RTVSPost2010Prop54
  1
strokes_ogs.tif
102
RTVSPost2010PropOp54
 70
     1
102
RTVSPost2010Prop55
280
     0
102
RTVSPost2010PropOp55
 70
     1
102
RTVSPost2010Prop56
140
1.0
102
RTVSPost2010PropOp56
 70
     1
102
RTVSPost2010Prop57
140
1.0
102
RTVSPost2010PropOp57
 70
     1
102
RTVSPropertyOp0
 70
     1
102
RTVSPropertyOp1
 70
     1
102
RTVSPropertyOp2
 70
     1
102
RTVSPropertyOp3
 70
     1
102
RTVSPropertyOp4
 70
     1
102
RTVSPropertyOp5
 70
     1
102
RTVSPropertyOp6
 70
     1
102
RTVSPropertyOp7
 70
     1
102
RTVSPropertyOp8
 70
     1
102
RTVSPropertyOp9
 70
     1
102
RTVSPropertyOp10
 70
     1
102
RTVSPropertyOp11
 70
     1
102
RTVSPropertyOp12
 70
     1
102
RTVSPropertyOp13
 70
     1
102
RTVSPropertyOp14
 70
     1
102
RTVSPropertyOp15
 70
     1
102
RTVSPropertyOp16
 70
     1
102
RTVSPropertyOp17
 70
     1
102
RTVSPropertyOp18
 70
     1
102
RTVSPropertyOp19
 70
     1
102
RTVSPropertyOp20
 70
     1
102
RTVSPropertyOp21
 70
     1
102
RTVSPropertyOp22
 70
     1
102
RTVSPropertyOp23
 70
     1
102
RTVSPropertyOp24
 70
     1
102
RTVSPropertyOp25
 70
     1
102
RTVSPropertyOp26
 70
     1
102
RTVSPropertyOp27
 70
     1
102
RTVSPropertyOp28
 70
     1
102
RTVSPropertyOp29
 70
     1
102
RTVSPropertyOp30
 70
     1
102
RTVSPropertyOp31
 70
     1
102
RTVSPropertyOp32
 70
     1
102
RTVSPropertyOp33
 70
     1
102
RTVSPropertyOp34
 70
     1
102
RTVSPropertyOp35
 70
     1
102
RTVSPropertyOp36
 70
     1
102
RTVSPropertyOp37
 70
     1
102
RTVSPropertyOp38
 70
     1
102
RTVSPropertyOp39
 70
     1
102
RTVSPropertyOp40
 70
     1
102
RTVSPropertyOp41
 70
     1
102
RTVSPropertyOp42
 70
     1
102
RTVSPropertyOp43
 70
     1
102
RTVSPropertyOp44
 70
     1
102
RTVSPropertyOp45
 70
     1
102
RTVSPropertyOp46
 70
     1
102
RTVSPropertyOp47
 70
     1
102
RTVSPropertyOp48
 70
     1
102
RTVSPropertyOp49
 70
     1
102
RTVSPropertyOp50
 70
     1
102
RTVSPropertyOp51
 70
     0
102
RTVSPropertyOp52
 70
     0
102
RTVSPropertyOp53
 70
     1
102
RTVSPropertyOp54
 70
     1
102
RTVSPropertyOp55
 70
     1
102
RTVSPropertyOp56
 70
     1
102
RTVSPropertyOp57
 70
     1
102
RTVSPropertyOp58
 70
     1
102
RTVSPropertyOp59
 70
     1
102
RTVSPropertyOp60
 70
     1
102
RTVSPropertyOp61
 70
     1
102
RTVSPropertyOp62
 70
     1
  0
XRECORD
  5
1479
102
{ACAD_REACTORS
330
1478
102
}
330
1478
100
AcDbXrecord
280
     1
102
RTVSPost2010Prop28
280
     0
102
RTVSPost2010PropOp28
 70
     1
102
RTVSPost2010Prop29
280
     1
102
RTVSPost2010PropOp29
 70
     1
102
RTVSPost2010Prop30
280
     1
102
RTVSPost2010PropOp30
 70
     1
102
RTVSPost2010Prop31
280
     0
102
RTVSPost2010PropOp31
 70
     1
102
RTVSPost2010Prop32
280
     0
102
RTVSPost2010PropOp32
 70
     1
102
RTVSPost2010Prop33
280
     0
102
RTVSPost2010PropOp33
 70
     1
102
RTVSPost2010Prop34
280
     0
102
RTVSPost2010PropOp34
 70
     1
102
RTVSPost2010Prop35
280
     0
102
RTVSPost2010PropOp35
 70
     1
102
RTVSPost2010Prop36
280
     0
102
RTVSPost2010PropOp36
 70
     1
102
RTVSPost2010Prop37
 90
       50
102
RTVSPost2010PropOp37
 70
     1
102
RTVSPost2010Prop38
140
0.0
102
RTVSPost2010PropOp38
 70
     1
102
RTVSPost2010Prop39
140
1.0
102
RTVSPost2010PropOp39
 70
     1
102
RTVSPost2010Prop40
 90
        0
102
RTVSPost2010PropOp40
 70
     1
102
RTVSPost2010Prop41ColorIndex
 90
       18
102
RTVSPost2010Prop41ColorRGB
 90
        0
102
RTVSPost2010PropOp41
 70
     1
102
RTVSPost2010Prop42
 90
       50
102
RTVSPost2010PropOp42
 70
     1
102
RTVSPost2010Prop43
 90
        3
102
RTVSPost2010PropOp43
 70
     1
102
RTVSPost2010Prop44ColorIndex
 90
        5
102
RTVSPost2010Prop44ColorRGB
 90
      255
102
RTVSPost2010PropOp44
 70
     1
102
RTVSPost2010Prop45
280
     0
102
RTVSPost2010PropOp45
 70
     1
102
RTVSPost2010Prop46
 90
       50
102
RTVSPost2010PropOp46
 70
     1
102
RTVSPost2010Prop47
 90
       50
102
RTVSPost2010PropOp47
 70
     1
102
RTVSPost2010Prop48
 90
       50
102
RTVSPost2010PropOp48
 70
     1
102
RTVSPost2010Prop49
280
     0
102
RTVSPost2010PropOp49
 70
     1
102
RTVSPost2010Prop50
 90
       50
102
RTVSPost2010PropOp50
 70
     1
102
RTVSPost2010Prop51ColorIndex
 90
      256
102
RTVSPost2010Prop51ColorRGB
 90
-16777216
102
RTVSPost2010PropOp51
 70
     0
102
RTVSPost2010Prop52
140
1.0
102
RTVSPost2010PropOp52
 70
     0
102
RTVSPost2010Prop53
 90
        2
102
RTVSPost2010PropOp53
 70
     1
102
RTVSPost2010Prop54
  1
strokes_ogs.tif
102
RTVSPost2010PropOp54
 70
     1
102
RTVSPost2010Prop55
280
     0
102
RTVSPost2010PropOp55
 70
     1
102
RTVSPost2010Prop56
140
1.0
102
RTVSPost2010PropOp56
 70
     1
102
RTVSPost2010Prop57
140
1.0
102
RTVSPost2010PropOp57
 70
     1
102
RTVSPropertyOp0
 70
     1
102
RTVSPropertyOp1
 70
     1
102
RTVSPropertyOp2
 70
     1
102
RTVSPropertyOp3
 70
     1
102
RTVSPropertyOp4
 70
     1
102
RTVSPropertyOp5
 70
     1
102
RTVSPropertyOp6
 70
     1
102
RTVSPropertyOp7
 70
     1
102
RTVSPropertyOp8
 70
     1
102
RTVSPropertyOp9
 70
     1
102
RTVSPropertyOp10
 70
     1
102
RTVSPropertyOp11
 70
     1
102
RTVSPropertyOp12
 70
     1
102
RTVSPropertyOp13
 70
     1
102
RTVSPropertyOp14
 70
     1
102
RTVSPropertyOp15
 70
     1
102
RTVSPropertyOp16
 70
     1
102
RTVSPropertyOp17
 70
     1
102
RTVSPropertyOp18
 70
     1
102
RTVSPropertyOp19
 70
     1
102
RTVSPropertyOp20
 70
     1
102
RTVSPropertyOp21
 70
     1
102
RTVSPropertyOp22
 70
     1
102
RTVSPropertyOp23
 70
     1
102
RTVSPropertyOp24
 70
     1
102
RTVSPropertyOp25
 70
     1
102
RTVSPropertyOp26
 70
     1
102
RTVSPropertyOp27
 70
     1
102
RTVSPropertyOp28
 70
     1
102
RTVSPropertyOp29
 70
     1
102
RTVSPropertyOp30
 70
     1
102
RTVSPropertyOp31
 70
     1
102
RTVSPropertyOp32
 70
     1
102
RTVSPropertyOp33
 70
     1
102
RTVSPropertyOp34
 70
     1
102
RTVSPropertyOp35
 70
     1
102
RTVSPropertyOp36
 70
     1
102
RTVSPropertyOp37
 70
     1
102
RTVSPropertyOp38
 70
     1
102
RTVSPropertyOp39
 70
     1
102
RTVSPropertyOp40
 70
     1
102
RTVSPropertyOp41
 70
     1
102
RTVSPropertyOp42
 70
     1
102
RTVSPropertyOp43
 70
     1
102
RTVSPropertyOp44
 70
     1
102
RTVSPropertyOp45
 70
     1
102
RTVSPropertyOp46
 70
     1
102
RTVSPropertyOp47
 70
     1
102
RTVSPropertyOp48
 70
     1
102
RTVSPropertyOp49
 70
     1
102
RTVSPropertyOp50
 70
     1
102
RTVSPropertyOp51
 70
     0
102
RTVSPropertyOp52
 70
     0
102
RTVSPropertyOp53
 70
     1
102
RTVSPropertyOp54
 70
     1
102
RTVSPropertyOp55
 70
     1
102
RTVSPropertyOp56
 70
     1
102
RTVSPropertyOp57
 70
     1
102
RTVSPropertyOp58
 70
     1
102
RTVSPropertyOp59
 70
     1
102
RTVSPropertyOp60
 70
     1
102
RTVSPropertyOp61
 70
     1
102
RTVSPropertyOp62
 70
     1
  0
XRECORD
  5
147B
102
{ACAD_REACTORS
330
147A
102
}
330
147A
100
AcDbXrecord
280
     1
102
RTVSPost2010Prop28
280
     0
102
RTVSPost2010PropOp28
 70
     1
102
RTVSPost2010Prop29
280
     1
102
RTVSPost2010PropOp29
 70
     1
102
RTVSPost2010Prop30
280
     1
102
RTVSPost2010PropOp30
 70
     1
102
RTVSPost2010Prop31
280
     0
102
RTVSPost2010PropOp31
 70
     1
102
RTVSPost2010Prop32
280
     0
102
RTVSPost2010PropOp32
 70
     1
102
RTVSPost2010Prop33
280
     0
102
RTVSPost2010PropOp33
 70
     1
102
RTVSPost2010Prop34
280
     0
102
RTVSPost2010PropOp34
 70
     1
102
RTVSPost2010Prop35
280
     0
102
RTVSPost2010PropOp35
 70
     1
102
RTVSPost2010Prop36
280
     0
102
RTVSPost2010PropOp36
 70
     1
102
RTVSPost2010Prop37
 90
       50
102
RTVSPost2010PropOp37
 70
     1
102
RTVSPost2010Prop38
140
0.0
102
RTVSPost2010PropOp38
 70
     1
102
RTVSPost2010Prop39
140
1.0
102
RTVSPost2010PropOp39
 70
     1
102
RTVSPost2010Prop40
 90
        0
102
RTVSPost2010PropOp40
 70
     1
102
RTVSPost2010Prop41ColorIndex
 90
       18
102
RTVSPost2010Prop41ColorRGB
 90
        0
102
RTVSPost2010PropOp41
 70
     1
102
RTVSPost2010Prop42
 90
       50
102
RTVSPost2010PropOp42
 70
     1
102
RTVSPost2010Prop43
 90
        3
102
RTVSPost2010PropOp43
 70
     1
102
RTVSPost2010Prop44ColorIndex
 90
        5
102
RTVSPost2010Prop44ColorRGB
 90
      255
102
RTVSPost2010PropOp44
 70
     1
102
RTVSPost2010Prop45
280
     0
102
RTVSPost2010PropOp45
 70
     1
102
RTVSPost2010Prop46
 90
       50
102
RTVSPost2010PropOp46
 70
     1
102
RTVSPost2010Prop47
 90
       50
102
RTVSPost2010PropOp47
 70
     1
102
RTVSPost2010Prop48
 90
       50
102
RTVSPost2010PropOp48
 70
     1
102
RTVSPost2010Prop49
280
     0
102
RTVSPost2010PropOp49
 70
     1
102
RTVSPost2010Prop50
 90
       50
102
RTVSPost2010PropOp50
 70
     1
102
RTVSPost2010Prop51ColorIndex
 90
      256
102
RTVSPost2010Prop51ColorRGB
 90
-16777216
102
RTVSPost2010PropOp51
 70
     0
102
RTVSPost2010Prop52
140
1.0
102
RTVSPost2010PropOp52
 70
     0
102
RTVSPost2010Prop53
 90
        2
102
RTVSPost2010PropOp53
 70
     1
102
RTVSPost2010Prop54
  1
strokes_ogs.tif
102
RTVSPost2010PropOp54
 70
     1
102
RTVSPost2010Prop55
280
     0
102
RTVSPost2010PropOp55
 70
     1
102
RTVSPost2010Prop56
140
1.0
102
RTVSPost2010PropOp56
 70
     1
102
RTVSPost2010Prop57
140
1.0
102
RTVSPost2010PropOp57
 70
     1
102
RTVSPropertyOp0
 70
     1
102
RTVSPropertyOp1
 70
     1
102
RTVSPropertyOp2
 70
     1
102
RTVSPropertyOp3
 70
     1
102
RTVSPropertyOp4
 70
     1
102
RTVSPropertyOp5
 70
     1
102
RTVSPropertyOp6
 70
     1
102
RTVSPropertyOp7
 70
     1
102
RTVSPropertyOp8
 70
     1
102
RTVSPropertyOp9
 70
     1
102
RTVSPropertyOp10
 70
     1
102
RTVSPropertyOp11
 70
     1
102
RTVSPropertyOp12
 70
     1
102
RTVSPropertyOp13
 70
     1
102
RTVSPropertyOp14
 70
     1
102
RTVSPropertyOp15
 70
     1
102
RTVSPropertyOp16
 70
     1
102
RTVSPropertyOp17
 70
     1
102
RTVSPropertyOp18
 70
     1
102
RTVSPropertyOp19
 70
     1
102
RTVSPropertyOp20
 70
     1
102
RTVSPropertyOp21
 70
     1
102
RTVSPropertyOp22
 70
     1
102
RTVSPropertyOp23
 70
     1
102
RTVSPropertyOp24
 70
     1
102
RTVSPropertyOp25
 70
     1
102
RTVSPropertyOp26
 70
     1
102
RTVSPropertyOp27
 70
     1
102
RTVSPropertyOp28
 70
     1
102
RTVSPropertyOp29
 70
     1
102
RTVSPropertyOp30
 70
     1
102
RTVSPropertyOp31
 70
     1
102
RTVSPropertyOp32
 70
     1
102
RTVSPropertyOp33
 70
     1
102
RTVSPropertyOp34
 70
     1
102
RTVSPropertyOp35
 70
     1
102
RTVSPropertyOp36
 70
     1
102
RTVSPropertyOp37
 70
     1
102
RTVSPropertyOp38
 70
     1
102
RTVSPropertyOp39
 70
     1
102
RTVSPropertyOp40
 70
     1
102
RTVSPropertyOp41
 70
     1
102
RTVSPropertyOp42
 70
     1
102
RTVSPropertyOp43
 70
     1
102
RTVSPropertyOp44
 70
     1
102
RTVSPropertyOp45
 70
     1
102
RTVSPropertyOp46
 70
     1
102
RTVSPropertyOp47
 70
     1
102
RTVSPropertyOp48
 70
     1
102
RTVSPropertyOp49
 70
     1
102
RTVSPropertyOp50
 70
     1
102
RTVSPropertyOp51
 70
     0
102
RTVSPropertyOp52
 70
     0
102
RTVSPropertyOp53
 70
     1
102
RTVSPropertyOp54
 70
     1
102
RTVSPropertyOp55
 70
     1
102
RTVSPropertyOp56
 70
     1
102
RTVSPropertyOp57
 70
     1
102
RTVSPropertyOp58
 70
     1
102
RTVSPropertyOp59
 70
     1
102
RTVSPropertyOp60
 70
     1
102
RTVSPropertyOp61
 70
     1
102
RTVSPropertyOp62
 70
     1
  0
XRECORD
  5
1483
102
{ACAD_REACTORS
330
1482
102
}
330
1482
100
AcDbXrecord
280
     1
102
RTVSPost2010Prop28
280
     0
102
RTVSPost2010PropOp28
 70
     1
102
RTVSPost2010Prop29
280
     1
102
RTVSPost2010PropOp29
 70
     1
102
RTVSPost2010Prop30
280
     1
102
RTVSPost2010PropOp30
 70
     1
102
RTVSPost2010Prop31
280
     0
102
RTVSPost2010PropOp31
 70
     1
102
RTVSPost2010Prop32
280
     0
102
RTVSPost2010PropOp32
 70
     1
102
RTVSPost2010Prop33
280
     0
102
RTVSPost2010PropOp33
 70
     1
102
RTVSPost2010Prop34
280
     0
102
RTVSPost2010PropOp34
 70
     1
102
RTVSPost2010Prop35
280
     0
102
RTVSPost2010PropOp35
 70
     1
102
RTVSPost2010Prop36
280
     0
102
RTVSPost2010PropOp36
 70
     1
102
RTVSPost2010Prop37
 90
       50
102
RTVSPost2010PropOp37
 70
     1
102
RTVSPost2010Prop38
140
0.0
102
RTVSPost2010PropOp38
 70
     1
102
RTVSPost2010Prop39
140
1.0
102
RTVSPost2010PropOp39
 70
     1
102
RTVSPost2010Prop40
 90
        0
102
RTVSPost2010PropOp40
 70
     1
102
RTVSPost2010Prop41ColorIndex
 90
       18
102
RTVSPost2010Prop41ColorRGB
 90
        0
102
RTVSPost2010PropOp41
 70
     1
102
RTVSPost2010Prop42
 90
       50
102
RTVSPost2010PropOp42
 70
     1
102
RTVSPost2010Prop43
 90
        3
102
RTVSPost2010PropOp43
 70
     1
102
RTVSPost2010Prop44ColorIndex
 90
        5
102
RTVSPost2010Prop44ColorRGB
 90
      255
102
RTVSPost2010PropOp44
 70
     1
102
RTVSPost2010Prop45
280
     0
102
RTVSPost2010PropOp45
 70
     1
102
RTVSPost2010Prop46
 90
       50
102
RTVSPost2010PropOp46
 70
     1
102
RTVSPost2010Prop47
 90
       50
102
RTVSPost2010PropOp47
 70
     1
102
RTVSPost2010Prop48
 90
       50
102
RTVSPost2010PropOp48
 70
     1
102
RTVSPost2010Prop49
280
     0
102
RTVSPost2010PropOp49
 70
     1
102
RTVSPost2010Prop50
 90
       50
102
RTVSPost2010PropOp50
 70
     1
102
RTVSPost2010Prop51ColorIndex
 90
      256
102
RTVSPost2010Prop51ColorRGB
 90
-16777216
102
RTVSPost2010PropOp51
 70
     0
102
RTVSPost2010Prop52
140
1.0
102
RTVSPost2010PropOp52
 70
     0
102
RTVSPost2010Prop53
 90
        2
102
RTVSPost2010PropOp53
 70
     1
102
RTVSPost2010Prop54
  1
strokes_ogs.tif
102
RTVSPost2010PropOp54
 70
     1
102
RTVSPost2010Prop55
280
     0
102
RTVSPost2010PropOp55
 70
     1
102
RTVSPost2010Prop56
140
1.0
102
RTVSPost2010PropOp56
 70
     1
102
RTVSPost2010Prop57
140
1.0
102
RTVSPost2010PropOp57
 70
     1
102
RTVSPropertyOp0
 70
     1
102
RTVSPropertyOp1
 70
     1
102
RTVSPropertyOp2
 70
     1
102
RTVSPropertyOp3
 70
     1
102
RTVSPropertyOp4
 70
     1
102
RTVSPropertyOp5
 70
     1
102
RTVSPropertyOp6
 70
     1
102
RTVSPropertyOp7
 70
     1
102
RTVSPropertyOp8
 70
     1
102
RTVSPropertyOp9
 70
     1
102
RTVSPropertyOp10
 70
     1
102
RTVSPropertyOp11
 70
     1
102
RTVSPropertyOp12
 70
     1
102
RTVSPropertyOp13
 70
     1
102
RTVSPropertyOp14
 70
     1
102
RTVSPropertyOp15
 70
     1
102
RTVSPropertyOp16
 70
     1
102
RTVSPropertyOp17
 70
     1
102
RTVSPropertyOp18
 70
     1
102
RTVSPropertyOp19
 70
     1
102
RTVSPropertyOp20
 70
     1
102
RTVSPropertyOp21
 70
     1
102
RTVSPropertyOp22
 70
     1
102
RTVSPropertyOp23
 70
     1
102
RTVSPropertyOp24
 70
     1
102
RTVSPropertyOp25
 70
     1
102
RTVSPropertyOp26
 70
     1
102
RTVSPropertyOp27
 70
     1
102
RTVSPropertyOp28
 70
     1
102
RTVSPropertyOp29
 70
     1
102
RTVSPropertyOp30
 70
     1
102
RTVSPropertyOp31
 70
     1
102
RTVSPropertyOp32
 70
     1
102
RTVSPropertyOp33
 70
     1
102
RTVSPropertyOp34
 70
     1
102
RTVSPropertyOp35
 70
     1
102
RTVSPropertyOp36
 70
     1
102
RTVSPropertyOp37
 70
     1
102
RTVSPropertyOp38
 70
     1
102
RTVSPropertyOp39
 70
     1
102
RTVSPropertyOp40
 70
     1
102
RTVSPropertyOp41
 70
     1
102
RTVSPropertyOp42
 70
     1
102
RTVSPropertyOp43
 70
     1
102
RTVSPropertyOp44
 70
     1
102
RTVSPropertyOp45
 70
     1
102
RTVSPropertyOp46
 70
     1
102
RTVSPropertyOp47
 70
     1
102
RTVSPropertyOp48
 70
     1
102
RTVSPropertyOp49
 70
     1
102
RTVSPropertyOp50
 70
     1
102
RTVSPropertyOp51
 70
     0
102
RTVSPropertyOp52
 70
     0
102
RTVSPropertyOp53
 70
     1
102
RTVSPropertyOp54
 70
     1
102
RTVSPropertyOp55
 70
     1
102
RTVSPropertyOp56
 70
     1
102
RTVSPropertyOp57
 70
     1
102
RTVSPropertyOp58
 70
     1
102
RTVSPropertyOp59
 70
     1
102
RTVSPropertyOp60
 70
     1
102
RTVSPropertyOp61
 70
     1
102
RTVSPropertyOp62
 70
     1
  0
XRECORD
  5
1499
102
{ACAD_REACTORS
330
1498
102
}
330
1498
100
AcDbXrecord
280
     1
102
RTVSPost2010Prop28
280
     0
102
RTVSPost2010PropOp28
 70
     1
102
RTVSPost2010Prop29
280
     1
102
RTVSPost2010PropOp29
 70
     1
102
RTVSPost2010Prop30
280
     1
102
RTVSPost2010PropOp30
 70
     1
102
RTVSPost2010Prop31
280
     0
102
RTVSPost2010PropOp31
 70
     1
102
RTVSPost2010Prop32
280
     0
102
RTVSPost2010PropOp32
 70
     1
102
RTVSPost2010Prop33
280
     0
102
RTVSPost2010PropOp33
 70
     1
102
RTVSPost2010Prop34
280
     0
102
RTVSPost2010PropOp34
 70
     1
102
RTVSPost2010Prop35
280
     0
102
RTVSPost2010PropOp35
 70
     1
102
RTVSPost2010Prop36
280
     0
102
RTVSPost2010PropOp36
 70
     1
102
RTVSPost2010Prop37
 90
       50
102
RTVSPost2010PropOp37
 70
     1
102
RTVSPost2010Prop38
140
0.0
102
RTVSPost2010PropOp38
 70
     1
102
RTVSPost2010Prop39
140
1.0
102
RTVSPost2010PropOp39
 70
     1
102
RTVSPost2010Prop40
 90
        0
102
RTVSPost2010PropOp40
 70
     1
102
RTVSPost2010Prop41ColorIndex
 90
       18
102
RTVSPost2010Prop41ColorRGB
 90
        0
102
RTVSPost2010PropOp41
 70
     1
102
RTVSPost2010Prop42
 90
       50
102
RTVSPost2010PropOp42
 70
     1
102
RTVSPost2010Prop43
 90
        3
102
RTVSPost2010PropOp43
 70
     1
102
RTVSPost2010Prop44ColorIndex
 90
        5
102
RTVSPost2010Prop44ColorRGB
 90
      255
102
RTVSPost2010PropOp44
 70
     1
102
RTVSPost2010Prop45
280
     0
102
RTVSPost2010PropOp45
 70
     1
102
RTVSPost2010Prop46
 90
       50
102
RTVSPost2010PropOp46
 70
     1
102
RTVSPost2010Prop47
 90
       50
102
RTVSPost2010PropOp47
 70
     1
102
RTVSPost2010Prop48
 90
       50
102
RTVSPost2010PropOp48
 70
     1
102
RTVSPost2010Prop49
280
     0
102
RTVSPost2010PropOp49
 70
     1
102
RTVSPost2010Prop50
 90
       50
102
RTVSPost2010PropOp50
 70
     1
102
RTVSPost2010Prop51ColorIndex
 90
      256
102
RTVSPost2010Prop51ColorRGB
 90
-16777216
102
RTVSPost2010PropOp51
 70
     0
102
RTVSPost2010Prop52
140
1.0
102
RTVSPost2010PropOp52
 70
     0
102
RTVSPost2010Prop53
 90
        2
102
RTVSPost2010PropOp53
 70
     1
102
RTVSPost2010Prop54
  1
strokes_ogs.tif
102
RTVSPost2010PropOp54
 70
     1
102
RTVSPost2010Prop55
280
     0
102
RTVSPost2010PropOp55
 70
     1
102
RTVSPost2010Prop56
140
1.0
102
RTVSPost2010PropOp56
 70
     1
102
RTVSPost2010Prop57
140
1.0
102
RTVSPost2010PropOp57
 70
     1
102
RTVSPropertyOp0
 70
     0
102
RTVSPropertyOp1
 70
     0
102
RTVSPropertyOp2
 70
     0
102
RTVSPropertyOp3
 70
     0
102
RTVSPropertyOp4
 70
     0
102
RTVSPropertyOp5
 70
     0
102
RTVSPropertyOp6
 70
     0
102
RTVSPropertyOp7
 70
     0
102
RTVSPropertyOp8
 70
     0
102
RTVSPropertyOp9
 70
     0
102
RTVSPropertyOp10
 70
     0
102
RTVSPropertyOp11
 70
     0
102
RTVSPropertyOp12
 70
     0
102
RTVSPropertyOp13
 70
     0
102
RTVSPropertyOp14
 70
     2
102
RTVSPropertyOp15
 70
     0
102
RTVSPropertyOp16
 70
     0
102
RTVSPropertyOp17
 70
     0
102
RTVSPropertyOp18
 70
     0
102
RTVSPropertyOp19
 70
     0
102
RTVSPropertyOp20
 70
     0
102
RTVSPropertyOp21
 70
     0
102
RTVSPropertyOp22
 70
     0
102
RTVSPropertyOp23
 70
     0
102
RTVSPropertyOp24
 70
     0
102
RTVSPropertyOp25
 70
     0
102
RTVSPropertyOp26
 70
     0
102
RTVSPropertyOp27
 70
     0
102
RTVSPropertyOp28
 70
     1
102
RTVSPropertyOp29
 70
     1
102
RTVSPropertyOp30
 70
     1
102
RTVSPropertyOp31
 70
     1
102
RTVSPropertyOp32
 70
     1
102
RTVSPropertyOp33
 70
     1
102
RTVSPropertyOp34
 70
     1
102
RTVSPropertyOp35
 70
     1
102
RTVSPropertyOp36
 70
     1
102
RTVSPropertyOp37
 70
     1
102
RTVSPropertyOp38
 70
     1
102
RTVSPropertyOp39
 70
     1
102
RTVSPropertyOp40
 70
     1
102
RTVSPropertyOp41
 70
     1
102
RTVSPropertyOp42
 70
     1
102
RTVSPropertyOp43
 70
     1
102
RTVSPropertyOp44
 70
     1
102
RTVSPropertyOp45
 70
     1
102
RTVSPropertyOp46
 70
     1
102
RTVSPropertyOp47
 70
     1
102
RTVSPropertyOp48
 70
     1
102
RTVSPropertyOp49
 70
     1
102
RTVSPropertyOp50
 70
     1
102
RTVSPropertyOp51
 70
     0
102
RTVSPropertyOp52
 70
     0
102
RTVSPropertyOp53
 70
     1
102
RTVSPropertyOp54
 70
     1
102
RTVSPropertyOp55
 70
     1
102
RTVSPropertyOp56
 70
     1
102
RTVSPropertyOp57
 70
     1
102
RTVSPropertyOp58
 70
     1
102
RTVSPropertyOp59
 70
     1
102
RTVSPropertyOp60
 70
     1
102
RTVSPropertyOp61
 70
     1
102
RTVSPropertyOp62
 70
     1
  0
XRECORD
  5
148F
102
{ACAD_REACTORS
330
148E
102
}
330
148E
100
AcDbXrecord
280
     1
102
RTVSPost2010Prop28
280
     0
102
RTVSPost2010PropOp28
 70
     1
102
RTVSPost2010Prop29
280
     1
102
RTVSPost2010PropOp29
 70
     1
102
RTVSPost2010Prop30
280
     1
102
RTVSPost2010PropOp30
 70
     1
102
RTVSPost2010Prop31
280
     0
102
RTVSPost2010PropOp31
 70
     1
102
RTVSPost2010Prop32
280
     0
102
RTVSPost2010PropOp32
 70
     1
102
RTVSPost2010Prop33
280
     0
102
RTVSPost2010PropOp33
 70
     1
102
RTVSPost2010Prop34
280
     0
102
RTVSPost2010PropOp34
 70
     1
102
RTVSPost2010Prop35
280
     0
102
RTVSPost2010PropOp35
 70
     1
102
RTVSPost2010Prop36
280
     0
102
RTVSPost2010PropOp36
 70
     1
102
RTVSPost2010Prop37
 90
       50
102
RTVSPost2010PropOp37
 70
     1
102
RTVSPost2010Prop38
140
0.0
102
RTVSPost2010PropOp38
 70
     1
102
RTVSPost2010Prop39
140
1.0
102
RTVSPost2010PropOp39
 70
     1
102
RTVSPost2010Prop40
 90
        0
102
RTVSPost2010PropOp40
 70
     1
102
RTVSPost2010Prop41ColorIndex
 90
       18
102
RTVSPost2010Prop41ColorRGB
 90
        0
102
RTVSPost2010PropOp41
 70
     1
102
RTVSPost2010Prop42
 90
       50
102
RTVSPost2010PropOp42
 70
     1
102
RTVSPost2010Prop43
 90
        3
102
RTVSPost2010PropOp43
 70
     1
102
RTVSPost2010Prop44ColorIndex
 90
        5
102
RTVSPost2010Prop44ColorRGB
 90
      255
102
RTVSPost2010PropOp44
 70
     1
102
RTVSPost2010Prop45
280
     0
102
RTVSPost2010PropOp45
 70
     1
102
RTVSPost2010Prop46
 90
       50
102
RTVSPost2010PropOp46
 70
     1
102
RTVSPost2010Prop47
 90
       50
102
RTVSPost2010PropOp47
 70
     1
102
RTVSPost2010Prop48
 90
       50
102
RTVSPost2010PropOp48
 70
     1
102
RTVSPost2010Prop49
280
     0
102
RTVSPost2010PropOp49
 70
     1
102
RTVSPost2010Prop50
 90
       50
102
RTVSPost2010PropOp50
 70
     1
102
RTVSPost2010Prop51ColorIndex
 90
      256
102
RTVSPost2010Prop51ColorRGB
 90
-16777216
102
RTVSPost2010PropOp51
 70
     0
102
RTVSPost2010Prop52
140
1.0
102
RTVSPost2010PropOp52
 70
     0
102
RTVSPost2010Prop53
 90
        2
102
RTVSPost2010PropOp53
 70
     1
102
RTVSPost2010Prop54
  1
strokes_ogs.tif
102
RTVSPost2010PropOp54
 70
     1
102
RTVSPost2010Prop55
280
     0
102
RTVSPost2010PropOp55
 70
     1
102
RTVSPost2010Prop56
140
1.0
102
RTVSPost2010PropOp56
 70
     1
102
RTVSPost2010Prop57
140
1.0
102
RTVSPost2010PropOp57
 70
     1
102
RTVSPropertyOp0
 70
     1
102
RTVSPropertyOp1
 70
     1
102
RTVSPropertyOp2
 70
     1
102
RTVSPropertyOp3
 70
     1
102
RTVSPropertyOp4
 70
     1
102
RTVSPropertyOp5
 70
     1
102
RTVSPropertyOp6
 70
     1
102
RTVSPropertyOp7
 70
     1
102
RTVSPropertyOp8
 70
     1
102
RTVSPropertyOp9
 70
     1
102
RTVSPropertyOp10
 70
     1
102
RTVSPropertyOp11
 70
     1
102
RTVSPropertyOp12
 70
     1
102
RTVSPropertyOp13
 70
     1
102
RTVSPropertyOp14
 70
     1
102
RTVSPropertyOp15
 70
     1
102
RTVSPropertyOp16
 70
     1
102
RTVSPropertyOp17
 70
     1
102
RTVSPropertyOp18
 70
     1
102
RTVSPropertyOp19
 70
     1
102
RTVSPropertyOp20
 70
     1
102
RTVSPropertyOp21
 70
     1
102
RTVSPropertyOp22
 70
     1
102
RTVSPropertyOp23
 70
     1
102
RTVSPropertyOp24
 70
     1
102
RTVSPropertyOp25
 70
     1
102
RTVSPropertyOp26
 70
     1
102
RTVSPropertyOp27
 70
     1
102
RTVSPropertyOp28
 70
     1
102
RTVSPropertyOp29
 70
     1
102
RTVSPropertyOp30
 70
     1
102
RTVSPropertyOp31
 70
     1
102
RTVSPropertyOp32
 70
     1
102
RTVSPropertyOp33
 70
     1
102
RTVSPropertyOp34
 70
     1
102
RTVSPropertyOp35
 70
     1
102
RTVSPropertyOp36
 70
     1
102
RTVSPropertyOp37
 70
     1
102
RTVSPropertyOp38
 70
     1
102
RTVSPropertyOp39
 70
     1
102
RTVSPropertyOp40
 70
     1
102
RTVSPropertyOp41
 70
     1
102
RTVSPropertyOp42
 70
     1
102
RTVSPropertyOp43
 70
     1
102
RTVSPropertyOp44
 70
     1
102
RTVSPropertyOp45
 70
     1
102
RTVSPropertyOp46
 70
     1
102
RTVSPropertyOp47
 70
     1
102
RTVSPropertyOp48
 70
     1
102
RTVSPropertyOp49
 70
     1
102
RTVSPropertyOp50
 70
     1
102
RTVSPropertyOp51
 70
     0
102
RTVSPropertyOp52
 70
     0
102
RTVSPropertyOp53
 70
     1
102
RTVSPropertyOp54
 70
     1
102
RTVSPropertyOp55
 70
     1
102
RTVSPropertyOp56
 70
     1
102
RTVSPropertyOp57
 70
     1
102
RTVSPropertyOp58
 70
     1
102
RTVSPropertyOp59
 70
     1
102
RTVSPropertyOp60
 70
     1
102
RTVSPropertyOp61
 70
     1
102
RTVSPropertyOp62
 70
     1
  0
XRECORD
  5
149B
102
{ACAD_REACTORS
330
149A
102
}
330
149A
100
AcDbXrecord
280
     1
102
RTVSPost2010Prop28
280
     0
102
RTVSPost2010PropOp28
 70
     1
102
RTVSPost2010Prop29
280
     1
102
RTVSPost2010PropOp29
 70
     1
102
RTVSPost2010Prop30
280
     1
102
RTVSPost2010PropOp30
 70
     1
102
RTVSPost2010Prop31
280
     0
102
RTVSPost2010PropOp31
 70
     1
102
RTVSPost2010Prop32
280
     0
102
RTVSPost2010PropOp32
 70
     1
102
RTVSPost2010Prop33
280
     0
102
RTVSPost2010PropOp33
 70
     1
102
RTVSPost2010Prop34
280
     0
102
RTVSPost2010PropOp34
 70
     1
102
RTVSPost2010Prop35
280
     0
102
RTVSPost2010PropOp35
 70
     1
102
RTVSPost2010Prop36
280
     0
102
RTVSPost2010PropOp36
 70
     1
102
RTVSPost2010Prop37
 90
       50
102
RTVSPost2010PropOp37
 70
     1
102
RTVSPost2010Prop38
140
0.0
102
RTVSPost2010PropOp38
 70
     1
102
RTVSPost2010Prop39
140
1.0
102
RTVSPost2010PropOp39
 70
     1
102
RTVSPost2010Prop40
 90
        0
102
RTVSPost2010PropOp40
 70
     1
102
RTVSPost2010Prop41ColorIndex
 90
       18
102
RTVSPost2010Prop41ColorRGB
 90
        0
102
RTVSPost2010PropOp41
 70
     1
102
RTVSPost2010Prop42
 90
       50
102
RTVSPost2010PropOp42
 70
     1
102
RTVSPost2010Prop43
 90
        3
102
RTVSPost2010PropOp43
 70
     1
102
RTVSPost2010Prop44ColorIndex
 90
        5
102
RTVSPost2010Prop44ColorRGB
 90
      255
102
RTVSPost2010PropOp44
 70
     1
102
RTVSPost2010Prop45
280
     0
102
RTVSPost2010PropOp45
 70
     1
102
RTVSPost2010Prop46
 90
       50
102
RTVSPost2010PropOp46
 70
     1
102
RTVSPost2010Prop47
 90
       50
102
RTVSPost2010PropOp47
 70
     1
102
RTVSPost2010Prop48
 90
       50
102
RTVSPost2010PropOp48
 70
     1
102
RTVSPost2010Prop49
280
     0
102
RTVSPost2010PropOp49
 70
     1
102
RTVSPost2010Prop50
 90
       50
102
RTVSPost2010PropOp50
 70
     1
102
RTVSPost2010Prop51ColorIndex
 90
      256
102
RTVSPost2010Prop51ColorRGB
 90
-16777216
102
RTVSPost2010PropOp51
 70
     0
102
RTVSPost2010Prop52
140
1.0
102
RTVSPost2010PropOp52
 70
     0
102
RTVSPost2010Prop53
 90
        2
102
RTVSPost2010PropOp53
 70
     1
102
RTVSPost2010Prop54
  1
strokes_ogs.tif
102
RTVSPost2010PropOp54
 70
     1
102
RTVSPost2010Prop55
280
     0
102
RTVSPost2010PropOp55
 70
     1
102
RTVSPost2010Prop56
140
1.0
102
RTVSPost2010PropOp56
 70
     1
102
RTVSPost2010Prop57
140
1.0
102
RTVSPost2010PropOp57
 70
     1
102
RTVSPropertyOp0
 70
     0
102
RTVSPropertyOp1
 70
     0
102
RTVSPropertyOp2
 70
     0
102
RTVSPropertyOp3
 70
     0
102
RTVSPropertyOp4
 70
     0
102
RTVSPropertyOp5
 70
     0
102
RTVSPropertyOp6
 70
     0
102
RTVSPropertyOp7
 70
     0
102
RTVSPropertyOp8
 70
     0
102
RTVSPropertyOp9
 70
     0
102
RTVSPropertyOp10
 70
     0
102
RTVSPropertyOp11
 70
     0
102
RTVSPropertyOp12
 70
     0
102
RTVSPropertyOp13
 70
     0
102
RTVSPropertyOp14
 70
     2
102
RTVSPropertyOp15
 70
     0
102
RTVSPropertyOp16
 70
     0
102
RTVSPropertyOp17
 70
     0
102
RTVSPropertyOp18
 70
     0
102
RTVSPropertyOp19
 70
     0
102
RTVSPropertyOp20
 70
     0
102
RTVSPropertyOp21
 70
     0
102
RTVSPropertyOp22
 70
     0
102
RTVSPropertyOp23
 70
     0
102
RTVSPropertyOp24
 70
     0
102
RTVSPropertyOp25
 70
     0
102
RTVSPropertyOp26
 70
     0
102
RTVSPropertyOp27
 70
     0
102
RTVSPropertyOp28
 70
     1
102
RTVSPropertyOp29
 70
     1
102
RTVSPropertyOp30
 70
     1
102
RTVSPropertyOp31
 70
     1
102
RTVSPropertyOp32
 70
     1
102
RTVSPropertyOp33
 70
     1
102
RTVSPropertyOp34
 70
     1
102
RTVSPropertyOp35
 70
     1
102
RTVSPropertyOp36
 70
     1
102
RTVSPropertyOp37
 70
     1
102
RTVSPropertyOp38
 70
     1
102
RTVSPropertyOp39
 70
     1
102
RTVSPropertyOp40
 70
     1
102
RTVSPropertyOp41
 70
     1
102
RTVSPropertyOp42
 70
     1
102
RTVSPropertyOp43
 70
     1
102
RTVSPropertyOp44
 70
     1
102
RTVSPropertyOp45
 70
     1
102
RTVSPropertyOp46
 70
     1
102
RTVSPropertyOp47
 70
     1
102
RTVSPropertyOp48
 70
     1
102
RTVSPropertyOp49
 70
     1
102
RTVSPropertyOp50
 70
     1
102
RTVSPropertyOp51
 70
     0
102
RTVSPropertyOp52
 70
     0
102
RTVSPropertyOp53
 70
     1
102
RTVSPropertyOp54
 70
     1
102
RTVSPropertyOp55
 70
     1
102
RTVSPropertyOp56
 70
     1
102
RTVSPropertyOp57
 70
     1
102
RTVSPropertyOp58
 70
     1
102
RTVSPropertyOp59
 70
     1
102
RTVSPropertyOp60
 70
     1
102
RTVSPropertyOp61
 70
     1
102
RTVSPropertyOp62
 70
     1
  0
XRECORD
  5
1487
102
{ACAD_REACTORS
330
1486
102
}
330
1486
100
AcDbXrecord
280
     1
102
RTVSPost2010Prop28
280
     0
102
RTVSPost2010PropOp28
 70
     1
102
RTVSPost2010Prop29
280
     1
102
RTVSPost2010PropOp29
 70
     1
102
RTVSPost2010Prop30
280
     1
102
RTVSPost2010PropOp30
 70
     1
102
RTVSPost2010Prop31
280
     0
102
RTVSPost2010PropOp31
 70
     1
102
RTVSPost2010Prop32
280
     0
102
RTVSPost2010PropOp32
 70
     1
102
RTVSPost2010Prop33
280
     0
102
RTVSPost2010PropOp33
 70
     1
102
RTVSPost2010Prop34
280
     0
102
RTVSPost2010PropOp34
 70
     1
102
RTVSPost2010Prop35
280
     0
102
RTVSPost2010PropOp35
 70
     1
102
RTVSPost2010Prop36
280
     0
102
RTVSPost2010PropOp36
 70
     1
102
RTVSPost2010Prop37
 90
       50
102
RTVSPost2010PropOp37
 70
     1
102
RTVSPost2010Prop38
140
0.0
102
RTVSPost2010PropOp38
 70
     1
102
RTVSPost2010Prop39
140
1.0
102
RTVSPost2010PropOp39
 70
     1
102
RTVSPost2010Prop40
 90
        0
102
RTVSPost2010PropOp40
 70
     1
102
RTVSPost2010Prop41ColorIndex
 90
       18
102
RTVSPost2010Prop41ColorRGB
 90
        0
102
RTVSPost2010PropOp41
 70
     1
102
RTVSPost2010Prop42
 90
       50
102
RTVSPost2010PropOp42
 70
     1
102
RTVSPost2010Prop43
 90
        3
102
RTVSPost2010PropOp43
 70
     1
102
RTVSPost2010Prop44ColorIndex
 90
        5
102
RTVSPost2010Prop44ColorRGB
 90
      255
102
RTVSPost2010PropOp44
 70
     1
102
RTVSPost2010Prop45
280
     0
102
RTVSPost2010PropOp45
 70
     1
102
RTVSPost2010Prop46
 90
       50
102
RTVSPost2010PropOp46
 70
     1
102
RTVSPost2010Prop47
 90
       50
102
RTVSPost2010PropOp47
 70
     1
102
RTVSPost2010Prop48
 90
       50
102
RTVSPost2010PropOp48
 70
     1
102
RTVSPost2010Prop49
280
     0
102
RTVSPost2010PropOp49
 70
     1
102
RTVSPost2010Prop50
 90
       50
102
RTVSPost2010PropOp50
 70
     1
102
RTVSPost2010Prop51ColorIndex
 90
      256
102
RTVSPost2010Prop51ColorRGB
 90
-16777216
102
RTVSPost2010PropOp51
 70
     0
102
RTVSPost2010Prop52
140
1.0
102
RTVSPost2010PropOp52
 70
     0
102
RTVSPost2010Prop53
 90
        2
102
RTVSPost2010PropOp53
 70
     1
102
RTVSPost2010Prop54
  1
strokes_ogs.tif
102
RTVSPost2010PropOp54
 70
     1
102
RTVSPost2010Prop55
280
     0
102
RTVSPost2010PropOp55
 70
     1
102
RTVSPost2010Prop56
140
1.0
102
RTVSPost2010PropOp56
 70
     1
102
RTVSPost2010Prop57
140
1.0
102
RTVSPost2010PropOp57
 70
     1
102
RTVSPropertyOp0
 70
     1
102
RTVSPropertyOp1
 70
     1
102
RTVSPropertyOp2
 70
     1
102
RTVSPropertyOp3
 70
     1
102
RTVSPropertyOp4
 70
     1
102
RTVSPropertyOp5
 70
     1
102
RTVSPropertyOp6
 70
     1
102
RTVSPropertyOp7
 70
     1
102
RTVSPropertyOp8
 70
     1
102
RTVSPropertyOp9
 70
     1
102
RTVSPropertyOp10
 70
     1
102
RTVSPropertyOp11
 70
     1
102
RTVSPropertyOp12
 70
     1
102
RTVSPropertyOp13
 70
     1
102
RTVSPropertyOp14
 70
     1
102
RTVSPropertyOp15
 70
     1
102
RTVSPropertyOp16
 70
     1
102
RTVSPropertyOp17
 70
     1
102
RTVSPropertyOp18
 70
     1
102
RTVSPropertyOp19
 70
     1
102
RTVSPropertyOp20
 70
     1
102
RTVSPropertyOp21
 70
     1
102
RTVSPropertyOp22
 70
     1
102
RTVSPropertyOp23
 70
     1
102
RTVSPropertyOp24
 70
     1
102
RTVSPropertyOp25
 70
     1
102
RTVSPropertyOp26
 70
     1
102
RTVSPropertyOp27
 70
     1
102
RTVSPropertyOp28
 70
     1
102
RTVSPropertyOp29
 70
     1
102
RTVSPropertyOp30
 70
     1
102
RTVSPropertyOp31
 70
     1
102
RTVSPropertyOp32
 70
     1
102
RTVSPropertyOp33
 70
     1
102
RTVSPropertyOp34
 70
     1
102
RTVSPropertyOp35
 70
     1
102
RTVSPropertyOp36
 70
     1
102
RTVSPropertyOp37
 70
     1
102
RTVSPropertyOp38
 70
     1
102
RTVSPropertyOp39
 70
     1
102
RTVSPropertyOp40
 70
     1
102
RTVSPropertyOp41
 70
     1
102
RTVSPropertyOp42
 70
     1
102
RTVSPropertyOp43
 70
     1
102
RTVSPropertyOp44
 70
     1
102
RTVSPropertyOp45
 70
     1
102
RTVSPropertyOp46
 70
     1
102
RTVSPropertyOp47
 70
     1
102
RTVSPropertyOp48
 70
     1
102
RTVSPropertyOp49
 70
     1
102
RTVSPropertyOp50
 70
     1
102
RTVSPropertyOp51
 70
     0
102
RTVSPropertyOp52
 70
     0
102
RTVSPropertyOp53
 70
     1
102
RTVSPropertyOp54
 70
     1
102
RTVSPropertyOp55
 70
     1
102
RTVSPropertyOp56
 70
     1
102
RTVSPropertyOp57
 70
     1
102
RTVSPropertyOp58
 70
     1
102
RTVSPropertyOp59
 70
     1
102
RTVSPropertyOp60
 70
     1
102
RTVSPropertyOp61
 70
     1
102
RTVSPropertyOp62
 70
     1
  0
XRECORD
  5
14A7
102
{ACAD_REACTORS
330
14A6
102
}
330
14A6
100
AcDbXrecord
280
     1
102
RTVSPost2010Prop28
280
     0
102
RTVSPost2010PropOp28
 70
     1
102
RTVSPost2010Prop29
280
     1
102
RTVSPost2010PropOp29
 70
     1
102
RTVSPost2010Prop30
280
     1
102
RTVSPost2010PropOp30
 70
     1
102
RTVSPost2010Prop31
280
     0
102
RTVSPost2010PropOp31
 70
     1
102
RTVSPost2010Prop32
280
     0
102
RTVSPost2010PropOp32
 70
     1
102
RTVSPost2010Prop33
280
     0
102
RTVSPost2010PropOp33
 70
     1
102
RTVSPost2010Prop34
280
     0
102
RTVSPost2010PropOp34
 70
     1
102
RTVSPost2010Prop35
280
     0
102
RTVSPost2010PropOp35
 70
     1
102
RTVSPost2010Prop36
280
     0
102
RTVSPost2010PropOp36
 70
     1
102
RTVSPost2010Prop37
 90
       50
102
RTVSPost2010PropOp37
 70
     1
102
RTVSPost2010Prop38
140
0.0
102
RTVSPost2010PropOp38
 70
     1
102
RTVSPost2010Prop39
140
1.0
102
RTVSPost2010PropOp39
 70
     1
102
RTVSPost2010Prop40
 90
        0
102
RTVSPost2010PropOp40
 70
     1
102
RTVSPost2010Prop41ColorIndex
 90
       18
102
RTVSPost2010Prop41ColorRGB
 90
        0
102
RTVSPost2010PropOp41
 70
     1
102
RTVSPost2010Prop42
 90
       50
102
RTVSPost2010PropOp42
 70
     1
102
RTVSPost2010Prop43
 90
        3
102
RTVSPost2010PropOp43
 70
     1
102
RTVSPost2010Prop44ColorIndex
 90
        5
102
RTVSPost2010Prop44ColorRGB
 90
      255
102
RTVSPost2010PropOp44
 70
     1
102
RTVSPost2010Prop45
280
     0
102
RTVSPost2010PropOp45
 70
     1
102
RTVSPost2010Prop46
 90
       50
102
RTVSPost2010PropOp46
 70
     1
102
RTVSPost2010Prop47
 90
       50
102
RTVSPost2010PropOp47
 70
     1
102
RTVSPost2010Prop48
 90
       50
102
RTVSPost2010PropOp48
 70
     1
102
RTVSPost2010Prop49
280
     0
102
RTVSPost2010PropOp49
 70
     1
102
RTVSPost2010Prop50
 90
       50
102
RTVSPost2010PropOp50
 70
     1
102
RTVSPost2010Prop51ColorIndex
 90
      256
102
RTVSPost2010Prop51ColorRGB
 90
-16777216
102
RTVSPost2010PropOp51
 70
     0
102
RTVSPost2010Prop52
140
1.0
102
RTVSPost2010PropOp52
 70
     0
102
RTVSPost2010Prop53
 90
        2
102
RTVSPost2010PropOp53
 70
     1
102
RTVSPost2010Prop54
  1
strokes_ogs.tif
102
RTVSPost2010PropOp54
 70
     1
102
RTVSPost2010Prop55
280
     0
102
RTVSPost2010PropOp55
 70
     1
102
RTVSPost2010Prop56
140
1.0
102
RTVSPost2010PropOp56
 70
     1
102
RTVSPost2010Prop57
140
1.0
102
RTVSPost2010PropOp57
 70
     1
102
RTVSPropertyOp0
 70
     1
102
RTVSPropertyOp1
 70
     1
102
RTVSPropertyOp2
 70
     1
102
RTVSPropertyOp3
 70
     1
102
RTVSPropertyOp4
 70
     1
102
RTVSPropertyOp5
 70
     1
102
RTVSPropertyOp6
 70
     1
102
RTVSPropertyOp7
 70
     1
102
RTVSPropertyOp8
 70
     1
102
RTVSPropertyOp9
 70
     1
102
RTVSPropertyOp10
 70
     1
102
RTVSPropertyOp11
 70
     1
102
RTVSPropertyOp12
 70
     1
102
RTVSPropertyOp13
 70
     1
102
RTVSPropertyOp14
 70
     1
102
RTVSPropertyOp15
 70
     1
102
RTVSPropertyOp16
 70
     1
102
RTVSPropertyOp17
 70
     1
102
RTVSPropertyOp18
 70
     1
102
RTVSPropertyOp19
 70
     1
102
RTVSPropertyOp20
 70
     1
102
RTVSPropertyOp21
 70
     1
102
RTVSPropertyOp22
 70
     1
102
RTVSPropertyOp23
 70
     1
102
RTVSPropertyOp24
 70
     1
102
RTVSPropertyOp25
 70
     1
102
RTVSPropertyOp26
 70
     1
102
RTVSPropertyOp27
 70
     1
102
RTVSPropertyOp28
 70
     1
102
RTVSPropertyOp29
 70
     1
102
RTVSPropertyOp30
 70
     1
102
RTVSPropertyOp31
 70
     1
102
RTVSPropertyOp32
 70
     1
102
RTVSPropertyOp33
 70
     1
102
RTVSPropertyOp34
 70
     1
102
RTVSPropertyOp35
 70
     1
102
RTVSPropertyOp36
 70
     1
102
RTVSPropertyOp37
 70
     1
102
RTVSPropertyOp38
 70
     1
102
RTVSPropertyOp39
 70
     1
102
RTVSPropertyOp40
 70
     1
102
RTVSPropertyOp41
 70
     1
102
RTVSPropertyOp42
 70
     1
102
RTVSPropertyOp43
 70
     1
102
RTVSPropertyOp44
 70
     1
102
RTVSPropertyOp45
 70
     1
102
RTVSPropertyOp46
 70
     1
102
RTVSPropertyOp47
 70
     1
102
RTVSPropertyOp48
 70
     1
102
RTVSPropertyOp49
 70
     1
102
RTVSPropertyOp50
 70
     1
102
RTVSPropertyOp51
 70
     0
102
RTVSPropertyOp52
 70
     0
102
RTVSPropertyOp53
 70
     1
102
RTVSPropertyOp54
 70
     1
102
RTVSPropertyOp55
 70
     1
102
RTVSPropertyOp56
 70
     1
102
RTVSPropertyOp57
 70
     1
102
RTVSPropertyOp58
 70
     1
102
RTVSPropertyOp59
 70
     1
102
RTVSPropertyOp60
 70
     1
102
RTVSPropertyOp61
 70
     1
102
RTVSPropertyOp62
 70
     1
  0
XRECORD
  5
14A5
102
{ACAD_REACTORS
330
14A4
102
}
330
14A4
100
AcDbXrecord
280
     1
102
RTVSPost2010Prop28
280
     0
102
RTVSPost2010PropOp28
 70
     1
102
RTVSPost2010Prop29
280
     1
102
RTVSPost2010PropOp29
 70
     1
102
RTVSPost2010Prop30
280
     1
102
RTVSPost2010PropOp30
 70
     1
102
RTVSPost2010Prop31
280
     0
102
RTVSPost2010PropOp31
 70
     1
102
RTVSPost2010Prop32
280
     0
102
RTVSPost2010PropOp32
 70
     1
102
RTVSPost2010Prop33
280
     0
102
RTVSPost2010PropOp33
 70
     1
102
RTVSPost2010Prop34
280
     0
102
RTVSPost2010PropOp34
 70
     1
102
RTVSPost2010Prop35
280
     0
102
RTVSPost2010PropOp35
 70
     1
102
RTVSPost2010Prop36
280
     0
102
RTVSPost2010PropOp36
 70
     1
102
RTVSPost2010Prop37
 90
       50
102
RTVSPost2010PropOp37
 70
     1
102
RTVSPost2010Prop38
140
0.0
102
RTVSPost2010PropOp38
 70
     1
102
RTVSPost2010Prop39
140
1.0
102
RTVSPost2010PropOp39
 70
     1
102
RTVSPost2010Prop40
 90
        0
102
RTVSPost2010PropOp40
 70
     1
102
RTVSPost2010Prop41ColorIndex
 90
       18
102
RTVSPost2010Prop41ColorRGB
 90
        0
102
RTVSPost2010PropOp41
 70
     1
102
RTVSPost2010Prop42
 90
       50
102
RTVSPost2010PropOp42
 70
     1
102
RTVSPost2010Prop43
 90
        3
102
RTVSPost2010PropOp43
 70
     1
102
RTVSPost2010Prop44ColorIndex
 90
        5
102
RTVSPost2010Prop44ColorRGB
 90
      255
102
RTVSPost2010PropOp44
 70
     1
102
RTVSPost2010Prop45
280
     0
102
RTVSPost2010PropOp45
 70
     1
102
RTVSPost2010Prop46
 90
       50
102
RTVSPost2010PropOp46
 70
     1
102
RTVSPost2010Prop47
 90
       50
102
RTVSPost2010PropOp47
 70
     1
102
RTVSPost2010Prop48
 90
       50
102
RTVSPost2010PropOp48
 70
     1
102
RTVSPost2010Prop49
280
     0
102
RTVSPost2010PropOp49
 70
     1
102
RTVSPost2010Prop50
 90
       50
102
RTVSPost2010PropOp50
 70
     1
102
RTVSPost2010Prop51ColorIndex
 90
      256
102
RTVSPost2010Prop51ColorRGB
 90
-16777216
102
RTVSPost2010PropOp51
 70
     0
102
RTVSPost2010Prop52
140
1.0
102
RTVSPost2010PropOp52
 70
     0
102
RTVSPost2010Prop53
 90
        2
102
RTVSPost2010PropOp53
 70
     1
102
RTVSPost2010Prop54
  1
strokes_ogs.tif
102
RTVSPost2010PropOp54
 70
     1
102
RTVSPost2010Prop55
280
     0
102
RTVSPost2010PropOp55
 70
     1
102
RTVSPost2010Prop56
140
1.0
102
RTVSPost2010PropOp56
 70
     1
102
RTVSPost2010Prop57
140
1.0
102
RTVSPost2010PropOp57
 70
     1
102
RTVSPropertyOp0
 70
     1
102
RTVSPropertyOp1
 70
     1
102
RTVSPropertyOp2
 70
     1
102
RTVSPropertyOp3
 70
     1
102
RTVSPropertyOp4
 70
     1
102
RTVSPropertyOp5
 70
     1
102
RTVSPropertyOp6
 70
     1
102
RTVSPropertyOp7
 70
     1
102
RTVSPropertyOp8
 70
     1
102
RTVSPropertyOp9
 70
     1
102
RTVSPropertyOp10
 70
     1
102
RTVSPropertyOp11
 70
     1
102
RTVSPropertyOp12
 70
     1
102
RTVSPropertyOp13
 70
     1
102
RTVSPropertyOp14
 70
     1
102
RTVSPropertyOp15
 70
     1
102
RTVSPropertyOp16
 70
     1
102
RTVSPropertyOp17
 70
     1
102
RTVSPropertyOp18
 70
     1
102
RTVSPropertyOp19
 70
     1
102
RTVSPropertyOp20
 70
     1
102
RTVSPropertyOp21
 70
     1
102
RTVSPropertyOp22
 70
     1
102
RTVSPropertyOp23
 70
     1
102
RTVSPropertyOp24
 70
     1
102
RTVSPropertyOp25
 70
     1
102
RTVSPropertyOp26
 70
     1
102
RTVSPropertyOp27
 70
     1
102
RTVSPropertyOp28
 70
     1
102
RTVSPropertyOp29
 70
     1
102
RTVSPropertyOp30
 70
     1
102
RTVSPropertyOp31
 70
     1
102
RTVSPropertyOp32
 70
     1
102
RTVSPropertyOp33
 70
     1
102
RTVSPropertyOp34
 70
     1
102
RTVSPropertyOp35
 70
     1
102
RTVSPropertyOp36
 70
     1
102
RTVSPropertyOp37
 70
     1
102
RTVSPropertyOp38
 70
     1
102
RTVSPropertyOp39
 70
     1
102
RTVSPropertyOp40
 70
     1
102
RTVSPropertyOp41
 70
     1
102
RTVSPropertyOp42
 70
     1
102
RTVSPropertyOp43
 70
     1
102
RTVSPropertyOp44
 70
     1
102
RTVSPropertyOp45
 70
     1
102
RTVSPropertyOp46
 70
     1
102
RTVSPropertyOp47
 70
     1
102
RTVSPropertyOp48
 70
     1
102
RTVSPropertyOp49
 70
     1
102
RTVSPropertyOp50
 70
     1
102
RTVSPropertyOp51
 70
     0
102
RTVSPropertyOp52
 70
     0
102
RTVSPropertyOp53
 70
     1
102
RTVSPropertyOp54
 70
     1
102
RTVSPropertyOp55
 70
     1
102
RTVSPropertyOp56
 70
     1
102
RTVSPropertyOp57
 70
     1
102
RTVSPropertyOp58
 70
     1
102
RTVSPropertyOp59
 70
     1
102
RTVSPropertyOp60
 70
     1
102
RTVSPropertyOp61
 70
     1
102
RTVSPropertyOp62
 70
     1
  0
XRECORD
  5
149F
102
{ACAD_REACTORS
330
149E
102
}
330
149E
100
AcDbXrecord
280
     1
102
RTVSPost2010Prop28
280
     0
102
RTVSPost2010PropOp28
 70
     1
102
RTVSPost2010Prop29
280
     1
102
RTVSPost2010PropOp29
 70
     1
102
RTVSPost2010Prop30
280
     1
102
RTVSPost2010PropOp30
 70
     1
102
RTVSPost2010Prop31
280
     0
102
RTVSPost2010PropOp31
 70
     1
102
RTVSPost2010Prop32
280
     0
102
RTVSPost2010PropOp32
 70
     1
102
RTVSPost2010Prop33
280
     0
102
RTVSPost2010PropOp33
 70
     1
102
RTVSPost2010Prop34
280
     0
102
RTVSPost2010PropOp34
 70
     1
102
RTVSPost2010Prop35
280
     0
102
RTVSPost2010PropOp35
 70
     1
102
RTVSPost2010Prop36
280
     0
102
RTVSPost2010PropOp36
 70
     1
102
RTVSPost2010Prop37
 90
       50
102
RTVSPost2010PropOp37
 70
     1
102
RTVSPost2010Prop38
140
0.0
102
RTVSPost2010PropOp38
 70
     1
102
RTVSPost2010Prop39
140
1.0
102
RTVSPost2010PropOp39
 70
     1
102
RTVSPost2010Prop40
 90
        0
102
RTVSPost2010PropOp40
 70
     1
102
RTVSPost2010Prop41ColorIndex
 90
       18
102
RTVSPost2010Prop41ColorRGB
 90
        0
102
RTVSPost2010PropOp41
 70
     1
102
RTVSPost2010Prop42
 90
       50
102
RTVSPost2010PropOp42
 70
     1
102
RTVSPost2010Prop43
 90
        3
102
RTVSPost2010PropOp43
 70
     1
102
RTVSPost2010Prop44ColorIndex
 90
        5
102
RTVSPost2010Prop44ColorRGB
 90
      255
102
RTVSPost2010PropOp44
 70
     1
102
RTVSPost2010Prop45
280
     0
102
RTVSPost2010PropOp45
 70
     1
102
RTVSPost2010Prop46
 90
       50
102
RTVSPost2010PropOp46
 70
     1
102
RTVSPost2010Prop47
 90
       50
102
RTVSPost2010PropOp47
 70
     1
102
RTVSPost2010Prop48
 90
       50
102
RTVSPost2010PropOp48
 70
     1
102
RTVSPost2010Prop49
280
     0
102
RTVSPost2010PropOp49
 70
     1
102
RTVSPost2010Prop50
 90
       50
102
RTVSPost2010PropOp50
 70
     1
102
RTVSPost2010Prop51ColorIndex
 90
      256
102
RTVSPost2010Prop51ColorRGB
 90
-16777216
102
RTVSPost2010PropOp51
 70
     0
102
RTVSPost2010Prop52
140
1.0
102
RTVSPost2010PropOp52
 70
     0
102
RTVSPost2010Prop53
 90
        2
102
RTVSPost2010PropOp53
 70
     1
102
RTVSPost2010Prop54
  1
strokes_ogs.tif
102
RTVSPost2010PropOp54
 70
     1
102
RTVSPost2010Prop55
280
     0
102
RTVSPost2010PropOp55
 70
     1
102
RTVSPost2010Prop56
140
1.0
102
RTVSPost2010PropOp56
 70
     1
102
RTVSPost2010Prop57
140
1.0
102
RTVSPost2010PropOp57
 70
     1
102
RTVSPropertyOp0
 70
     1
102
RTVSPropertyOp1
 70
     1
102
RTVSPropertyOp2
 70
     1
102
RTVSPropertyOp3
 70
     1
102
RTVSPropertyOp4
 70
     1
102
RTVSPropertyOp5
 70
     1
102
RTVSPropertyOp6
 70
     1
102
RTVSPropertyOp7
 70
     1
102
RTVSPropertyOp8
 70
     1
102
RTVSPropertyOp9
 70
     1
102
RTVSPropertyOp10
 70
     1
102
RTVSPropertyOp11
 70
     1
102
RTVSPropertyOp12
 70
     1
102
RTVSPropertyOp13
 70
     1
102
RTVSPropertyOp14
 70
     1
102
RTVSPropertyOp15
 70
     1
102
RTVSPropertyOp16
 70
     1
102
RTVSPropertyOp17
 70
     1
102
RTVSPropertyOp18
 70
     1
102
RTVSPropertyOp19
 70
     1
102
RTVSPropertyOp20
 70
     1
102
RTVSPropertyOp21
 70
     1
102
RTVSPropertyOp22
 70
     1
102
RTVSPropertyOp23
 70
     1
102
RTVSPropertyOp24
 70
     1
102
RTVSPropertyOp25
 70
     1
102
RTVSPropertyOp26
 70
     1
102
RTVSPropertyOp27
 70
     1
102
RTVSPropertyOp28
 70
     1
102
RTVSPropertyOp29
 70
     1
102
RTVSPropertyOp30
 70
     1
102
RTVSPropertyOp31
 70
     1
102
RTVSPropertyOp32
 70
     1
102
RTVSPropertyOp33
 70
     1
102
RTVSPropertyOp34
 70
     1
102
RTVSPropertyOp35
 70
     1
102
RTVSPropertyOp36
 70
     1
102
RTVSPropertyOp37
 70
     1
102
RTVSPropertyOp38
 70
     1
102
RTVSPropertyOp39
 70
     1
102
RTVSPropertyOp40
 70
     1
102
RTVSPropertyOp41
 70
     1
102
RTVSPropertyOp42
 70
     1
102
RTVSPropertyOp43
 70
     1
102
RTVSPropertyOp44
 70
     1
102
RTVSPropertyOp45
 70
     1
102
RTVSPropertyOp46
 70
     1
102
RTVSPropertyOp47
 70
     1
102
RTVSPropertyOp48
 70
     1
102
RTVSPropertyOp49
 70
     1
102
RTVSPropertyOp50
 70
     1
102
RTVSPropertyOp51
 70
     0
102
RTVSPropertyOp52
 70
     0
102
RTVSPropertyOp53
 70
     1
102
RTVSPropertyOp54
 70
     1
102
RTVSPropertyOp55
 70
     1
102
RTVSPropertyOp56
 70
     1
102
RTVSPropertyOp57
 70
     1
102
RTVSPropertyOp58
 70
     1
102
RTVSPropertyOp59
 70
     1
102
RTVSPropertyOp60
 70
     1
102
RTVSPropertyOp61
 70
     1
102
RTVSPropertyOp62
 70
     1
  0
XRECORD
  5
14A1
102
{ACAD_REACTORS
330
14A0
102
}
330
14A0
100
AcDbXrecord
280
     1
102
RTVSPost2010Prop28
280
     0
102
RTVSPost2010PropOp28
 70
     1
102
RTVSPost2010Prop29
280
     1
102
RTVSPost2010PropOp29
 70
     1
102
RTVSPost2010Prop30
280
     1
102
RTVSPost2010PropOp30
 70
     1
102
RTVSPost2010Prop31
280
     0
102
RTVSPost2010PropOp31
 70
     1
102
RTVSPost2010Prop32
280
     0
102
RTVSPost2010PropOp32
 70
     1
102
RTVSPost2010Prop33
280
     0
102
RTVSPost2010PropOp33
 70
     1
102
RTVSPost2010Prop34
280
     0
102
RTVSPost2010PropOp34
 70
     1
102
RTVSPost2010Prop35
280
     0
102
RTVSPost2010PropOp35
 70
     1
102
RTVSPost2010Prop36
280
     0
102
RTVSPost2010PropOp36
 70
     1
102
RTVSPost2010Prop37
 90
       50
102
RTVSPost2010PropOp37
 70
     1
102
RTVSPost2010Prop38
140
0.0
102
RTVSPost2010PropOp38
 70
     1
102
RTVSPost2010Prop39
140
1.0
102
RTVSPost2010PropOp39
 70
     1
102
RTVSPost2010Prop40
 90
        0
102
RTVSPost2010PropOp40
 70
     1
102
RTVSPost2010Prop41ColorIndex
 90
       18
102
RTVSPost2010Prop41ColorRGB
 90
        0
102
RTVSPost2010PropOp41
 70
     1
102
RTVSPost2010Prop42
 90
       50
102
RTVSPost2010PropOp42
 70
     1
102
RTVSPost2010Prop43
 90
        3
102
RTVSPost2010PropOp43
 70
     1
102
RTVSPost2010Prop44ColorIndex
 90
        5
102
RTVSPost2010Prop44ColorRGB
 90
      255
102
RTVSPost2010PropOp44
 70
     1
102
RTVSPost2010Prop45
280
     0
102
RTVSPost2010PropOp45
 70
     1
102
RTVSPost2010Prop46
 90
       50
102
RTVSPost2010PropOp46
 70
     1
102
RTVSPost2010Prop47
 90
       50
102
RTVSPost2010PropOp47
 70
     1
102
RTVSPost2010Prop48
 90
       50
102
RTVSPost2010PropOp48
 70
     1
102
RTVSPost2010Prop49
280
     0
102
RTVSPost2010PropOp49
 70
     1
102
RTVSPost2010Prop50
 90
       50
102
RTVSPost2010PropOp50
 70
     1
102
RTVSPost2010Prop51ColorIndex
 90
      256
102
RTVSPost2010Prop51ColorRGB
 90
-16777216
102
RTVSPost2010PropOp51
 70
     0
102
RTVSPost2010Prop52
140
1.0
102
RTVSPost2010PropOp52
 70
     0
102
RTVSPost2010Prop53
 90
        2
102
RTVSPost2010PropOp53
 70
     1
102
RTVSPost2010Prop54
  1
strokes_ogs.tif
102
RTVSPost2010PropOp54
 70
     1
102
RTVSPost2010Prop55
280
     0
102
RTVSPost2010PropOp55
 70
     1
102
RTVSPost2010Prop56
140
1.0
102
RTVSPost2010PropOp56
 70
     1
102
RTVSPost2010Prop57
140
1.0
102
RTVSPost2010PropOp57
 70
     1
102
RTVSPropertyOp0
 70
     1
102
RTVSPropertyOp1
 70
     1
102
RTVSPropertyOp2
 70
     1
102
RTVSPropertyOp3
 70
     1
102
RTVSPropertyOp4
 70
     1
102
RTVSPropertyOp5
 70
     1
102
RTVSPropertyOp6
 70
     1
102
RTVSPropertyOp7
 70
     1
102
RTVSPropertyOp8
 70
     1
102
RTVSPropertyOp9
 70
     1
102
RTVSPropertyOp10
 70
     1
102
RTVSPropertyOp11
 70
     1
102
RTVSPropertyOp12
 70
     1
102
RTVSPropertyOp13
 70
     1
102
RTVSPropertyOp14
 70
     1
102
RTVSPropertyOp15
 70
     1
102
RTVSPropertyOp16
 70
     1
102
RTVSPropertyOp17
 70
     1
102
RTVSPropertyOp18
 70
     1
102
RTVSPropertyOp19
 70
     1
102
RTVSPropertyOp20
 70
     1
102
RTVSPropertyOp21
 70
     1
102
RTVSPropertyOp22
 70
     1
102
RTVSPropertyOp23
 70
     1
102
RTVSPropertyOp24
 70
     1
102
RTVSPropertyOp25
 70
     1
102
RTVSPropertyOp26
 70
     1
102
RTVSPropertyOp27
 70
     1
102
RTVSPropertyOp28
 70
     1
102
RTVSPropertyOp29
 70
     1
102
RTVSPropertyOp30
 70
     1
102
RTVSPropertyOp31
 70
     1
102
RTVSPropertyOp32
 70
     1
102
RTVSPropertyOp33
 70
     1
102
RTVSPropertyOp34
 70
     1
102
RTVSPropertyOp35
 70
     1
102
RTVSPropertyOp36
 70
     1
102
RTVSPropertyOp37
 70
     1
102
RTVSPropertyOp38
 70
     1
102
RTVSPropertyOp39
 70
     1
102
RTVSPropertyOp40
 70
     1
102
RTVSPropertyOp41
 70
     1
102
RTVSPropertyOp42
 70
     1
102
RTVSPropertyOp43
 70
     1
102
RTVSPropertyOp44
 70
     1
102
RTVSPropertyOp45
 70
     1
102
RTVSPropertyOp46
 70
     1
102
RTVSPropertyOp47
 70
     1
102
RTVSPropertyOp48
 70
     1
102
RTVSPropertyOp49
 70
     1
102
RTVSPropertyOp50
 70
     1
102
RTVSPropertyOp51
 70
     0
102
RTVSPropertyOp52
 70
     0
102
RTVSPropertyOp53
 70
     1
102
RTVSPropertyOp54
 70
     1
102
RTVSPropertyOp55
 70
     1
102
RTVSPropertyOp56
 70
     1
102
RTVSPropertyOp57
 70
     1
102
RTVSPropertyOp58
 70
     1
102
RTVSPropertyOp59
 70
     1
102
RTVSPropertyOp60
 70
     1
102
RTVSPropertyOp61
 70
     1
102
RTVSPropertyOp62
 70
     1
  0
XRECORD
  5
148D
102
{ACAD_REACTORS
330
148C
102
}
330
148C
100
AcDbXrecord
280
     1
102
RTVSPost2010Prop28
280
     0
102
RTVSPost2010PropOp28
 70
     1
102
RTVSPost2010Prop29
280
     1
102
RTVSPost2010PropOp29
 70
     1
102
RTVSPost2010Prop30
280
     1
102
RTVSPost2010PropOp30
 70
     1
102
RTVSPost2010Prop31
280
     0
102
RTVSPost2010PropOp31
 70
     1
102
RTVSPost2010Prop32
280
     0
102
RTVSPost2010PropOp32
 70
     1
102
RTVSPost2010Prop33
280
     0
102
RTVSPost2010PropOp33
 70
     1
102
RTVSPost2010Prop34
280
     0
102
RTVSPost2010PropOp34
 70
     1
102
RTVSPost2010Prop35
280
     0
102
RTVSPost2010PropOp35
 70
     1
102
RTVSPost2010Prop36
280
     0
102
RTVSPost2010PropOp36
 70
     1
102
RTVSPost2010Prop37
 90
       50
102
RTVSPost2010PropOp37
 70
     1
102
RTVSPost2010Prop38
140
0.0
102
RTVSPost2010PropOp38
 70
     1
102
RTVSPost2010Prop39
140
1.0
102
RTVSPost2010PropOp39
 70
     1
102
RTVSPost2010Prop40
 90
        0
102
RTVSPost2010PropOp40
 70
     1
102
RTVSPost2010Prop41ColorIndex
 90
       18
102
RTVSPost2010Prop41ColorRGB
 90
        0
102
RTVSPost2010PropOp41
 70
     1
102
RTVSPost2010Prop42
 90
       50
102
RTVSPost2010PropOp42
 70
     1
102
RTVSPost2010Prop43
 90
        3
102
RTVSPost2010PropOp43
 70
     1
102
RTVSPost2010Prop44ColorIndex
 90
        5
102
RTVSPost2010Prop44ColorRGB
 90
      255
102
RTVSPost2010PropOp44
 70
     1
102
RTVSPost2010Prop45
280
     0
102
RTVSPost2010PropOp45
 70
     1
102
RTVSPost2010Prop46
 90
       50
102
RTVSPost2010PropOp46
 70
     1
102
RTVSPost2010Prop47
 90
       50
102
RTVSPost2010PropOp47
 70
     1
102
RTVSPost2010Prop48
 90
       50
102
RTVSPost2010PropOp48
 70
     1
102
RTVSPost2010Prop49
280
     0
102
RTVSPost2010PropOp49
 70
     1
102
RTVSPost2010Prop50
 90
       50
102
RTVSPost2010PropOp50
 70
     1
102
RTVSPost2010Prop51ColorIndex
 90
      256
102
RTVSPost2010Prop51ColorRGB
 90
-16777216
102
RTVSPost2010PropOp51
 70
     0
102
RTVSPost2010Prop52
140
1.0
102
RTVSPost2010PropOp52
 70
     0
102
RTVSPost2010Prop53
 90
        2
102
RTVSPost2010PropOp53
 70
     1
102
RTVSPost2010Prop54
  1
strokes_ogs.tif
102
RTVSPost2010PropOp54
 70
     1
102
RTVSPost2010Prop55
280
     0
102
RTVSPost2010PropOp55
 70
     1
102
RTVSPost2010Prop56
140
1.0
102
RTVSPost2010PropOp56
 70
     1
102
RTVSPost2010Prop57
140
1.0
102
RTVSPost2010PropOp57
 70
     1
102
RTVSPropertyOp0
 70
     1
102
RTVSPropertyOp1
 70
     1
102
RTVSPropertyOp2
 70
     1
102
RTVSPropertyOp3
 70
     1
102
RTVSPropertyOp4
 70
     1
102
RTVSPropertyOp5
 70
     1
102
RTVSPropertyOp6
 70
     1
102
RTVSPropertyOp7
 70
     1
102
RTVSPropertyOp8
 70
     1
102
RTVSPropertyOp9
 70
     1
102
RTVSPropertyOp10
 70
     1
102
RTVSPropertyOp11
 70
     1
102
RTVSPropertyOp12
 70
     1
102
RTVSPropertyOp13
 70
     1
102
RTVSPropertyOp14
 70
     1
102
RTVSPropertyOp15
 70
     1
102
RTVSPropertyOp16
 70
     1
102
RTVSPropertyOp17
 70
     1
102
RTVSPropertyOp18
 70
     1
102
RTVSPropertyOp19
 70
     1
102
RTVSPropertyOp20
 70
     1
102
RTVSPropertyOp21
 70
     1
102
RTVSPropertyOp22
 70
     1
102
RTVSPropertyOp23
 70
     1
102
RTVSPropertyOp24
 70
     1
102
RTVSPropertyOp25
 70
     1
102
RTVSPropertyOp26
 70
     1
102
RTVSPropertyOp27
 70
     1
102
RTVSPropertyOp28
 70
     1
102
RTVSPropertyOp29
 70
     1
102
RTVSPropertyOp30
 70
     1
102
RTVSPropertyOp31
 70
     1
102
RTVSPropertyOp32
 70
     1
102
RTVSPropertyOp33
 70
     1
102
RTVSPropertyOp34
 70
     1
102
RTVSPropertyOp35
 70
     1
102
RTVSPropertyOp36
 70
     1
102
RTVSPropertyOp37
 70
     1
102
RTVSPropertyOp38
 70
     1
102
RTVSPropertyOp39
 70
     1
102
RTVSPropertyOp40
 70
     1
102
RTVSPropertyOp41
 70
     1
102
RTVSPropertyOp42
 70
     1
102
RTVSPropertyOp43
 70
     1
102
RTVSPropertyOp44
 70
     1
102
RTVSPropertyOp45
 70
     1
102
RTVSPropertyOp46
 70
     1
102
RTVSPropertyOp47
 70
     1
102
RTVSPropertyOp48
 70
     1
102
RTVSPropertyOp49
 70
     1
102
RTVSPropertyOp50
 70
     1
102
RTVSPropertyOp51
 70
     0
102
RTVSPropertyOp52
 70
     0
102
RTVSPropertyOp53
 70
     1
102
RTVSPropertyOp54
 70
     1
102
RTVSPropertyOp55
 70
     1
102
RTVSPropertyOp56
 70
     1
102
RTVSPropertyOp57
 70
     1
102
RTVSPropertyOp58
 70
     1
102
RTVSPropertyOp59
 70
     1
102
RTVSPropertyOp60
 70
     1
102
RTVSPropertyOp61
 70
     1
102
RTVSPropertyOp62
 70
     1
  0
XRECORD
  5
1481
102
{ACAD_REACTORS
330
1480
102
}
330
1480
100
AcDbXrecord
280
     1
102
RTVSPost2010Prop28
280
     0
102
RTVSPost2010PropOp28
 70
     1
102
RTVSPost2010Prop29
280
     1
102
RTVSPost2010PropOp29
 70
     1
102
RTVSPost2010Prop30
280
     1
102
RTVSPost2010PropOp30
 70
     1
102
RTVSPost2010Prop31
280
     0
102
RTVSPost2010PropOp31
 70
     1
102
RTVSPost2010Prop32
280
     0
102
RTVSPost2010PropOp32
 70
     1
102
RTVSPost2010Prop33
280
     0
102
RTVSPost2010PropOp33
 70
     1
102
RTVSPost2010Prop34
280
     0
102
RTVSPost2010PropOp34
 70
     1
102
RTVSPost2010Prop35
280
     0
102
RTVSPost2010PropOp35
 70
     1
102
RTVSPost2010Prop36
280
     0
102
RTVSPost2010PropOp36
 70
     1
102
RTVSPost2010Prop37
 90
       50
102
RTVSPost2010PropOp37
 70
     1
102
RTVSPost2010Prop38
140
0.0
102
RTVSPost2010PropOp38
 70
     1
102
RTVSPost2010Prop39
140
1.0
102
RTVSPost2010PropOp39
 70
     1
102
RTVSPost2010Prop40
 90
        0
102
RTVSPost2010PropOp40
 70
     1
102
RTVSPost2010Prop41ColorIndex
 90
       18
102
RTVSPost2010Prop41ColorRGB
 90
        0
102
RTVSPost2010PropOp41
 70
     1
102
RTVSPost2010Prop42
 90
       50
102
RTVSPost2010PropOp42
 70
     1
102
RTVSPost2010Prop43
 90
        3
102
RTVSPost2010PropOp43
 70
     1
102
RTVSPost2010Prop44ColorIndex
 90
        5
102
RTVSPost2010Prop44ColorRGB
 90
      255
102
RTVSPost2010PropOp44
 70
     1
102
RTVSPost2010Prop45
280
     0
102
RTVSPost2010PropOp45
 70
     1
102
RTVSPost2010Prop46
 90
       50
102
RTVSPost2010PropOp46
 70
     1
102
RTVSPost2010Prop47
 90
       50
102
RTVSPost2010PropOp47
 70
     1
102
RTVSPost2010Prop48
 90
       50
102
RTVSPost2010PropOp48
 70
     1
102
RTVSPost2010Prop49
280
     0
102
RTVSPost2010PropOp49
 70
     1
102
RTVSPost2010Prop50
 90
       50
102
RTVSPost2010PropOp50
 70
     1
102
RTVSPost2010Prop51ColorIndex
 90
      256
102
RTVSPost2010Prop51ColorRGB
 90
-16777216
102
RTVSPost2010PropOp51
 70
     0
102
RTVSPost2010Prop52
140
1.0
102
RTVSPost2010PropOp52
 70
     0
102
RTVSPost2010Prop53
 90
        2
102
RTVSPost2010PropOp53
 70
     1
102
RTVSPost2010Prop54
  1
strokes_ogs.tif
102
RTVSPost2010PropOp54
 70
     1
102
RTVSPost2010Prop55
280
     0
102
RTVSPost2010PropOp55
 70
     1
102
RTVSPost2010Prop56
140
1.0
102
RTVSPost2010PropOp56
 70
     1
102
RTVSPost2010Prop57
140
1.0
102
RTVSPost2010PropOp57
 70
     1
102
RTVSPropertyOp0
 70
     1
102
RTVSPropertyOp1
 70
     1
102
RTVSPropertyOp2
 70
     1
102
RTVSPropertyOp3
 70
     1
102
RTVSPropertyOp4
 70
     1
102
RTVSPropertyOp5
 70
     1
102
RTVSPropertyOp6
 70
     1
102
RTVSPropertyOp7
 70
     1
102
RTVSPropertyOp8
 70
     1
102
RTVSPropertyOp9
 70
     1
102
RTVSPropertyOp10
 70
     1
102
RTVSPropertyOp11
 70
     1
102
RTVSPropertyOp12
 70
     1
102
RTVSPropertyOp13
 70
     1
102
RTVSPropertyOp14
 70
     1
102
RTVSPropertyOp15
 70
     1
102
RTVSPropertyOp16
 70
     1
102
RTVSPropertyOp17
 70
     1
102
RTVSPropertyOp18
 70
     1
102
RTVSPropertyOp19
 70
     1
102
RTVSPropertyOp20
 70
     1
102
RTVSPropertyOp21
 70
     1
102
RTVSPropertyOp22
 70
     1
102
RTVSPropertyOp23
 70
     1
102
RTVSPropertyOp24
 70
     1
102
RTVSPropertyOp25
 70
     1
102
RTVSPropertyOp26
 70
     1
102
RTVSPropertyOp27
 70
     1
102
RTVSPropertyOp28
 70
     1
102
RTVSPropertyOp29
 70
     1
102
RTVSPropertyOp30
 70
     1
102
RTVSPropertyOp31
 70
     1
102
RTVSPropertyOp32
 70
     1
102
RTVSPropertyOp33
 70
     1
102
RTVSPropertyOp34
 70
     1
102
RTVSPropertyOp35
 70
     1
102
RTVSPropertyOp36
 70
     1
102
RTVSPropertyOp37
 70
     1
102
RTVSPropertyOp38
 70
     1
102
RTVSPropertyOp39
 70
     1
102
RTVSPropertyOp40
 70
     1
102
RTVSPropertyOp41
 70
     1
102
RTVSPropertyOp42
 70
     1
102
RTVSPropertyOp43
 70
     1
102
RTVSPropertyOp44
 70
     1
102
RTVSPropertyOp45
 70
     1
102
RTVSPropertyOp46
 70
     1
102
RTVSPropertyOp47
 70
     1
102
RTVSPropertyOp48
 70
     1
102
RTVSPropertyOp49
 70
     1
102
RTVSPropertyOp50
 70
     1
102
RTVSPropertyOp51
 70
     0
102
RTVSPropertyOp52
 70
     0
102
RTVSPropertyOp53
 70
     1
102
RTVSPropertyOp54
 70
     1
102
RTVSPropertyOp55
 70
     1
102
RTVSPropertyOp56
 70
     1
102
RTVSPropertyOp57
 70
     1
102
RTVSPropertyOp58
 70
     1
102
RTVSPropertyOp59
 70
     1
102
RTVSPropertyOp60
 70
     1
102
RTVSPropertyOp61
 70
     1
102
RTVSPropertyOp62
 70
     1
  0
XRECORD
  5
14A3
102
{ACAD_REACTORS
330
14A2
102
}
330
14A2
100
AcDbXrecord
280
     1
102
RTVSPost2010Prop28
280
     0
102
RTVSPost2010PropOp28
 70
     1
102
RTVSPost2010Prop29
280
     1
102
RTVSPost2010PropOp29
 70
     1
102
RTVSPost2010Prop30
280
     1
102
RTVSPost2010PropOp30
 70
     1
102
RTVSPost2010Prop31
280
     0
102
RTVSPost2010PropOp31
 70
     1
102
RTVSPost2010Prop32
280
     0
102
RTVSPost2010PropOp32
 70
     1
102
RTVSPost2010Prop33
280
     0
102
RTVSPost2010PropOp33
 70
     1
102
RTVSPost2010Prop34
280
     0
102
RTVSPost2010PropOp34
 70
     1
102
RTVSPost2010Prop35
280
     0
102
RTVSPost2010PropOp35
 70
     1
102
RTVSPost2010Prop36
280
     0
102
RTVSPost2010PropOp36
 70
     1
102
RTVSPost2010Prop37
 90
       50
102
RTVSPost2010PropOp37
 70
     1
102
RTVSPost2010Prop38
140
0.0
102
RTVSPost2010PropOp38
 70
     1
102
RTVSPost2010Prop39
140
1.0
102
RTVSPost2010PropOp39
 70
     1
102
RTVSPost2010Prop40
 90
        0
102
RTVSPost2010PropOp40
 70
     1
102
RTVSPost2010Prop41ColorIndex
 90
       18
102
RTVSPost2010Prop41ColorRGB
 90
        0
102
RTVSPost2010PropOp41
 70
     1
102
RTVSPost2010Prop42
 90
       50
102
RTVSPost2010PropOp42
 70
     1
102
RTVSPost2010Prop43
 90
        3
102
RTVSPost2010PropOp43
 70
     1
102
RTVSPost2010Prop44ColorIndex
 90
        5
102
RTVSPost2010Prop44ColorRGB
 90
      255
102
RTVSPost2010PropOp44
 70
     1
102
RTVSPost2010Prop45
280
     0
102
RTVSPost2010PropOp45
 70
     1
102
RTVSPost2010Prop46
 90
       50
102
RTVSPost2010PropOp46
 70
     1
102
RTVSPost2010Prop47
 90
       50
102
RTVSPost2010PropOp47
 70
     1
102
RTVSPost2010Prop48
 90
       50
102
RTVSPost2010PropOp48
 70
     1
102
RTVSPost2010Prop49
280
     0
102
RTVSPost2010PropOp49
 70
     1
102
RTVSPost2010Prop50
 90
       50
102
RTVSPost2010PropOp50
 70
     1
102
RTVSPost2010Prop51ColorIndex
 90
      256
102
RTVSPost2010Prop51ColorRGB
 90
-16777216
102
RTVSPost2010PropOp51
 70
     0
102
RTVSPost2010Prop52
140
1.0
102
RTVSPost2010PropOp52
 70
     0
102
RTVSPost2010Prop53
 90
        2
102
RTVSPost2010PropOp53
 70
     1
102
RTVSPost2010Prop54
  1
strokes_ogs.tif
102
RTVSPost2010PropOp54
 70
     1
102
RTVSPost2010Prop55
280
     0
102
RTVSPost2010PropOp55
 70
     1
102
RTVSPost2010Prop56
140
1.0
102
RTVSPost2010PropOp56
 70
     1
102
RTVSPost2010Prop57
140
1.0
102
RTVSPost2010PropOp57
 70
     1
102
RTVSPropertyOp0
 70
     1
102
RTVSPropertyOp1
 70
     1
102
RTVSPropertyOp2
 70
     1
102
RTVSPropertyOp3
 70
     1
102
RTVSPropertyOp4
 70
     1
102
RTVSPropertyOp5
 70
     1
102
RTVSPropertyOp6
 70
     1
102
RTVSPropertyOp7
 70
     1
102
RTVSPropertyOp8
 70
     1
102
RTVSPropertyOp9
 70
     1
102
RTVSPropertyOp10
 70
     1
102
RTVSPropertyOp11
 70
     1
102
RTVSPropertyOp12
 70
     1
102
RTVSPropertyOp13
 70
     1
102
RTVSPropertyOp14
 70
     1
102
RTVSPropertyOp15
 70
     1
102
RTVSPropertyOp16
 70
     1
102
RTVSPropertyOp17
 70
     1
102
RTVSPropertyOp18
 70
     1
102
RTVSPropertyOp19
 70
     1
102
RTVSPropertyOp20
 70
     1
102
RTVSPropertyOp21
 70
     1
102
RTVSPropertyOp22
 70
     1
102
RTVSPropertyOp23
 70
     1
102
RTVSPropertyOp24
 70
     1
102
RTVSPropertyOp25
 70
     1
102
RTVSPropertyOp26
 70
     1
102
RTVSPropertyOp27
 70
     1
102
RTVSPropertyOp28
 70
     1
102
RTVSPropertyOp29
 70
     1
102
RTVSPropertyOp30
 70
     1
102
RTVSPropertyOp31
 70
     1
102
RTVSPropertyOp32
 70
     1
102
RTVSPropertyOp33
 70
     1
102
RTVSPropertyOp34
 70
     1
102
RTVSPropertyOp35
 70
     1
102
RTVSPropertyOp36
 70
     1
102
RTVSPropertyOp37
 70
     1
102
RTVSPropertyOp38
 70
     1
102
RTVSPropertyOp39
 70
     1
102
RTVSPropertyOp40
 70
     1
102
RTVSPropertyOp41
 70
     1
102
RTVSPropertyOp42
 70
     1
102
RTVSPropertyOp43
 70
     1
102
RTVSPropertyOp44
 70
     1
102
RTVSPropertyOp45
 70
     1
102
RTVSPropertyOp46
 70
     1
102
RTVSPropertyOp47
 70
     1
102
RTVSPropertyOp48
 70
     1
102
RTVSPropertyOp49
 70
     1
102
RTVSPropertyOp50
 70
     1
102
RTVSPropertyOp51
 70
     0
102
RTVSPropertyOp52
 70
     0
102
RTVSPropertyOp53
 70
     1
102
RTVSPropertyOp54
 70
     1
102
RTVSPropertyOp55
 70
     1
102
RTVSPropertyOp56
 70
     1
102
RTVSPropertyOp57
 70
     1
102
RTVSPropertyOp58
 70
     1
102
RTVSPropertyOp59
 70
     1
102
RTVSPropertyOp60
 70
     1
102
RTVSPropertyOp61
 70
     1
102
RTVSPropertyOp62
 70
     1
  0
ENDSEC
  0
EOF
